  0
SECTION
  2
HEADER
  9
$ACADVER
  1
AC1014
  9
$ACADMAINTVER
 70
     9
  9
$DWGCODEPAGE
  3
ANSI_1252
  9
$INSBASE
 10
0.0
 20
0.0
 30
0.0
  9
$EXTMIN
 10
-0.0000000000000025
 20
-72.0
 30
0.0
  9
$EXTMAX
 10
613.5934530637982
 20
129.5057560155307
 30
0.0
  9
$LIMMIN
 10
0.0
 20
0.0
  9
$LIMMAX
 10
297.0
 20
210.0
  9
$ORTHOMODE
 70
     0
  9
$REGENMODE
 70
     1
  9
$FILLMODE
 70
     1
  9
$QTEXTMODE
 70
     0
  9
$MIRRTEXT
 70
     1
  9
$DRAGMODE
 70
     2
  9
$LTSCALE
 40
10.0
  9
$OSMODE
 70
    37
  9
$ATTMODE
 70
     1
  9
$TEXTSIZE
 40
0.2
  9
$TRACEWID
 40
0.05
  9
$TEXTSTYLE
  7
STANDARD
  9
$CLAYER
  8
0
  9
$CELTYPE
  6
BYLAYER
  9
$CECOLOR
 62
   256
  9
$CELTSCALE
 40
1.0
  9
$DELOBJ
 70
     1
  9
$DISPSILH
 70
     0
  9
$DIMSCALE
 40
1.0
  9
$DIMASZ
 40
0.18
  9
$DIMEXO
 40
0.0625
  9
$DIMDLI
 40
0.38
  9
$DIMRND
 40
0.0
  9
$DIMDLE
 40
0.0
  9
$DIMEXE
 40
0.18
  9
$DIMTP
 40
0.0
  9
$DIMTM
 40
0.0
  9
$DIMTXT
 40
0.18
  9
$DIMCEN
 40
0.09
  9
$DIMTSZ
 40
0.0
  9
$DIMTOL
 70
     0
  9
$DIMLIM
 70
     0
  9
$DIMTIH
 70
     1
  9
$DIMTOH
 70
     1
  9
$DIMSE1
 70
     0
  9
$DIMSE2
 70
     0
  9
$DIMTAD
 70
     0
  9
$DIMZIN
 70
     0
  9
$DIMBLK
  1

  9
$DIMASO
 70
     1
  9
$DIMSHO
 70
     0
  9
$DIMPOST
  1

  9
$DIMAPOST
  1

  9
$DIMALT
 70
     0
  9
$DIMALTD
 70
     2
  9
$DIMALTF
 40
25.4
  9
$DIMLFAC
 40
1.0
  9
$DIMTOFL
 70
     0
  9
$DIMTVP
 40
0.0
  9
$DIMTIX
 70
     0
  9
$DIMSOXD
 70
     0
  9
$DIMSAH
 70
     0
  9
$DIMBLK1
  1

  9
$DIMBLK2
  1

  9
$DIMSTYLE
  2
STANDARD
  9
$DIMCLRD
 70
     0
  9
$DIMCLRE
 70
     0
  9
$DIMCLRT
 70
     0
  9
$DIMTFAC
 40
1.0
  9
$DIMGAP
 40
0.09
  9
$DIMJUST
 70
     0
  9
$DIMSD1
 70
     0
  9
$DIMSD2
 70
     0
  9
$DIMTOLJ
 70
     1
  9
$DIMTZIN
 70
     0
  9
$DIMALTZ
 70
     0
  9
$DIMALTTZ
 70
     0
  9
$DIMFIT
 70
     3
  9
$DIMUPT
 70
     0
  9
$DIMUNIT
 70
     2
  9
$DIMDEC
 70
     4
  9
$DIMTDEC
 70
     4
  9
$DIMALTU
 70
     2
  9
$DIMALTTD
 70
     2
  9
$DIMTXSTY
  7
STANDARD
  9
$DIMAUNIT
 70
     0
  9
$LUNITS
 70
     2
  9
$LUPREC
 70
     4
  9
$SKETCHINC
 40
0.1
  9
$FILLETRAD
 40
0.0
  9
$AUNITS
 70
     0
  9
$AUPREC
 70
     0
  9
$MENU
  1
sitopluk
  9
$ELEVATION
 40
0.0
  9
$PELEVATION
 40
0.0
  9
$THICKNESS
 40
0.0
  9
$LIMCHECK
 70
     0
  9
$CHAMFERA
 40
0.0
  9
$CHAMFERB
 40
0.0
  9
$CHAMFERC
 40
0.0
  9
$CHAMFERD
 40
0.0
  9
$SKPOLY
 70
     0
  9
$TDCREATE
 40
2450498.408726736
  9
$TDUPDATE
 40
2453594.485765845
  9
$TDINDWG
 40
0.0001619213
  9
$TDUSRTIMER
 40
0.0001619213
  9
$USRTIMER
 70
     1
  9
$ANGBASE
 50
0.0
  9
$ANGDIR
 70
     0
  9
$PDMODE
 70
     0
  9
$PDSIZE
 40
0.0
  9
$PLINEWID
 40
0.0
  9
$COORDS
 70
     1
  9
$SPLFRAME
 70
     0
  9
$SPLINETYPE
 70
     6
  9
$SPLINESEGS
 70
     8
  9
$ATTDIA
 70
     0
  9
$ATTREQ
 70
     1
  9
$HANDLING
 70
     1
  9
$HANDSEED
  5
D9
  9
$SURFTAB1
 70
     6
  9
$SURFTAB2
 70
     6
  9
$SURFTYPE
 70
     6
  9
$SURFU
 70
     6
  9
$SURFV
 70
     6
  9
$UCSNAME
  2

  9
$UCSORG
 10
0.0
 20
0.0
 30
0.0
  9
$UCSXDIR
 10
1.0
 20
0.0
 30
0.0
  9
$UCSYDIR
 10
0.0
 20
1.0
 30
0.0
  9
$PUCSNAME
  2

  9
$PUCSORG
 10
0.0
 20
0.0
 30
0.0
  9
$PUCSXDIR
 10
1.0
 20
0.0
 30
0.0
  9
$PUCSYDIR
 10
0.0
 20
1.0
 30
0.0
  9
$USERI1
 70
     0
  9
$USERI2
 70
     0
  9
$USERI3
 70
     0
  9
$USERI4
 70
     0
  9
$USERI5
 70
     0
  9
$USERR1
 40
0.0
  9
$USERR2
 40
0.0
  9
$USERR3
 40
0.0
  9
$USERR4
 40
0.0
  9
$USERR5
 40
0.0
  9
$WORLDVIEW
 70
     1
  9
$SHADEDGE
 70
     3
  9
$SHADEDIF
 70
    70
  9
$TILEMODE
 70
     1
  9
$MAXACTVP
 70
    48
  9
$PINSBASE
 10
0.0
 20
0.0
 30
0.0
  9
$PLIMCHECK
 70
     0
  9
$PEXTMIN
 10
1.000000000000000E+20
 20
1.000000000000000E+20
 30
1.000000000000000E+20
  9
$PEXTMAX
 10
-1.000000000000000E+20
 20
-1.000000000000000E+20
 30
-1.000000000000000E+20
  9
$PLIMMIN
 10
0.0
 20
0.0
  9
$PLIMMAX
 10
12.0
 20
9.0
  9
$UNITMODE
 70
     0
  9
$VISRETAIN
 70
     1
  9
$PLINEGEN
 70
     0
  9
$PSLTSCALE
 70
     1
  9
$TREEDEPTH
 70
  3020
  9
$PICKSTYLE
 70
     1
  9
$CMLSTYLE
  2
STANDARD
  9
$CMLJUST
 70
     0
  9
$CMLSCALE
 40
1.0
  9
$PROXYGRAPHICS
 70
     1
  9
$MEASUREMENT
 70
     0
  0
ENDSEC
  0
SECTION
  2
CLASSES
  0
CLASS
  1
XRECORD
  2
AcDbXrecord
  3
AutoCAD 2000
 90
        0
280
     0
281
     0
  0
CLASS
  1
LWPOLYLINE
  2
AcDbPolyline
  3
AutoCAD 2000
 90
        0
280
     0
281
     1
  0
CLASS
  1
HATCH
  2
AcDbHatch
  3
AutoCAD 2000
 90
        0
280
     0
281
     1
  0
CLASS
  1
ACDBPLACEHOLDER
  2
AcDbPlaceHolder
  3
ObjectDBX Classes
 90
        0
280
     0
281
     0
  0
CLASS
  1
LAYOUT
  2
AcDbLayout
  3
ObjectDBX Classes
 90
        0
280
     0
281
     0
  0
ENDSEC
  0
SECTION
  2
TABLES
  0
TABLE
  2
VPORT
  5
8
330
0
100
AcDbSymbolTable
 70
     2
  0
VPORT
  5
B4
102
{ACAD_XDICTIONARY
360
D7
102
}
330
8
100
AcDbSymbolTableRecord
100
AcDbViewportTableRecord
  2
*ACTIVE
 70
     0
 10
0.0
 20
0.0
 11
1.0
 21
1.0
 12
306.7967265318991
 22
69.00000000000001
 13
0.0
 23
0.0
 14
0.5
 24
0.5
 15
0.0
 25
0.0
 16
0.0
 26
0.0
 36
1.0
 17
0.0
 27
0.0
 37
0.0
 40
353.1809933394771
 41
1.748582230623819
 42
50.0
 43
0.0
 44
0.0
 50
0.0
 51
0.0
 71
     0
 72
   100
 73
     1
 74
     1
 75
     1
 76
     0
 77
     0
 78
     0
  0
ENDTAB
  0
TABLE
  2
LTYPE
  5
5
330
0
100
AcDbSymbolTable
 70
     1
  0
LTYPE
  5
12
330
5
100
AcDbSymbolTableRecord
100
AcDbLinetypeTableRecord
  2
BYBLOCK
 70
     0
  3

 72
    65
 73
     0
 40
0.0
  0
LTYPE
  5
13
330
5
100
AcDbSymbolTableRecord
100
AcDbLinetypeTableRecord
  2
BYLAYER
 70
     0
  3

 72
    65
 73
     0
 40
0.0
  0
LTYPE
  5
14
330
5
100
AcDbSymbolTableRecord
100
AcDbLinetypeTableRecord
  2
CONTINUOUS
 70
     0
  3
Solid line
 72
    65
 73
     0
 40
0.0
  0
ENDTAB
  0
TABLE
  2
LAYER
  5
2
330
0
100
AcDbSymbolTable
 70
     4
  0
LAYER
  5
E
330
2
100
AcDbSymbolTableRecord
100
AcDbLayerTableRecord
  2
0
 70
     0
 62
     7
  6
CONTINUOUS
  0
LAYER
  5
1F
330
2
100
AcDbSymbolTableRecord
100
AcDbLayerTableRecord
  2
PROFILI
 70
     0
 62
     7
  6
CONTINUOUS
  0
LAYER
  5
20
330
2
100
AcDbSymbolTableRecord
100
AcDbLayerTableRecord
  2
FISSAGGI
 70
     0
 62
     2
  6
CONTINUOUS
  0
LAYER
  5
21
330
2
100
AcDbSymbolTableRecord
100
AcDbLayerTableRecord
  2
PANNELLI
 70
     0
 62
     6
  6
CONTINUOUS
  0
ENDTAB
  0
TABLE
  2
STYLE
  5
3
330
0
100
AcDbSymbolTable
 70
     1
  0
STYLE
  5
F
330
3
100
AcDbSymbolTableRecord
100
AcDbTextStyleTableRecord
  2
STANDARD
 70
     0
 40
0.0
 41
1.0
 50
0.0
 71
     0
 42
0.2
  3
txt
  4

  0
ENDTAB
  0
TABLE
  2
VIEW
  5
6
330
0
100
AcDbSymbolTable
 70
     0
  0
ENDTAB
  0
TABLE
  2
UCS
  5
7
330
0
100
AcDbSymbolTable
 70
     0
  0
ENDTAB
  0
TABLE
  2
APPID
  5
9
330
0
100
AcDbSymbolTable
 70
     1
  0
APPID
  5
10
330
9
100
AcDbSymbolTableRecord
100
AcDbRegAppTableRecord
  2
ACAD
 70
     0
  0
ENDTAB
  0
TABLE
  2
DIMSTYLE
  5
A
330
0
100
AcDbSymbolTable
 70
     1
  0
DIMSTYLE
105
B3
330
A
100
AcDbSymbolTableRecord
100
AcDbDimStyleTableRecord
  2
STANDARD
 70
     0
  3

  4

  5

  6

  7

 40
1.0
 41
0.18
 42
0.0625
 43
0.38
 44
0.18
 45
0.0
 46
0.0
 47
0.0
 48
0.0
140
0.18
141
0.09
142
0.0
143
25.4
144
1.0
145
0.0
146
1.0
147
0.09
 71
     0
 72
     0
 73
     1
 74
     1
 75
     0
 76
     0
 77
     0
 78
     0
170
     0
171
     2
172
     0
173
     0
174
     0
175
     0
176
     0
177
     0
178
     0
270
     2
271
     4
272
     4
273
     2
274
     2
340
F
275
     0
280
     0
281
     0
282
     0
283
     1
284
     0
285
     0
286
     0
287
     3
288
     0
  0
ENDTAB
  0
TABLE
  2
BLOCK_RECORD
  5
1
330
0
100
AcDbSymbolTable
 70
     3
  0
BLOCK_RECORD
  5
18
330
1
100
AcDbSymbolTableRecord
100
AcDbBlockTableRecord
  2
*MODEL_SPACE
  0
BLOCK_RECORD
  5
15
330
1
100
AcDbSymbolTableRecord
100
AcDbBlockTableRecord
  2
*PAPER_SPACE
  0
BLOCK_RECORD
  5
22
330
1
100
AcDbSymbolTableRecord
100
AcDbBlockTableRecord
  2
BORDER
  0
BLOCK_RECORD
  5
29
330
1
100
AcDbSymbolTableRecord
100
AcDbBlockTableRecord
  2
119E
  0
BLOCK_RECORD
  5
56
330
1
100
AcDbSymbolTableRecord
100
AcDbBlockTableRecord
  2
119F
  0
ENDTAB
  0
ENDSEC
  0
SECTION
  2
BLOCKS
  0
BLOCK
  5
19
330
18
100
AcDbEntity
  8
0
100
AcDbBlockBegin
  2
*MODEL_SPACE
 70
     0
 71
     0
 10
0.0
 20
0.0
 30
0.0
  3
*MODEL_SPACE
  1

  0
ENDBLK
  5
1A
330
18
100
AcDbEntity
  8
0
100
AcDbBlockEnd
  0
BLOCK
  5
16
330
15
100
AcDbEntity
 67
     1
  8
0
100
AcDbBlockBegin
  2
*PAPER_SPACE
 70
     0
 71
     0
 10
0.0
 20
0.0
 30
0.0
  3
*PAPER_SPACE
  1

  0
ENDBLK
  5
17
330
15
100
AcDbEntity
 67
     1
  8
0
100
AcDbBlockEnd
  0
BLOCK
  5
23
330
22
100
AcDbEntity
  8
0
100
AcDbBlockBegin
  2
BORDER
 70
     0
 71
     0
 10
0.0
 20
0.0
 30
0.0
  3
BORDER
  1

  0
LINE
  5
24
330
22
100
AcDbEntity
  8
0
100
AcDbLine
 10
0.0
 20
0.0
 30
0.0
 11
1.0
 21
0.0
 31
0.0
  0
LINE
  5
25
330
22
100
AcDbEntity
  8
0
100
AcDbLine
 10
1.0
 20
0.0
 30
0.0
 11
1.0
 21
1.0
 31
0.0
  0
LINE
  5
26
330
22
100
AcDbEntity
  8
0
100
AcDbLine
 10
1.0
 20
1.0
 30
0.0
 11
0.0
 21
1.0
 31
0.0
  0
LINE
  5
27
330
22
100
AcDbEntity
  8
0
100
AcDbLine
 10
0.0
 20
1.0
 30
0.0
 11
0.0
 21
0.0
 31
0.0
  0
ENDBLK
  5
28
330
22
100
AcDbEntity
  8
0
100
AcDbBlockEnd
  0
BLOCK
  5
2A
330
29
100
AcDbEntity
  8
0
100
AcDbBlockBegin
  2
119E
 70
     0
 71
     0
 10
0.0
 20
0.0
 30
0.0
  3
119E
  1

  0
LWPOLYLINE
  5
2B
330
29
100
AcDbEntity
  8
0
 62
     3
100
AcDbPolyline
 90
        6
 70
     1
 43
0.0
 10
-50.0
 20
-57.75
 10
-42.638784
 20
-62.0
 10
-42.638784
 20
-70.5
 10
-50.0
 20
-74.75
 10
-57.36121600000001
 20
-70.5
 10
-57.36121600000001
 20
-62.0
  0
LWPOLYLINE
  5
33
330
29
100
AcDbEntity
  8
0
 62
     3
100
AcDbPolyline
 90
        6
 70
     1
 43
0.0
 10
-50.0
 20
-30.75
 10
-42.638784
 20
-26.5
 10
-42.638784
 20
-18.0
 10
-50.0
 20
-13.75
 10
-57.36121600000001
 20
-18.0
 10
-57.36121600000001
 20
-26.5
  0
LINE
  5
3B
330
29
100
AcDbEntity
  8
0
 62
     3
100
AcDbLine
 10
-40.388736
 20
-82.0
 30
0.0
 11
-40.388736
 21
-89.0
 31
0.0
  0
LINE
  5
3C
330
29
100
AcDbEntity
  8
0
 62
     3
100
AcDbLine
 10
-40.388736
 20
0.0
 30
0.0
 11
-40.388736
 21
-7.0
 31
0.0
  0
LINE
  5
3D
330
29
100
AcDbEntity
  8
0
 62
     3
100
AcDbLine
 10
-72.0
 20
-7.0
 30
0.0
 11
-40.388736
 21
-7.0
 31
0.0
  0
LINE
  5
3E
330
29
100
AcDbEntity
  8
0
 62
     3
100
AcDbLine
 10
-72.0
 20
-82.0
 30
0.0
 11
-40.388736
 21
-82.0
 31
0.0
  0
LINE
  5
3F
330
29
100
AcDbEntity
  8
0
 62
     3
100
AcDbLine
 10
-40.388736
 20
0.0
 30
0.0
 11
40.388736
 21
0.0
 31
0.0
  0
LINE
  5
40
330
29
100
AcDbEntity
  8
0
 62
     3
100
AcDbLine
 10
126.470568
 20
-148.0
 30
0.0
 11
126.470568
 21
-69.412685
 31
0.0
  0
LINE
  5
41
330
29
100
AcDbEntity
  8
0
 62
     3
100
AcDbLine
 10
80.98700600000001
 20
-150.0
 30
0.0
 11
124.470568
 21
-150.0
 31
0.0
  0
LINE
  5
42
330
29
100
AcDbEntity
  8
0
 62
     3
100
AcDbLine
 10
-40.388736
 20
-89.0
 30
0.0
 11
40.388736
 21
-89.0
 31
0.0
  0
LINE
  5
43
330
29
100
AcDbEntity
  8
0
 62
     3
100
AcDbLine
 10
-5.719141000000001
 20
-3.0
 30
0.0
 11
73.36761300000001
 21
-3.0
 31
0.0
  0
LINE
  5
44
330
29
100
AcDbEntity
  8
0
 62
     3
100
AcDbLine
 10
82.923796
 20
-67.412685
 30
0.0
 11
124.470568
 21
-67.412685
 31
0.0
  0
LINE
  5
45
330
29
100
AcDbEntity
  8
0
 62
     3
100
AcDbLine
 10
40.388736
 20
-3.0
 30
0.0
 11
40.388736
 21
0.0
 31
0.0
  0
LINE
  5
46
330
29
100
AcDbEntity
  8
0
 62
     3
100
AcDbLine
 10
30.066343
 20
-3.0
 30
0.0
 11
79.785889
 21
-65.89331899999999
 31
0.0
  0
LINE
  5
47
330
29
100
AcDbEntity
  8
0
 62
     3
100
AcDbLine
 10
73.36761300000001
 20
-3.0
 30
0.0
 11
124.288276
 21
-67.412685
 31
0.0
  0
LINE
  5
48
330
29
100
AcDbEntity
  8
0
 62
     3
100
AcDbLine
 10
40.388736
 20
-86.0
 30
0.0
 11
80.98700600000001
 21
-147.0
 31
0.0
  0
LINE
  5
49
330
29
100
AcDbEntity
  8
0
 62
     3
100
AcDbLine
 10
80.98700600000001
 20
-150.0
 30
0.0
 11
80.98700600000001
 21
-147.0
 31
0.0
  0
LINE
  5
4A
330
29
100
AcDbEntity
  8
0
 62
     3
100
AcDbLine
 10
40.388736
 20
-86.0
 30
0.0
 11
0.0
 21
-86.0
 31
0.0
  0
LINE
  5
4B
330
29
100
AcDbEntity
  8
0
 62
     3
100
AcDbLine
 10
31.0
 20
-10.0
 30
0.0
 11
31.0
 21
-82.0
 31
0.0
  0
LINE
  5
4C
330
29
100
AcDbEntity
  8
0
 62
     3
100
AcDbLine
 10
87.5
 20
-149.0
 30
0.0
 11
86.56758499999999
 21
-127.554466
 31
0.0
  0
LINE
  5
4D
330
29
100
AcDbEntity
  8
0
 62
     3
100
AcDbLine
 10
85.399788
 20
-124.899788
 30
0.0
 11
46.5
 21
-86.0
 31
0.0
  0
ARC
  5
4E
330
29
100
AcDbEntity
  8
0
 62
     3
100
AcDbCircle
 10
124.470568
 20
-69.412685
 30
0.0
 40
2.0
100
AcDbArc
 50
0.0
 51
90.0
  0
ARC
  5
4F
330
29
100
AcDbEntity
  8
0
 62
     3
100
AcDbCircle
 10
124.470568
 20
-148.0
 30
0.0
 40
2.0
100
AcDbArc
 50
270.0
 51
0.0
  0
ARC
  5
50
330
29
100
AcDbEntity
  8
0
 62
     3
100
AcDbCircle
 10
81.955401
 20
-65.412685
 30
0.0
 40
2.0
100
AcDbArc
 50
218.327704
 51
270.0
  0
ARC
  5
51
330
29
100
AcDbEntity
  8
0
 62
     3
100
AcDbCircle
 10
82.571361
 20
-127.728215
 30
0.0
 40
4.0
100
AcDbArc
 50
2.489553
 51
45.0
  0
LINE
  5
52
330
29
100
AcDbEntity
  8
0
 62
     3
100
AcDbLine
 10
-40.5
 20
-13.0
 30
0.0
 11
-40.5
 21
-75.5
 31
0.0
  0
ARC
  5
53
330
29
100
AcDbEntity
  8
0
 62
     3
100
AcDbCircle
 10
82.923796
 20
-63.412685
 30
0.0
 40
4.0
100
AcDbArc
 50
218.327704
 51
270.0
  0
LINE
  5
54
330
29
100
AcDbEntity
  8
0
 62
     3
100
AcDbLine
 10
-72.0
 20
-82.0
 30
0.0
 11
-72.0
 21
-7.0
 31
0.0
  0
ENDBLK
  5
55
330
29
100
AcDbEntity
  8
0
100
AcDbBlockEnd
  0
BLOCK
  5
57
330
56
100
AcDbEntity
  8
0
100
AcDbBlockBegin
  2
119F
 70
     0
 71
     0
 10
0.0
 20
0.0
 30
0.0
  3
119F
  1

  0
LINE
  5
58
330
56
100
AcDbEntity
  8
0
 62
     3
100
AcDbLine
 10
-17.5
 20
-72.0
 30
0.0
 11
17.5
 21
-72.0
 31
0.0
  0
ARC
  5
59
330
56
100
AcDbEntity
  8
0
 62
     3
100
AcDbCircle
 10
0.0
 20
0.0
 30
0.0
 40
30.15
100
AcDbArc
 50
35.710522
 51
24.289478
  0
ARC
  5
5A
330
56
100
AcDbEntity
  8
0
 62
     3
100
AcDbCircle
 10
0.0
 20
0.0
 30
0.0
 40
40.5
100
AcDbArc
 50
34.248023
 51
25.751977
  0
LINE
  5
5B
330
56
100
AcDbEntity
  8
0
 62
     3
100
AcDbLine
 10
77.07643399999999
 20
73.36761300000001
 30
0.0
 11
102.076434
 21
30.066343
 31
0.0
  0
LINE
  5
5C
330
56
100
AcDbEntity
  8
0
 62
     3
100
AcDbLine
 10
102.076434
 20
30.066343
 30
0.0
 11
204.323644
 21
101.66061
 31
0.0
  0
LINE
  5
5D
330
56
100
AcDbEntity
  8
0
 62
     3
100
AcDbLine
 10
77.07643399999999
 20
73.36761300000001
 30
0.0
 11
190.956087
 21
126.470568
 31
0.0
  0
ARC
  5
5E
330
56
100
AcDbEntity
  8
0
 62
     3
100
AcDbCircle
 10
199.838112
 20
115.25
 30
0.0
 40
14.310538
100
AcDbArc
 50
288.266819
 51
128.364584
  0
LINE
  5
5F
330
56
100
AcDbEntity
  8
0
 62
     3
100
AcDbLine
 10
165.273609
 20
124.288276
 30
0.0
 11
15.094157
 21
37.582129
 31
0.0
  0
LINE
  5
60
330
56
100
AcDbEntity
  8
0
 62
     3
100
AcDbLine
 10
165.273609
 20
124.288276
 30
0.0
 11
169.72859
 21
116.572023
 31
0.0
  0
LINE
  5
61
330
56
100
AcDbEntity
  8
0
 62
     3
100
AcDbLine
 10
190.273609
 20
80.98700600000001
 30
0.0
 11
40.094157
 21
-5.719141000000001
 31
0.0
  0
LINE
  5
62
330
56
100
AcDbEntity
  8
0
 62
     3
100
AcDbLine
 10
185.818628
 20
88.703259
 30
0.0
 11
190.273609
 21
80.98700600000001
 31
0.0
  0
LINE
  5
63
330
56
100
AcDbEntity
  8
0
 62
     3
100
AcDbLine
 10
49.843336
 20
32.241165
 30
0.0
 11
24.481087
 21
17.598264
 31
0.0
  0
LINE
  5
64
330
56
100
AcDbEntity
  8
0
 62
     3
100
AcDbLine
 10
52.843336
 20
27.045013
 30
0.0
 11
27.481087
 21
12.402111
 31
0.0
  0
LINE
  5
65
330
56
100
AcDbEntity
  8
0
 62
     3
100
AcDbLine
 10
52.843336
 20
27.045013
 30
0.0
 11
49.843336
 21
32.241165
 31
0.0
  0
LINE
  5
66
330
56
100
AcDbEntity
  8
0
 62
     3
100
AcDbLine
 10
50.831037
 20
0.4798
 30
0.0
 11
51.831037
 21
-1.252251
 31
0.0
  0
LINE
  5
67
330
56
100
AcDbEntity
  8
0
 62
     3
100
AcDbLine
 10
52.697063
 20
-0.752251
 30
0.0
 11
54.447063
 21
-3.78334
 31
0.0
  0
LINE
  5
68
330
56
100
AcDbEntity
  8
0
 62
     3
100
AcDbLine
 10
66.55346899999999
 20
7.247749000000001
 30
0.0
 11
68.30346899999999
 21
4.21666
 31
0.0
  0
ARC
  5
69
330
56
100
AcDbEntity
  8
0
 62
     3
100
AcDbCircle
 10
63.33936800000001
 20
4.814736
 30
0.0
 40
5.0
100
AcDbArc
 50
246.869898
 51
353.130102
  0
ARC
  5
6A
330
56
100
AcDbEntity
  8
0
 62
     3
100
AcDbCircle
 10
56.411164
 20
0.814736
 30
0.0
 40
5.0
100
AcDbArc
 50
246.869898
 51
353.130102
  0
LINE
  5
6B
330
56
100
AcDbEntity
  8
0
 62
     3
100
AcDbLine
 10
59.625266
 20
3.247749
 30
0.0
 11
61.375266
 21
0.21666
 31
0.0
  0
LINE
  5
6C
330
56
100
AcDbEntity
  8
0
 62
     3
100
AcDbLine
 10
65.83936800000001
 20
0.484609
 30
0.0
 11
58.911164
 21
-3.515391
 31
0.0
  0
LINE
  5
6D
330
56
100
AcDbEntity
  8
0
 62
     3
100
AcDbLine
 10
66.419495
 20
9.479799999999999
 30
0.0
 11
67.419495
 21
7.747749000000001
 31
0.0
  0
LINE
  5
6E
330
56
100
AcDbEntity
  8
0
 62
     3
100
AcDbLine
 10
67.419495
 20
7.747749000000001
 30
0.0
 11
51.831037
 21
-1.252251
 31
0.0
  0
LINE
  5
6F
330
56
100
AcDbEntity
  8
0
 62
     3
100
AcDbLine
 10
40.419495
 20
54.513121
 30
0.0
 11
24.831037
 21
45.51312100000001
 31
0.0
  0
LINE
  5
70
330
56
100
AcDbEntity
  8
0
 62
     3
100
AcDbLine
 10
41.419495
 20
52.78106999999999
 30
0.0
 11
40.419495
 21
54.513121
 31
0.0
  0
LINE
  5
71
330
56
100
AcDbEntity
  8
0
 62
     3
100
AcDbLine
 10
34.280131
 20
59.146811
 30
0.0
 11
33.321418
 21
60.807349
 31
0.0
  0
LINE
  5
72
330
56
100
AcDbEntity
  8
0
 62
     3
100
AcDbLine
 10
33.255903
 20
58.920825
 30
0.0
 11
31.955393
 21
61.173375
 31
0.0
  0
LINE
  5
73
330
56
100
AcDbEntity
  8
0
 62
     3
100
AcDbLine
 10
24.595649
 20
53.920825
 30
0.0
 11
23.295139
 21
56.173375
 31
0.0
  0
LINE
  5
74
330
56
100
AcDbEntity
  8
0
 62
     3
100
AcDbLine
 10
23.887826
 20
53.146811
 30
0.0
 11
22.929114
 21
54.807349
 31
0.0
  0
LINE
  5
75
330
56
100
AcDbEntity
  8
0
 62
     3
100
AcDbLine
 10
23.295139
 20
56.173375
 30
0.0
 11
22.929114
 21
54.807349
 31
0.0
  0
LINE
  5
76
330
56
100
AcDbEntity
  8
0
 62
     3
100
AcDbLine
 10
31.955393
 20
61.173375
 30
0.0
 11
33.321418
 21
60.807349
 31
0.0
  0
LINE
  5
77
330
56
100
AcDbEntity
  8
0
 62
     3
100
AcDbLine
 10
33.321418
 20
60.807349
 30
0.0
 11
22.929114
 21
54.807349
 31
0.0
  0
LINE
  5
78
330
56
100
AcDbEntity
  8
0
 62
     3
100
AcDbLine
 10
31.955393
 20
61.173375
 30
0.0
 11
23.295139
 21
56.173375
 31
0.0
  0
LINE
  5
79
330
56
100
AcDbEntity
  8
0
 62
     3
100
AcDbLine
 10
27.429114
 20
47.01312100000001
 30
0.0
 11
27.220401
 21
47.37462100000001
 31
0.0
  0
LINE
  5
7A
330
56
100
AcDbEntity
  8
0
 62
     3
100
AcDbLine
 10
37.821418
 20
53.013121
 30
0.0
 11
37.612706
 21
53.374621
 31
0.0
  0
LINE
  5
7B
330
56
100
AcDbEntity
  8
0
 62
     3
100
AcDbLine
 10
36.955393
 20
52.513121
 30
0.0
 11
36.904883
 21
52.600607
 31
0.0
  0
LINE
  5
7C
330
56
100
AcDbEntity
  8
0
 62
     3
100
AcDbLine
 10
28.295139
 20
47.51312100000001
 30
0.0
 11
28.244629
 21
47.600607
 31
0.0
  0
LINE
  5
7D
330
56
100
AcDbEntity
  8
0
 62
     3
100
AcDbLine
 10
32.339368
 20
58.508311
 30
0.0
 11
25.411164
 21
54.508311
 31
0.0
  0
LINE
  5
7E
330
56
100
AcDbEntity
  8
0
 62
     3
100
AcDbLine
 10
31.625266
 20
51.745171
 30
0.0
 11
29.875266
 21
54.77626
 31
0.0
  0
ARC
  5
7F
330
56
100
AcDbEntity
  8
0
 62
     3
100
AcDbCircle
 10
27.911164
 20
50.178184
 30
0.0
 40
5.0
100
AcDbArc
 50
66.86989799999999
 51
173.130102
  0
ARC
  5
80
330
56
100
AcDbEntity
  8
0
 62
     3
100
AcDbCircle
 10
34.839368
 20
54.178184
 30
0.0
 40
5.0
100
AcDbArc
 50
66.86989799999999
 51
173.130102
  0
ARC
  5
81
330
56
100
AcDbEntity
  8
0
 62
     3
100
AcDbCircle
 10
26.661164
 20
52.343248
 30
0.0
 40
5.0
100
AcDbArc
 50
246.869898
 51
353.130102
  0
ARC
  5
82
330
56
100
AcDbEntity
  8
0
 62
     3
100
AcDbCircle
 10
33.589368
 20
56.343248
 30
0.0
 40
5.0
100
AcDbArc
 50
246.869898
 51
353.130102
  0
LINE
  5
83
330
56
100
AcDbEntity
  8
0
 62
     3
100
AcDbLine
 10
38.553469
 20
55.745171
 30
0.0
 11
36.803469
 21
58.77626
 31
0.0
  0
LINE
  5
84
330
56
100
AcDbEntity
  8
0
 62
     3
100
AcDbLine
 10
24.697063
 20
47.745171
 30
0.0
 11
22.947063
 21
50.77626
 31
0.0
  0
LINE
  5
85
330
56
100
AcDbEntity
  8
0
 62
     3
100
AcDbLine
 10
25.831037
 20
43.78107
 30
0.0
 11
24.831037
 21
45.51312100000001
 31
0.0
  0
LINE
  5
86
330
56
100
AcDbEntity
  8
0
 62
     3
100
AcDbLine
 10
-17.5
 20
-36.523965
 30
0.0
 11
-17.5
 21
-72.0
 31
0.0
  0
LINE
  5
87
330
56
100
AcDbEntity
  8
0
 62
     3
100
AcDbLine
 10
17.5
 20
-36.523965
 30
0.0
 11
17.5
 21
-72.0
 31
0.0
  0
LINE
  5
88
330
56
100
AcDbEntity
  8
0
 62
     3
100
AcDbLine
 10
-77.07643399999999
 20
73.36761300000001
 30
0.0
 11
-102.076434
 21
30.066343
 31
0.0
  0
LINE
  5
89
330
56
100
AcDbEntity
  8
0
 62
     3
100
AcDbLine
 10
-77.07643399999999
 20
73.36761300000001
 30
0.0
 11
-190.956087
 21
126.470568
 31
0.0
  0
LINE
  5
8A
330
56
100
AcDbEntity
  8
0
 62
     3
100
AcDbLine
 10
-102.076434
 20
30.066343
 30
0.0
 11
-204.323644
 21
101.66061
 31
0.0
  0
ARC
  5
8B
330
56
100
AcDbEntity
  8
0
 62
     3
100
AcDbCircle
 10
-199.838112
 20
115.25
 30
0.0
 40
14.310538
100
AcDbArc
 50
51.635416
 51
251.733181
  0
LINE
  5
8C
330
56
100
AcDbEntity
  8
0
 62
     3
100
AcDbLine
 10
-165.273609
 20
124.288276
 30
0.0
 11
-15.094157
 21
37.582129
 31
0.0
  0
LINE
  5
8D
330
56
100
AcDbEntity
  8
0
 62
     3
100
AcDbLine
 10
-190.273609
 20
80.98700600000001
 30
0.0
 11
-40.094157
 21
-5.719141000000001
 31
0.0
  0
LINE
  5
8E
330
56
100
AcDbEntity
  8
0
 62
     3
100
AcDbLine
 10
-165.273609
 20
124.288276
 30
0.0
 11
-169.72859
 21
116.572023
 31
0.0
  0
LINE
  5
8F
330
56
100
AcDbEntity
  8
0
 62
     3
100
AcDbLine
 10
-185.818628
 20
88.703259
 30
0.0
 11
-190.273609
 21
80.98700600000001
 31
0.0
  0
LINE
  5
90
330
56
100
AcDbEntity
  8
0
 62
     3
100
AcDbLine
 10
-17.5
 20
-41.0
 30
0.0
 11
-19.5
 21
-41.0
 31
0.0
  0
LINE
  5
91
330
56
100
AcDbEntity
  8
0
 62
     3
100
AcDbLine
 10
-19.5
 20
-42.0
 30
0.0
 11
-23.0
 21
-42.0
 31
0.0
  0
LINE
  5
92
330
56
100
AcDbEntity
  8
0
 62
     3
100
AcDbLine
 10
-19.5
 20
-58.0
 30
0.0
 11
-23.0
 21
-58.0
 31
0.0
  0
ARC
  5
93
330
56
100
AcDbEntity
  8
0
 62
     3
100
AcDbCircle
 10
-20.0
 20
-54.0
 30
0.0
 40
5.0
100
AcDbArc
 50
126.869898
 51
233.130102
  0
ARC
  5
94
330
56
100
AcDbEntity
  8
0
 62
     3
100
AcDbCircle
 10
-20.0
 20
-46.0
 30
0.0
 40
5.0
100
AcDbArc
 50
126.869898
 51
233.130102
  0
LINE
  5
95
330
56
100
AcDbEntity
  8
0
 62
     3
100
AcDbLine
 10
-19.5
 20
-50.0
 30
0.0
 11
-23.0
 21
-50.0
 31
0.0
  0
LINE
  5
96
330
56
100
AcDbEntity
  8
0
 62
     3
100
AcDbLine
 10
-25.0
 20
-54.0
 30
0.0
 11
-25.0
 21
-46.0
 31
0.0
  0
LINE
  5
97
330
56
100
AcDbEntity
  8
0
 62
     3
100
AcDbLine
 10
-17.5
 20
-59.0
 30
0.0
 11
-19.5
 21
-59.0
 31
0.0
  0
LINE
  5
98
330
56
100
AcDbEntity
  8
0
 62
     3
100
AcDbLine
 10
-19.5
 20
-59.0
 30
0.0
 11
-19.5
 21
-41.0
 31
0.0
  0
LINE
  5
99
330
56
100
AcDbEntity
  8
0
 62
     3
100
AcDbLine
 10
19.5
 20
-59.0
 30
0.0
 11
19.5
 21
-41.0
 31
0.0
  0
LINE
  5
9A
330
56
100
AcDbEntity
  8
0
 62
     3
100
AcDbLine
 10
17.5
 20
-59.0
 30
0.0
 11
19.5
 21
-59.0
 31
0.0
  0
LINE
  5
9B
330
56
100
AcDbEntity
  8
0
 62
     3
100
AcDbLine
 10
26.582576
 20
-56.0
 30
0.0
 11
28.5
 21
-56.0
 31
0.0
  0
LINE
  5
9C
330
56
100
AcDbEntity
  8
0
 62
     3
100
AcDbLine
 10
26.898979
 20
-55.0
 30
0.0
 11
29.5
 21
-55.0
 31
0.0
  0
LINE
  5
9D
330
56
100
AcDbEntity
  8
0
 62
     3
100
AcDbLine
 10
26.898979
 20
-45.0
 30
0.0
 11
29.5
 21
-45.0
 31
0.0
  0
LINE
  5
9E
330
56
100
AcDbEntity
  8
0
 62
     3
100
AcDbLine
 10
26.582576
 20
-44.0
 30
0.0
 11
28.5
 21
-44.0
 31
0.0
  0
LINE
  5
9F
330
56
100
AcDbEntity
  8
0
 62
     3
100
AcDbLine
 10
29.5
 20
-45.0
 30
0.0
 11
28.5
 21
-44.0
 31
0.0
  0
LINE
  5
A0
330
56
100
AcDbEntity
  8
0
 62
     3
100
AcDbLine
 10
29.5
 20
-55.0
 30
0.0
 11
28.5
 21
-56.0
 31
0.0
  0
LINE
  5
A1
330
56
100
AcDbEntity
  8
0
 62
     3
100
AcDbLine
 10
28.5
 20
-56.0
 30
0.0
 11
28.5
 21
-44.0
 31
0.0
  0
LINE
  5
A2
330
56
100
AcDbEntity
  8
0
 62
     3
100
AcDbLine
 10
29.5
 20
-55.0
 30
0.0
 11
29.5
 21
-45.0
 31
0.0
  0
LINE
  5
A3
330
56
100
AcDbEntity
  8
0
 62
     3
100
AcDbLine
 10
19.5
 20
-44.0
 30
0.0
 11
19.917424
 21
-44.0
 31
0.0
  0
LINE
  5
A4
330
56
100
AcDbEntity
  8
0
 62
     3
100
AcDbLine
 10
19.5
 20
-56.0
 30
0.0
 11
19.917424
 21
-56.0
 31
0.0
  0
LINE
  5
A5
330
56
100
AcDbEntity
  8
0
 62
     3
100
AcDbLine
 10
19.5
 20
-55.0
 30
0.0
 11
19.601021
 21
-55.0
 31
0.0
  0
LINE
  5
A6
330
56
100
AcDbEntity
  8
0
 62
     3
100
AcDbLine
 10
19.5
 20
-45.0
 30
0.0
 11
19.601021
 21
-45.0
 31
0.0
  0
LINE
  5
A7
330
56
100
AcDbEntity
  8
0
 62
     3
100
AcDbLine
 10
27.0
 20
-54.0
 30
0.0
 11
27.0
 21
-46.0
 31
0.0
  0
LINE
  5
A8
330
56
100
AcDbEntity
  8
0
 62
     3
100
AcDbLine
 10
21.5
 20
-50.0
 30
0.0
 11
25.0
 21
-50.0
 31
0.0
  0
ARC
  5
A9
330
56
100
AcDbEntity
  8
0
 62
     3
100
AcDbCircle
 10
22.0
 20
-46.0
 30
0.0
 40
5.0
100
AcDbArc
 50
306.869898
 51
53.130102
  0
ARC
  5
AA
330
56
100
AcDbEntity
  8
0
 62
     3
100
AcDbCircle
 10
22.0
 20
-54.0
 30
0.0
 40
5.0
100
AcDbArc
 50
306.869898
 51
53.130102
  0
ARC
  5
AB
330
56
100
AcDbEntity
  8
0
 62
     3
100
AcDbCircle
 10
24.5
 20
-46.0
 30
0.0
 40
5.0
100
AcDbArc
 50
126.869898
 51
233.130102
  0
ARC
  5
AC
330
56
100
AcDbEntity
  8
0
 62
     3
100
AcDbCircle
 10
24.5
 20
-54.0
 30
0.0
 40
5.0
100
AcDbArc
 50
126.869898
 51
233.130102
  0
LINE
  5
AD
330
56
100
AcDbEntity
  8
0
 62
     3
100
AcDbLine
 10
21.5
 20
-58.0
 30
0.0
 11
25.0
 21
-58.0
 31
0.0
  0
LINE
  5
AE
330
56
100
AcDbEntity
  8
0
 62
     3
100
AcDbLine
 10
21.5
 20
-42.0
 30
0.0
 11
25.0
 21
-42.0
 31
0.0
  0
LINE
  5
AF
330
56
100
AcDbEntity
  8
0
 62
     3
100
AcDbLine
 10
17.5
 20
-41.0
 30
0.0
 11
19.5
 21
-41.0
 31
0.0
  0
ENDBLK
  5
B0
330
56
100
AcDbEntity
  8
0
100
AcDbBlockEnd
  0
ENDSEC
  0
SECTION
  2
ENTITIES
  0
INSERT
  5
B1
330
18
100
AcDbEntity
  8
0
100
AcDbBlockReference
  2
119E
 10
0.0
 20
0.0
 30
0.0
 50
90.0
  0
INSERT
  5
B2
330
18
100
AcDbEntity
  8
0
100
AcDbBlockReference
  2
119F
 10
399.5
 20
0.0
 30
0.0
  0
ENDSEC
  0
SECTION
  2
OBJECTS
  0
DICTIONARY
  5
C
330
0
100
AcDbDictionary
  3
ACAD_GROUP
350
D
  3
ACAD_LAYOUT
350
B5
  3
ACAD_MLINESTYLE
350
1B
  3
ACDBHEADERROUNDTRIPXREC
350
B8
  0
DICTIONARY
  5
D7
330
B4
100
AcDbDictionary
280
     1
  3
ACAD_XREC_ROUNDTRIP
360
D8
  0
DICTIONARY
  5
D
102
{ACAD_REACTORS
330
C
102
}
330
C
100
AcDbDictionary
  0
DICTIONARY
  5
B5
102
{ACAD_REACTORS
330
C
102
}
330
C
100
AcDbDictionary
  0
DICTIONARY
  5
1B
102
{ACAD_REACTORS
330
C
102
}
330
C
100
AcDbDictionary
  3
STANDARD
350
1C
  0
DICTIONARY
  5
B8
102
{ACAD_REACTORS
330
C
102
}
330
C
100
AcDbDictionary
  3
CEPSNTYPE
350
C0
  3
DIMSTYLEDATA
350
D6
  3
FINGERPRINTGUID
350
C1
  3
HYPERLINKBASE
350
BB
  3
INSUNITS
350
BF
  3
LAYOUTDICT
350
BD
  3
LWETCUNION
350
BE
  3
PSVPSCALE
350
C3
  3
PUCSBASE
350
C6
  3
PUCSORGBACK
350
CC
  3
PUCSORGBOTTOM
350
C8
  3
PUCSORGFRONT
350
CB
  3
PUCSORGLEFT
350
C9
  3
PUCSORGRIGHT
350
CA
  3
PUCSORGTOP
350
C7
  3
PUCSORTHOREF
350
C4
  3
PUCSORTHOVIEW
350
C5
  3
STYLESHEET
350
BC
  3
TSTACKALIGN
350
B9
  3
TSTACKSIZE
350
BA
  3
UCSBASE
350
CF
  3
UCSORGBACK
350
D5
  3
UCSORGBOTTOM
350
D1
  3
UCSORGFRONT
350
D4
  3
UCSORGLEFT
350
D2
  3
UCSORGRIGHT
350
D3
  3
UCSORGTOP
350
D0
  3
UCSORTHOREF
350
CD
  3
UCSORTHOVIEW
350
CE
  3
VERSIONGUID
350
C2
  0
XRECORD
  5
D8
102
{ACAD_REACTORS
330
D7
102
}
330
D7
100
AcDbXrecord
102
UCS
 74
     0
 71
     1
 10
0.0
 20
0.0
 30
0.0
 10
1.0
 20
0.0
 30
0.0
 10
0.0
 20
1.0
 30
0.0
146
0.0
 79
     0
102
VIEW
281
     0
  0
MLINESTYLE
  5
1C
102
{ACAD_REACTORS
330
1B
102
}
330
1B
100
AcDbMlineStyle
  2
STANDARD
 70
     0
  3

 62
   256
 51
90.0
 52
90.0
 71
     2
 49
0.5
 62
   256
  6
BYLAYER
 49
-0.5
 62
   256
  6
BYLAYER
  0
XRECORD
  5
C0
102
{ACAD_REACTORS
330
B8
102
}
330
B8
100
AcDbXrecord
 90
        0
  0
XRECORD
  5
D6
102
{ACAD_REACTORS
330
B8
102
}
330
B8
100
AcDbXrecord
1000
DSTYLE
1002
{
1070
   340
340
F
1002
}
  0
XRECORD
  5
C1
102
{ACAD_REACTORS
330
B8
102
}
330
B8
100
AcDbXrecord
  1
{FAEB1C30-E019-11D5-929B-00C0DF256EC4}
  0
XRECORD
  5
BB
102
{ACAD_REACTORS
330
B8
102
}
330
B8
100
AcDbXrecord
  1

  0
XRECORD
  5
BF
102
{ACAD_REACTORS
330
B8
102
}
330
B8
100
AcDbXrecord
 90
        0
  0
XRECORD
  5
BD
102
{ACAD_REACTORS
330
B8
102
}
330
B8
100
AcDbXrecord
340
B5
  0
XRECORD
  5
BE
102
{ACAD_REACTORS
330
B8
102
}
330
B8
100
AcDbXrecord
 90
    10781
  0
XRECORD
  5
C3
102
{ACAD_REACTORS
330
B8
102
}
330
B8
100
AcDbXrecord
 40
0.0
  0
XRECORD
  5
C6
102
{ACAD_REACTORS
330
B8
102
}
330
B8
100
AcDbXrecord
340
0
  0
XRECORD
  5
CC
102
{ACAD_REACTORS
330
B8
102
}
330
B8
100
AcDbXrecord
 10
0.0
 20
0.0
 30
0.0
  0
XRECORD
  5
C8
102
{ACAD_REACTORS
330
B8
102
}
330
B8
100
AcDbXrecord
 10
0.0
 20
0.0
 30
0.0
  0
XRECORD
  5
CB
102
{ACAD_REACTORS
330
B8
102
}
330
B8
100
AcDbXrecord
 10
0.0
 20
0.0
 30
0.0
  0
XRECORD
  5
C9
102
{ACAD_REACTORS
330
B8
102
}
330
B8
100
AcDbXrecord
 10
0.0
 20
0.0
 30
0.0
  0
XRECORD
  5
CA
102
{ACAD_REACTORS
330
B8
102
}
330
B8
100
AcDbXrecord
 10
0.0
 20
0.0
 30
0.0
  0
XRECORD
  5
C7
102
{ACAD_REACTORS
330
B8
102
}
330
B8
100
AcDbXrecord
 10
0.0
 20
0.0
 30
0.0
  0
XRECORD
  5
C4
102
{ACAD_REACTORS
330
B8
102
}
330
B8
100
AcDbXrecord
340
0
  0
XRECORD
  5
C5
102
{ACAD_REACTORS
330
B8
102
}
330
B8
100
AcDbXrecord
 70
     0
  0
XRECORD
  5
BC
102
{ACAD_REACTORS
330
B8
102
}
330
B8
100
AcDbXrecord
  1

  0
XRECORD
  5
B9
102
{ACAD_REACTORS
330
B8
102
}
330
B8
100
AcDbXrecord
 90
        1
  0
XRECORD
  5
BA
102
{ACAD_REACTORS
330
B8
102
}
330
B8
100
AcDbXrecord
 90
       70
  0
XRECORD
  5
CF
102
{ACAD_REACTORS
330
B8
102
}
330
B8
100
AcDbXrecord
340
0
  0
XRECORD
  5
D5
102
{ACAD_REACTORS
330
B8
102
}
330
B8
100
AcDbXrecord
 10
0.0
 20
0.0
 30
0.0
  0
XRECORD
  5
D1
102
{ACAD_REACTORS
330
B8
102
}
330
B8
100
AcDbXrecord
 10
0.0
 20
0.0
 30
0.0
  0
XRECORD
  5
D4
102
{ACAD_REACTORS
330
B8
102
}
330
B8
100
AcDbXrecord
 10
0.0
 20
0.0
 30
0.0
  0
XRECORD
  5
D2
102
{ACAD_REACTORS
330
B8
102
}
330
B8
100
AcDbXrecord
 10
0.0
 20
0.0
 30
0.0
  0
XRECORD
  5
D3
102
{ACAD_REACTORS
330
B8
102
}
330
B8
100
AcDbXrecord
 10
0.0
 20
0.0
 30
0.0
  0
XRECORD
  5
D0
102
{ACAD_REACTORS
330
B8
102
}
330
B8
100
AcDbXrecord
 10
0.0
 20
0.0
 30
0.0
  0
XRECORD
  5
CD
102
{ACAD_REACTORS
330
B8
102
}
330
B8
100
AcDbXrecord
340
0
  0
XRECORD
  5
CE
102
{ACAD_REACTORS
330
B8
102
}
330
B8
100
AcDbXrecord
 70
     0
  0
XRECORD
  5
C2
102
{ACAD_REACTORS
330
B8
102
}
330
B8
100
AcDbXrecord
  1
{FAEB1C32-E019-11D5-929B-00C0DF256EC4}
  0
ENDSEC
  0
EOF
