  0
SECTION
  2
HEADER
  9
$ACADVER
  1
AC1009
  9
$DWGCODEPAGE
  3
ansi_1252
  9
$INSBASE
 10
0.0
 20
0.0
 30
0.0
  9
$EXTMIN
 10
-306.61109
 20
-445.099
 30
0.0
  9
$EXTMAX
 10
306.61109
 20
445.099
 30
0.0
  9
$LIMMIN
 10
0.0
 20
0.0
  9
$LIMMAX
 10
12.0
 20
9.0
  9
$ORTHOMODE
 70
     0
  9
$REGENMODE
 70
     1
  9
$FILLMODE
 70
     1
  9
$QTEXTMODE
 70
     0
  9
$MIRRTEXT
 70
     1
  9
$DRAGMODE
 70
     2
  9
$LTSCALE
 40
3.230981
  9
$OSMODE
 70
    37
  9
$ATTMODE
 70
     1
  9
$TEXTSIZE
 40
0.2
  9
$TRACEWID
 40
0.05
  9
$TEXTSTYLE
  7
STANDARD
  9
$CLAYER
  8
0
  9
$CELTYPE
  6
BYBLOCK
  9
$CECOLOR
 62
   256
  9
$DIMSCALE
 40
1.0
  9
$DIMASZ
 40
0.18
  9
$DIMEXO
 40
0.0625
  9
$DIMDLI
 40
0.38
  9
$DIMRND
 40
0.0
  9
$DIMDLE
 40
0.0
  9
$DIMEXE
 40
0.18
  9
$DIMTP
 40
0.0
  9
$DIMTM
 40
0.0
  9
$DIMTXT
 40
0.18
  9
$DIMCEN
 40
0.09
  9
$DIMTSZ
 40
0.0
  9
$DIMTOL
 70
     0
  9
$DIMLIM
 70
     0
  9
$DIMTIH
 70
     1
  9
$DIMTOH
 70
     1
  9
$DIMSE1
 70
     0
  9
$DIMSE2
 70
     0
  9
$DIMTAD
 70
     0
  9
$DIMZIN
 70
     0
  9
$DIMBLK
  1

  9
$DIMASO
 70
     1
  9
$DIMSHO
 70
     1
  9
$DIMPOST
  1

  9
$DIMAPOST
  1

  9
$DIMALT
 70
     0
  9
$DIMALTD
 70
     2
  9
$DIMALTF
 40
25.4
  9
$DIMLFAC
 40
1.0
  9
$DIMTOFL
 70
     0
  9
$DIMTVP
 40
0.0
  9
$DIMTIX
 70
     0
  9
$DIMSOXD
 70
     0
  9
$DIMSAH
 70
     0
  9
$DIMBLK1
  1

  9
$DIMBLK2
  1

  9
$DIMSTYLE
  2
STANDARD
  9
$DIMCLRD
 70
     0
  9
$DIMCLRE
 70
     0
  9
$DIMCLRT
 70
     0
  9
$DIMTFAC
 40
1.0
  9
$DIMGAP
 40
0.09
  9
$LUNITS
 70
     2
  9
$LUPREC
 70
     4
  9
$SKETCHINC
 40
0.1
  9
$FILLETRAD
 40
0.5
  9
$AUNITS
 70
     0
  9
$AUPREC
 70
     0
  9
$MENU
  1
.
  9
$ELEVATION
 40
0.0
  9
$PELEVATION
 40
0.0
  9
$THICKNESS
 40
0.0
  9
$LIMCHECK
 70
     0
  9
$CHAMFERA
 40
0.5
  9
$CHAMFERB
 40
0.5
  9
$SKPOLY
 70
     0
  9
$TDCREATE
 40
2453619.495720081
  9
$TDUPDATE
 40
2453619.495720093
  9
$TDINDWG
 40
0.0000000116
  9
$TDUSRTIMER
 40
0.0000000116
  9
$USRTIMER
 70
     1
  9
$ANGBASE
 50
0.0
  9
$ANGDIR
 70
     0
  9
$PDMODE
 70
     0
  9
$PDSIZE
 40
0.0
  9
$PLINEWID
 40
0.0
  9
$COORDS
 70
     1
  9
$SPLFRAME
 70
     0
  9
$SPLINETYPE
 70
     6
  9
$SPLINESEGS
 70
     8
  9
$ATTDIA
 70
     0
  9
$ATTREQ
 70
     1
  9
$HANDLING
 70
     1
  9
$HANDSEED
  5
147
  9
$SURFTAB1
 70
     6
  9
$SURFTAB2
 70
     6
  9
$SURFTYPE
 70
     6
  9
$SURFU
 70
     6
  9
$SURFV
 70
     6
  9
$UCSNAME
  2

  9
$UCSORG
 10
0.0
 20
0.0
 30
0.0
  9
$UCSXDIR
 10
1.0
 20
0.0
 30
0.0
  9
$UCSYDIR
 10
0.0
 20
1.0
 30
0.0
  9
$PUCSNAME
  2

  9
$PUCSORG
 10
0.0
 20
0.0
 30
0.0
  9
$PUCSXDIR
 10
1.0
 20
0.0
 30
0.0
  9
$PUCSYDIR
 10
0.0
 20
1.0
 30
0.0
  9
$USERI1
 70
     0
  9
$USERI2
 70
     0
  9
$USERI3
 70
     0
  9
$USERI4
 70
     0
  9
$USERI5
 70
     0
  9
$USERR1
 40
0.0
  9
$USERR2
 40
0.0
  9
$USERR3
 40
0.0
  9
$USERR4
 40
0.0
  9
$USERR5
 40
0.0
  9
$WORLDVIEW
 70
     1
  9
$SHADEDGE
 70
     3
  9
$SHADEDIF
 70
    70
  9
$TILEMODE
 70
     1
  9
$MAXACTVP
 70
    64
  9
$PLIMCHECK
 70
     0
  9
$PEXTMIN
 10
1.000000000000000E+20
 20
1.000000000000000E+20
 30
1.000000000000000E+20
  9
$PEXTMAX
 10
-1.000000000000000E+20
 20
-1.000000000000000E+20
 30
-1.000000000000000E+20
  9
$PLIMMIN
 10
0.0
 20
0.0
  9
$PLIMMAX
 10
12.0
 20
9.0
  9
$UNITMODE
 70
     0
  9
$VISRETAIN
 70
     1
  9
$PLINEGEN
 70
     0
  9
$PSLTSCALE
 70
     1
  0
ENDSEC
  0
SECTION
  2
TABLES
  0
TABLE
  2
VPORT
 70
     1
  0
VPORT
  2
*ACTIVE
 70
     0
 10
0.0
 20
0.0
 11
1.0
 21
1.0
 12
10.42990654205607
 22
4.5
 13
0.0
 23
0.0
 14
0.5
 24
0.5
 15
0.5
 25
0.5
 16
0.0
 26
0.0
 36
1.0
 17
0.0
 27
0.0
 37
0.0
 40
9.0
 41
1.972972972850329
 42
50.0
 43
0.0
 44
0.0
 50
0.0
 51
0.0
 71
     0
 72
   100
 73
     1
 74
     3
 75
     0
 76
     0
 77
     0
 78
     0
  0
ENDTAB
  0
TABLE
  2
LTYPE
 70
     9
  0
LTYPE
  2
CONTINUOUS
 70
     0
  3
Solid Line
 72
    65
 73
     0
 40
0.0
  0
LTYPE
  2
MCDASH1
 70
     0
  3
MiniCad+ Generated
 72
    65
 73
     2
 40
2.116538
 49
1.058075
 49
-1.058463
  0
LTYPE
  2
MCDASH2
 70
     0
  3
MiniCad+ Generated
 72
    65
 73
     2
 40
3.527692
 49
2.469229
 49
-1.058463
  0
LTYPE
  2
MCDASH3
 70
     0
  3
MiniCad+ Generated
 72
    65
 73
     2
 40
6.35
 49
5.291537
 49
-1.058463
  0
LTYPE
  2
MCDASH4
 70
     0
  3
MiniCad+ Generated
 72
    65
 73
     2
 40
7.760767
 49
6.702692
 49
-1.058075
  0
LTYPE
  2
MCDASH5
 70
     0
  3
MiniCad+ Generated
 72
    65
 73
     2
 40
1.058075
 49
0.352692
 49
-0.705383
  0
LTYPE
  2
MCDASH6
 70
     0
  3
MiniCad+ Generated
 72
    65
 73
     4
 40
5.291538
 49
3.175
 49
-1.058075
 49
0.352692
 49
-0.705771
  0
LTYPE
  2
MCDASH7
 70
     0
  3
MiniCad+ Generated
 72
    65
 73
     6
 40
9.525001
 49
3.175
 49
-1.058075
 49
3.175
 49
-1.058463
 49
0.352692
 49
-0.705771
  0
LTYPE
  2
MCDASH8
 70
     0
  3
MiniCad+ Generated
 72
    65
 73
     6
 40
6.350001000000001
 49
3.175
 49
-1.058075
 49
0.352692
 49
-0.705771
 49
0.352692
 49
-0.705771
  0
ENDTAB
  0
TABLE
  2
LAYER
 70
     4
  0
LAYER
  2
0
 70
     0
 62
     7
  6
CONTINUOUS
  0
LAYER
  2
PROFILI
 70
     0
 62
     7
  6
CONTINUOUS
  0
LAYER
  2
FISSAGGI
 70
     0
 62
     2
  6
CONTINUOUS
  0
LAYER
  2
PANNELLI
 70
     0
 62
     6
  6
CONTINUOUS
  0
ENDTAB
  0
TABLE
  2
STYLE
 70
     1
  0
STYLE
  2
STANDARD
 70
     0
 40
0.0
 41
1.0
 50
0.0
 71
     0
 42
0.2
  3
txt
  4

  0
ENDTAB
  0
TABLE
  2
VIEW
 70
     0
  0
ENDTAB
  0
TABLE
  2
UCS
 70
     0
  0
ENDTAB
  0
TABLE
  2
APPID
 70
     1
  0
APPID
  2
ACAD
 70
     0
  0
ENDTAB
  0
TABLE
  2
DIMSTYLE
 70
     1
  0
DIMSTYLE
  2
STANDARD
 70
     0
  3

  4

  5

  6

  7

 40
1.0
 41
0.18
 42
0.0625
 43
0.38
 44
0.18
 45
0.0
 46
0.0
 47
0.0
 48
0.0
140
0.18
141
0.09
142
0.0
143
25.4
144
1.0
145
0.0
146
1.0
147
0.09
 71
     0
 72
     0
 73
     1
 74
     1
 75
     0
 76
     0
 77
     0
 78
     0
170
     0
171
     2
172
     0
173
     0
174
     0
175
     0
176
     0
177
     0
178
     0
  0
ENDTAB
  0
ENDSEC
  0
SECTION
  2
BLOCKS
  0
BLOCK
  8
0
  2
$MODEL_SPACE
 70
     0
 10
0.0
 20
0.0
 30
0.0
  3
$MODEL_SPACE
  1

  0
ENDBLK
  5
142
  8
0
  0
BLOCK
 67
     1
  8
0
  2
$PAPER_SPACE
 70
     0
 10
0.0
 20
0.0
 30
0.0
  3
$PAPER_SPACE
  1

  0
ENDBLK
  5
140
 67
     1
  8
0
  0
BLOCK
  8
0
  2
$ARROW1$
 70
     0
 10
0.0
 20
0.0
 30
0.0
  3
$ARROW1$
  1

  0
SOLID
  5
30
  8
0
 62
     0
 10
-25.4
 20
4.318
 30
0.0
 11
-25.4
 21
-4.318
 31
0.0
 12
0.0
 22
0.0
 32
0.0
 13
0.0
 23
0.0
 33
0.0
  0
ENDBLK
  5
12D
  8
0
  0
BLOCK
  8
0
  2
$ARROW2$
 70
     0
 10
0.0
 20
0.0
 30
0.0
  3
$ARROW2$
  1

  0
SOLID
  5
34
  8
0
 62
     0
 10
-25.4
 20
12.7
 30
0.0
 11
-25.4
 21
-12.7
 31
0.0
 12
0.0
 22
0.0
 32
0.0
 13
0.0
 23
0.0
 33
0.0
  0
ENDBLK
  5
12F
  8
0
  0
BLOCK
  8
0
  2
$ARROW3$
 70
     0
 10
0.0
 20
0.0
 30
0.0
  3
$ARROW3$
  1

  0
POLYLINE
  5
38
  8
0
  6
BYBLOCK
 62
     0
 66
     1
 10
0.0
 20
0.0
 30
0.0
 70
     1
 40
0.5
 41
0.5
  0
VERTEX
  5
E8
  8
0
  6
BYBLOCK
 62
     0
 10
-6.35
 20
0.0
 30
0.0
 42
1.0
  0
VERTEX
  5
E9
  8
0
  6
BYBLOCK
 62
     0
 10
6.35
 20
0.0
 30
0.0
 42
1.0
  0
SEQEND
  5
130
  8
0
  6
BYBLOCK
 62
     0
  0
ENDBLK
  5
132
  8
0
  0
BLOCK
  8
0
  2
$ARROW4$
 70
     0
 10
0.0
 20
0.0
 30
0.0
  3
$ARROW4$
  1

  0
LINE
  5
3F
  8
0
  6
BYBLOCK
 62
     0
 10
12.7
 20
12.7
 30
0.0
 11
-12.7
 21
-12.7
 31
0.0
  0
ENDBLK
  5
134
  8
0
  0
BLOCK
  8
0
  2
$ARROW5$
 70
     0
 10
0.0
 20
0.0
 30
0.0
  3
$ARROW5$
  1

  0
LINE
  5
43
  8
0
  6
BYBLOCK
 62
     0
 10
12.7
 20
12.7
 30
0.0
 11
-12.7
 21
-12.7
 31
0.0
  0
LINE
  5
44
  8
0
  6
BYBLOCK
 62
     0
 10
-12.7
 20
12.7
 30
0.0
 11
12.7
 21
-12.7
 31
0.0
  0
ENDBLK
  5
136
  8
0
  0
BLOCK
  8
0
  2
BORDER
 70
     0
 10
0.0
 20
0.0
 30
0.0
  3
BORDER
  1

  0
LINE
  5
48
  8
0
 62
     6
 10
0.0
 20
0.0
 30
0.0
 11
1.0
 21
0.0
 31
0.0
  0
LINE
  5
49
  8
0
 62
     6
 10
1.0
 20
0.0
 30
0.0
 11
1.0
 21
1.0
 31
0.0
  0
LINE
  5
4A
  8
0
 62
     6
 10
1.0
 20
1.0
 30
0.0
 11
0.0
 21
1.0
 31
0.0
  0
LINE
  5
4B
  8
0
 62
     6
 10
0.0
 20
1.0
 30
0.0
 11
0.0
 21
0.0
 31
0.0
  0
ENDBLK
  5
138
  8
0
  0
BLOCK
  8
0
  2
119E
 70
     0
 10
0.0
 20
0.0
 30
0.0
  3
119E
  1

  0
POLYLINE
  5
4F
  8
0
 62
     3
 66
     1
 10
0.0
 20
0.0
 30
0.0
 70
     1
  0
VERTEX
  5
EB
  8
0
 62
     3
 10
-50.0
 20
-57.75
 30
0.0
  0
VERTEX
  5
EC
  8
0
 62
     3
 10
-42.63878
 20
-62.0
 30
0.0
  0
VERTEX
  5
ED
  8
0
 62
     3
 10
-42.63878
 20
-70.5
 30
0.0
  0
VERTEX
  5
EE
  8
0
 62
     3
 10
-50.0
 20
-74.75
 30
0.0
  0
VERTEX
  5
EF
  8
0
 62
     3
 10
-57.36122
 20
-70.5
 30
0.0
  0
VERTEX
  5
F0
  8
0
 62
     3
 10
-57.36122
 20
-62.0
 30
0.0
  0
SEQEND
  5
139
  8
0
 62
     3
  0
POLYLINE
  5
57
  8
0
 62
     3
 66
     1
 10
0.0
 20
0.0
 30
0.0
 70
     1
  0
VERTEX
  5
F2
  8
0
 62
     3
 10
-50.0
 20
-30.75
 30
0.0
  0
VERTEX
  5
F3
  8
0
 62
     3
 10
-42.63878
 20
-26.5
 30
0.0
  0
VERTEX
  5
F4
  8
0
 62
     3
 10
-42.63878
 20
-18.0
 30
0.0
  0
VERTEX
  5
F5
  8
0
 62
     3
 10
-50.0
 20
-13.75
 30
0.0
  0
VERTEX
  5
F6
  8
0
 62
     3
 10
-57.36122
 20
-18.0
 30
0.0
  0
VERTEX
  5
F7
  8
0
 62
     3
 10
-57.36122
 20
-26.5
 30
0.0
  0
SEQEND
  5
13A
  8
0
 62
     3
  0
LINE
  5
5F
  8
0
 62
     3
 10
-40.38874
 20
-82.0
 30
0.0
 11
-40.38874
 21
-89.0
 31
0.0
  0
LINE
  5
60
  8
0
 62
     3
 10
-40.38874
 20
0.0
 30
0.0
 11
-40.38874
 21
-7.0
 31
0.0
  0
LINE
  5
61
  8
0
 62
     3
 10
-72.0
 20
-7.0
 30
0.0
 11
-40.38874
 21
-7.0
 31
0.0
  0
LINE
  5
62
  8
0
 62
     3
 10
-72.0
 20
-82.0
 30
0.0
 11
-40.38874
 21
-82.0
 31
0.0
  0
LINE
  5
63
  8
0
 62
     3
 10
-40.38874
 20
0.0
 30
0.0
 11
40.38874
 21
0.0
 31
0.0
  0
LINE
  5
64
  8
0
 62
     3
 10
126.47057
 20
-148.0
 30
0.0
 11
126.47057
 21
-69.41269
 31
0.0
  0
LINE
  5
65
  8
0
 62
     3
 10
80.98701
 20
-150.0
 30
0.0
 11
124.47057
 21
-150.0
 31
0.0
  0
LINE
  5
66
  8
0
 62
     3
 10
-40.38874
 20
-89.0
 30
0.0
 11
40.38874
 21
-89.0
 31
0.0
  0
LINE
  5
67
  8
0
 62
     3
 10
-5.71914
 20
-3.0
 30
0.0
 11
73.36761
 21
-3.0
 31
0.0
  0
LINE
  5
68
  8
0
 62
     3
 10
82.9238
 20
-67.41269
 30
0.0
 11
124.47057
 21
-67.41269
 31
0.0
  0
LINE
  5
69
  8
0
 62
     3
 10
40.38874
 20
-3.0
 30
0.0
 11
40.38874
 21
0.0
 31
0.0
  0
LINE
  5
6A
  8
0
 62
     3
 10
30.06634
 20
-3.0
 30
0.0
 11
79.78589
 21
-65.89332
 31
0.0
  0
LINE
  5
6B
  8
0
 62
     3
 10
73.36761
 20
-3.0
 30
0.0
 11
124.28828
 21
-67.41269
 31
0.0
  0
LINE
  5
6C
  8
0
 62
     3
 10
40.38874
 20
-86.0
 30
0.0
 11
80.98701
 21
-147.0
 31
0.0
  0
LINE
  5
6D
  8
0
 62
     3
 10
80.98701
 20
-150.0
 30
0.0
 11
80.98701
 21
-147.0
 31
0.0
  0
LINE
  5
6E
  8
0
 62
     3
 10
40.38874
 20
-86.0
 30
0.0
 11
0.0
 21
-86.0
 31
0.0
  0
LINE
  5
6F
  8
0
 62
     3
 10
31.0
 20
-10.0
 30
0.0
 11
31.0
 21
-82.0
 31
0.0
  0
LINE
  5
70
  8
0
 62
     3
 10
87.5
 20
-149.0
 30
0.0
 11
86.56759
 21
-127.55447
 31
0.0
  0
LINE
  5
71
  8
0
 62
     3
 10
85.39979
 20
-124.89979
 30
0.0
 11
46.5
 21
-86.0
 31
0.0
  0
ARC
  5
72
  8
0
 62
     3
 10
124.47057
 20
-69.41269
 30
0.0
 40
2.0
 50
0.0
 51
90.0
  0
ARC
  5
73
  8
0
 62
     3
 10
124.47057
 20
-148.0
 30
0.0
 40
2.0
 50
270.0
 51
0.0
  0
ARC
  5
74
  8
0
 62
     3
 10
81.9554
 20
-65.41269
 30
0.0
 40
2.0
 50
218.327698
 51
270.0
  0
ARC
  5
75
  8
0
 62
     3
 10
82.57136
 20
-127.72822
 30
0.0
 40
4.0
 50
2.489548
 51
45.0
  0
LINE
  5
76
  8
0
 62
     3
 10
-40.5
 20
-13.0
 30
0.0
 11
-40.5
 21
-75.5
 31
0.0
  0
ARC
  5
77
  8
0
 62
     3
 10
82.9238
 20
-63.41269
 30
0.0
 40
4.0
 50
218.327698
 51
270.0
  0
LINE
  5
78
  8
0
 62
     3
 10
-72.0
 20
-82.0
 30
0.0
 11
-72.0
 21
-7.0
 31
0.0
  0
ENDBLK
  5
13C
  8
0
  0
BLOCK
  8
0
  2
119F
 70
     0
 10
0.0
 20
0.0
 30
0.0
  3
119F
  1

  0
LINE
  5
7C
  8
0
 62
     3
 10
-17.5
 20
-72.0
 30
0.0
 11
17.5
 21
-72.0
 31
0.0
  0
ARC
  5
7D
  8
0
 62
     3
 10
0.0
 20
0.0
 30
0.0
 40
24.15
 50
35.71667500000001
 51
24.300003
  0
ARC
  5
7E
  8
0
 62
     3
 10
0.0
 20
0.0
 30
0.0
 40
40.5
 50
34.248032
 51
25.751984
  0
LINE
  5
7F
  8
0
 62
     3
 10
77.07643
 20
73.36761
 30
0.0
 11
102.07643
 21
30.06634
 31
0.0
  0
LINE
  5
80
  8
0
 62
     3
 10
102.07643
 20
30.06634
 30
0.0
 11
204.32364
 21
101.66061
 31
0.0
  0
LINE
  5
81
  8
0
 62
     3
 10
77.07643
 20
73.36761
 30
0.0
 11
190.95609
 21
126.47057
 31
0.0
  0
ARC
  5
82
  8
0
 62
     3
 10
199.83811
 20
115.25
 30
0.0
 40
14.31054
 50
288.266815
 51
128.364578
  0
LINE
  5
83
  8
0
 62
     3
 10
165.27361
 20
124.28828
 30
0.0
 11
15.09416
 21
37.58213
 31
0.0
  0
LINE
  5
84
  8
0
 62
     3
 10
165.27361
 20
124.28828
 30
0.0
 11
169.72859
 21
116.57202
 31
0.0
  0
LINE
  5
85
  8
0
 62
     3
 10
190.27361
 20
80.98701
 30
0.0
 11
40.09416
 21
-5.71914
 31
0.0
  0
LINE
  5
86
  8
0
 62
     3
 10
185.81863
 20
88.70326
 30
0.0
 11
190.27361
 21
80.98701
 31
0.0
  0
LINE
  5
87
  8
0
 62
     3
 10
49.84334
 20
32.24117
 30
0.0
 11
19.60737
 21
14.0987
 31
0.0
  0
LINE
  5
88
  8
0
 62
     3
 10
52.84334
 20
27.04501
 30
0.0
 11
22.01036
 21
9.93815
 31
0.0
  0
LINE
  5
89
  8
0
 62
     3
 10
52.84334
 20
27.04501
 30
0.0
 11
49.84334
 21
32.24117
 31
0.0
  0
LINE
  5
8A
  8
0
 62
     3
 10
50.83104
 20
0.4798
 30
0.0
 11
51.83104
 21
-1.25225
 31
0.0
  0
LINE
  5
8B
  8
0
 62
     3
 10
52.69706
 20
-0.75225
 30
0.0
 11
54.44706
 21
-3.78334
 31
0.0
  0
LINE
  5
8C
  8
0
 62
     3
 10
66.55347
 20
7.24775
 30
0.0
 11
68.30347
 21
4.21666
 31
0.0
  0
ARC
  5
8D
  8
0
 62
     3
 10
63.33937
 20
4.81474
 30
0.0
 40
5.0
 50
246.869888
 51
353.130096
  0
ARC
  5
8E
  8
0
 62
     3
 10
56.41116
 20
0.81474
 30
0.0
 40
5.0
 50
246.869888
 51
353.130096
  0
LINE
  5
8F
  8
0
 62
     3
 10
59.62527
 20
3.24775
 30
0.0
 11
61.37527
 21
0.21666
 31
0.0
  0
LINE
  5
90
  8
0
 62
     3
 10
65.83937
 20
0.48461
 30
0.0
 11
58.91116
 21
-3.51539
 31
0.0
  0
LINE
  5
91
  8
0
 62
     3
 10
66.4195
 20
9.479799999999999
 30
0.0
 11
67.4195
 21
7.74775
 31
0.0
  0
LINE
  5
92
  8
0
 62
     3
 10
67.4195
 20
7.74775
 30
0.0
 11
51.83104
 21
-1.25225
 31
0.0
  0
LINE
  5
93
  8
0
 62
     3
 10
40.4195
 20
54.51312
 30
0.0
 11
24.83104
 21
45.51312
 31
0.0
  0
LINE
  5
94
  8
0
 62
     3
 10
41.4195
 20
52.78107
 30
0.0
 11
40.4195
 21
54.51312
 31
0.0
  0
LINE
  5
95
  8
0
 62
     3
 10
34.28013
 20
59.14681
 30
0.0
 11
33.32142
 21
60.80735
 31
0.0
  0
LINE
  5
96
  8
0
 62
     3
 10
33.2559
 20
58.92083
 30
0.0
 11
31.95539
 21
61.17338
 31
0.0
  0
LINE
  5
97
  8
0
 62
     3
 10
24.59565
 20
53.92083
 30
0.0
 11
23.29514
 21
56.17338
 31
0.0
  0
LINE
  5
98
  8
0
 62
     3
 10
23.88783
 20
53.14681
 30
0.0
 11
22.92911
 21
54.80735
 31
0.0
  0
LINE
  5
99
  8
0
 62
     3
 10
23.29514
 20
56.17338
 30
0.0
 11
22.92911
 21
54.80735
 31
0.0
  0
LINE
  5
9A
  8
0
 62
     3
 10
31.95539
 20
61.17338
 30
0.0
 11
33.32142
 21
60.80735
 31
0.0
  0
LINE
  5
9B
  8
0
 62
     3
 10
33.32142
 20
60.80735
 30
0.0
 11
22.92911
 21
54.80735
 31
0.0
  0
LINE
  5
9C
  8
0
 62
     3
 10
31.95539
 20
61.17338
 30
0.0
 11
23.29514
 21
56.17338
 31
0.0
  0
LINE
  5
9D
  8
0
 62
     3
 10
27.42911
 20
47.01312
 30
0.0
 11
27.2204
 21
47.37462
 31
0.0
  0
LINE
  5
9E
  8
0
 62
     3
 10
37.82142
 20
53.01312
 30
0.0
 11
37.61271
 21
53.37462
 31
0.0
  0
LINE
  5
9F
  8
0
 62
     3
 10
36.95539
 20
52.51312
 30
0.0
 11
36.90488
 21
52.60061
 31
0.0
  0
LINE
  5
A0
  8
0
 62
     3
 10
28.29514
 20
47.51312
 30
0.0
 11
28.24463
 21
47.60061
 31
0.0
  0
LINE
  5
A1
  8
0
 62
     3
 10
32.33937
 20
58.50831
 30
0.0
 11
25.41116
 21
54.50831
 31
0.0
  0
LINE
  5
A2
  8
0
 62
     3
 10
31.62527
 20
51.74517
 30
0.0
 11
29.87527
 21
54.77626
 31
0.0
  0
ARC
  5
A3
  8
0
 62
     3
 10
27.91116
 20
50.17818
 30
0.0
 40
5.0
 50
66.869888
 51
173.130096
  0
ARC
  5
A4
  8
0
 62
     3
 10
34.83937
 20
54.17818
 30
0.0
 40
5.0
 50
66.869888
 51
173.130096
  0
ARC
  5
A5
  8
0
 62
     3
 10
26.66116
 20
52.34325
 30
0.0
 40
5.0
 50
246.869888
 51
353.130096
  0
ARC
  5
A6
  8
0
 62
     3
 10
33.58937
 20
56.34325
 30
0.0
 40
5.0
 50
246.869888
 51
353.130096
  0
LINE
  5
A7
  8
0
 62
     3
 10
38.55347
 20
55.74517
 30
0.0
 11
36.80347
 21
58.77626
 31
0.0
  0
LINE
  5
A8
  8
0
 62
     3
 10
24.69706
 20
47.74517
 30
0.0
 11
22.94706
 21
50.77626
 31
0.0
  0
LINE
  5
A9
  8
0
 62
     3
 10
25.83104
 20
43.78107
 30
0.0
 11
24.83104
 21
45.51312
 31
0.0
  0
LINE
  5
AA
  8
0
 62
     3
 10
-17.5
 20
-36.52396
 30
0.0
 11
-17.5
 21
-72.0
 31
0.0
  0
LINE
  5
AB
  8
0
 62
     3
 10
17.5
 20
-36.52396
 30
0.0
 11
17.5
 21
-72.0
 31
0.0
  0
LINE
  5
AC
  8
0
 62
     3
 10
-77.07643
 20
73.36761
 30
0.0
 11
-102.07643
 21
30.06634
 31
0.0
  0
LINE
  5
AD
  8
0
 62
     3
 10
-77.07643
 20
73.36761
 30
0.0
 11
-190.95609
 21
126.47057
 31
0.0
  0
LINE
  5
AE
  8
0
 62
     3
 10
-102.07643
 20
30.06634
 30
0.0
 11
-204.32364
 21
101.66061
 31
0.0
  0
ARC
  5
AF
  8
0
 62
     3
 10
-199.83811
 20
115.25
 30
0.0
 40
14.31054
 50
51.635422
 51
251.733185
  0
LINE
  5
B0
  8
0
 62
     3
 10
-165.27361
 20
124.28828
 30
0.0
 11
-15.09416
 21
37.58213
 31
0.0
  0
LINE
  5
B1
  8
0
 62
     3
 10
-190.27361
 20
80.98701
 30
0.0
 11
-40.09416
 21
-5.71914
 31
0.0
  0
LINE
  5
B2
  8
0
 62
     3
 10
-165.27361
 20
124.28828
 30
0.0
 11
-169.72859
 21
116.57202
 31
0.0
  0
LINE
  5
B3
  8
0
 62
     3
 10
-185.81863
 20
88.70326
 30
0.0
 11
-190.27361
 21
80.98701
 31
0.0
  0
LINE
  5
B4
  8
0
 62
     3
 10
-17.5
 20
-41.0
 30
0.0
 11
-19.5
 21
-41.0
 31
0.0
  0
LINE
  5
B5
  8
0
 62
     3
 10
-19.5
 20
-42.0
 30
0.0
 11
-23.0
 21
-42.0
 31
0.0
  0
LINE
  5
B6
  8
0
 62
     3
 10
-19.5
 20
-58.0
 30
0.0
 11
-23.0
 21
-58.0
 31
0.0
  0
ARC
  5
B7
  8
0
 62
     3
 10
-20.0
 20
-54.0
 30
0.0
 40
5.0
 50
126.869888
 51
233.130096
  0
ARC
  5
B8
  8
0
 62
     3
 10
-20.0
 20
-46.0
 30
0.0
 40
5.0
 50
126.869888
 51
233.130096
  0
LINE
  5
B9
  8
0
 62
     3
 10
-19.5
 20
-50.0
 30
0.0
 11
-23.0
 21
-50.0
 31
0.0
  0
LINE
  5
BA
  8
0
 62
     3
 10
-25.0
 20
-54.0
 30
0.0
 11
-25.0
 21
-46.0
 31
0.0
  0
LINE
  5
BB
  8
0
 62
     3
 10
-17.5
 20
-59.0
 30
0.0
 11
-19.5
 21
-59.0
 31
0.0
  0
LINE
  5
BC
  8
0
 62
     3
 10
-19.5
 20
-59.0
 30
0.0
 11
-19.5
 21
-41.0
 31
0.0
  0
LINE
  5
BD
  8
0
 62
     3
 10
19.5
 20
-59.0
 30
0.0
 11
19.5
 21
-41.0
 31
0.0
  0
LINE
  5
BE
  8
0
 62
     3
 10
17.5
 20
-59.0
 30
0.0
 11
19.5
 21
-59.0
 31
0.0
  0
LINE
  5
BF
  8
0
 62
     3
 10
26.58258
 20
-56.0
 30
0.0
 11
28.5
 21
-56.0
 31
0.0
  0
LINE
  5
C0
  8
0
 62
     3
 10
26.89898
 20
-55.0
 30
0.0
 11
29.5
 21
-55.0
 31
0.0
  0
LINE
  5
C1
  8
0
 62
     3
 10
26.89898
 20
-45.0
 30
0.0
 11
29.5
 21
-45.0
 31
0.0
  0
LINE
  5
C2
  8
0
 62
     3
 10
26.58258
 20
-44.0
 30
0.0
 11
28.5
 21
-44.0
 31
0.0
  0
LINE
  5
C3
  8
0
 62
     3
 10
29.5
 20
-45.0
 30
0.0
 11
28.5
 21
-44.0
 31
0.0
  0
LINE
  5
C4
  8
0
 62
     3
 10
29.5
 20
-55.0
 30
0.0
 11
28.5
 21
-56.0
 31
0.0
  0
LINE
  5
C5
  8
0
 62
     3
 10
28.5
 20
-56.0
 30
0.0
 11
28.5
 21
-44.0
 31
0.0
  0
LINE
  5
C6
  8
0
 62
     3
 10
29.5
 20
-55.0
 30
0.0
 11
29.5
 21
-45.0
 31
0.0
  0
LINE
  5
C7
  8
0
 62
     3
 10
19.5
 20
-44.0
 30
0.0
 11
19.91742
 21
-44.0
 31
0.0
  0
LINE
  5
C8
  8
0
 62
     3
 10
19.5
 20
-56.0
 30
0.0
 11
19.91742
 21
-56.0
 31
0.0
  0
LINE
  5
C9
  8
0
 62
     3
 10
19.5
 20
-55.0
 30
0.0
 11
19.60102
 21
-55.0
 31
0.0
  0
LINE
  5
CA
  8
0
 62
     3
 10
19.5
 20
-45.0
 30
0.0
 11
19.60102
 21
-45.0
 31
0.0
  0
LINE
  5
CB
  8
0
 62
     3
 10
27.0
 20
-54.0
 30
0.0
 11
27.0
 21
-46.0
 31
0.0
  0
LINE
  5
CC
  8
0
 62
     3
 10
21.5
 20
-50.0
 30
0.0
 11
25.0
 21
-50.0
 31
0.0
  0
ARC
  5
CD
  8
0
 62
     3
 10
22.0
 20
-46.0
 30
0.0
 40
5.0
 50
306.869888
 51
53.130096
  0
ARC
  5
CE
  8
0
 62
     3
 10
22.0
 20
-54.0
 30
0.0
 40
5.0
 50
306.869888
 51
53.130096
  0
ARC
  5
CF
  8
0
 62
     3
 10
24.5
 20
-46.0
 30
0.0
 40
5.0
 50
126.869888
 51
233.130096
  0
ARC
  5
D0
  8
0
 62
     3
 10
24.5
 20
-54.0
 30
0.0
 40
5.0
 50
126.869888
 51
233.130096
  0
LINE
  5
D1
  8
0
 62
     3
 10
21.5
 20
-58.0
 30
0.0
 11
25.0
 21
-58.0
 31
0.0
  0
LINE
  5
D2
  8
0
 62
     3
 10
21.5
 20
-42.0
 30
0.0
 11
25.0
 21
-42.0
 31
0.0
  0
LINE
  5
D3
  8
0
 62
     3
 10
17.5
 20
-41.0
 30
0.0
 11
19.5
 21
-41.0
 31
0.0
  0
ENDBLK
  5
13E
  8
0
  0
ENDSEC
  0
SECTION
  2
ENTITIES
  0
INSERT
  5
D5
  8
0
  2
119E
 10
-306.61109
 20
-28.6763
 30
0.0
 50
90.0
  0
INSERT
  5
D6
  8
0
  2
119F
 10
92.88891
 20
-28.6763
 30
0.0
  0
ENDSEC
  0
EOF
