  0
SECTION
  2
HEADER
  9
$ACADVER
  1
AC1014
  9
$ACADMAINTVER
 70
     9
  9
$DWGCODEPAGE
  3
ANSI_1252
  9
$INSBASE
 10
0.0
 20
0.0
 30
0.0
  9
$EXTMIN
 10
-306.6298026280388
 20
-100.7204896223839
 30
-0.0015258207003583
  9
$EXTMAX
 10
307.0508717392552
 20
100.9242439205168
 30
0.0000000349246037
  9
$LIMMIN
 10
0.0
 20
0.0
  9
$LIMMAX
 10
12.0
 20
9.0
  9
$ORTHOMODE
 70
     0
  9
$REGENMODE
 70
     1
  9
$FILLMODE
 70
     1
  9
$QTEXTMODE
 70
     0
  9
$MIRRTEXT
 70
     1
  9
$DRAGMODE
 70
     2
  9
$LTSCALE
 40
3.230981
  9
$OSMODE
 70
    37
  9
$ATTMODE
 70
     1
  9
$TEXTSIZE
 40
0.2
  9
$TRACEWID
 40
0.05
  9
$TEXTSTYLE
  7
STANDARD
  9
$CLAYER
  8
0
  9
$CELTYPE
  6
CONTINUOUS
  9
$CECOLOR
 62
   256
  9
$CELTSCALE
 40
1.0
  9
$DELOBJ
 70
     1
  9
$DISPSILH
 70
     0
  9
$DIMSCALE
 40
1.0
  9
$DIMASZ
 40
0.18
  9
$DIMEXO
 40
0.0625
  9
$DIMDLI
 40
0.38
  9
$DIMRND
 40
0.0
  9
$DIMDLE
 40
0.0
  9
$DIMEXE
 40
0.18
  9
$DIMTP
 40
0.0
  9
$DIMTM
 40
0.0
  9
$DIMTXT
 40
0.18
  9
$DIMCEN
 40
0.09
  9
$DIMTSZ
 40
0.0
  9
$DIMTOL
 70
     0
  9
$DIMLIM
 70
     0
  9
$DIMTIH
 70
     1
  9
$DIMTOH
 70
     1
  9
$DIMSE1
 70
     0
  9
$DIMSE2
 70
     0
  9
$DIMTAD
 70
     0
  9
$DIMZIN
 70
     0
  9
$DIMBLK
  1

  9
$DIMASO
 70
     1
  9
$DIMSHO
 70
     1
  9
$DIMPOST
  1

  9
$DIMAPOST
  1

  9
$DIMALT
 70
     0
  9
$DIMALTD
 70
     2
  9
$DIMALTF
 40
25.4
  9
$DIMLFAC
 40
1.0
  9
$DIMTOFL
 70
     0
  9
$DIMTVP
 40
0.0
  9
$DIMTIX
 70
     0
  9
$DIMSOXD
 70
     0
  9
$DIMSAH
 70
     0
  9
$DIMBLK1
  1

  9
$DIMBLK2
  1

  9
$DIMSTYLE
  2
STANDARD
  9
$DIMCLRD
 70
     0
  9
$DIMCLRE
 70
     0
  9
$DIMCLRT
 70
     0
  9
$DIMTFAC
 40
1.0
  9
$DIMGAP
 40
0.09
  9
$DIMJUST
 70
     0
  9
$DIMSD1
 70
     0
  9
$DIMSD2
 70
     0
  9
$DIMTOLJ
 70
     1
  9
$DIMTZIN
 70
     0
  9
$DIMALTZ
 70
     0
  9
$DIMALTTZ
 70
     0
  9
$DIMFIT
 70
     5
  9
$DIMUPT
 70
     0
  9
$DIMUNIT
 70
     2
  9
$DIMDEC
 70
     4
  9
$DIMTDEC
 70
     4
  9
$DIMALTU
 70
     2
  9
$DIMALTTD
 70
     2
  9
$DIMTXSTY
  7
STANDARD
  9
$DIMAUNIT
 70
     0
  9
$LUNITS
 70
     2
  9
$LUPREC
 70
     4
  9
$SKETCHINC
 40
0.1
  9
$FILLETRAD
 40
0.5
  9
$AUNITS
 70
     0
  9
$AUPREC
 70
     0
  9
$MENU
  1
.
  9
$ELEVATION
 40
0.0
  9
$PELEVATION
 40
0.0
  9
$THICKNESS
 40
0.0
  9
$LIMCHECK
 70
     0
  9
$CHAMFERA
 40
0.5
  9
$CHAMFERB
 40
0.5
  9
$CHAMFERC
 40
0.0
  9
$CHAMFERD
 40
0.0
  9
$SKPOLY
 70
     0
  9
$TDCREATE
 40
2453592.828455729
  9
$TDUPDATE
 40
2453594.772506285
  9
$TDINDWG
 40
0.0001184722
  9
$TDUSRTIMER
 40
0.0001184722
  9
$USRTIMER
 70
     1
  9
$ANGBASE
 50
0.0
  9
$ANGDIR
 70
     0
  9
$PDMODE
 70
     0
  9
$PDSIZE
 40
0.0
  9
$PLINEWID
 40
0.0
  9
$COORDS
 70
     1
  9
$SPLFRAME
 70
     0
  9
$SPLINETYPE
 70
     6
  9
$SPLINESEGS
 70
     8
  9
$ATTDIA
 70
     0
  9
$ATTREQ
 70
     1
  9
$HANDLING
 70
     1
  9
$HANDSEED
  5
156
  9
$SURFTAB1
 70
     6
  9
$SURFTAB2
 70
     6
  9
$SURFTYPE
 70
     6
  9
$SURFU
 70
     6
  9
$SURFV
 70
     6
  9
$UCSNAME
  2

  9
$UCSORG
 10
0.0
 20
0.0
 30
0.0
  9
$UCSXDIR
 10
1.0
 20
0.0
 30
0.0
  9
$UCSYDIR
 10
0.0
 20
1.0
 30
0.0
  9
$PUCSNAME
  2

  9
$PUCSORG
 10
0.0
 20
0.0
 30
0.0
  9
$PUCSXDIR
 10
1.0
 20
0.0
 30
0.0
  9
$PUCSYDIR
 10
0.0
 20
1.0
 30
0.0
  9
$USERI1
 70
     0
  9
$USERI2
 70
     0
  9
$USERI3
 70
     0
  9
$USERI4
 70
     0
  9
$USERI5
 70
     0
  9
$USERR1
 40
0.0
  9
$USERR2
 40
0.0
  9
$USERR3
 40
0.0
  9
$USERR4
 40
0.0
  9
$USERR5
 40
0.0
  9
$WORLDVIEW
 70
     0
  9
$SHADEDGE
 70
     3
  9
$SHADEDIF
 70
    70
  9
$TILEMODE
 70
     1
  9
$MAXACTVP
 70
    48
  9
$PINSBASE
 10
0.0
 20
0.0
 30
0.0
  9
$PLIMCHECK
 70
     0
  9
$PEXTMIN
 10
1.000000000000000E+20
 20
1.000000000000000E+20
 30
1.000000000000000E+20
  9
$PEXTMAX
 10
-1.000000000000000E+20
 20
-1.000000000000000E+20
 30
-1.000000000000000E+20
  9
$PLIMMIN
 10
0.0
 20
0.0
  9
$PLIMMAX
 10
12.0
 20
9.0
  9
$UNITMODE
 70
     0
  9
$VISRETAIN
 70
     1
  9
$PLINEGEN
 70
     0
  9
$PSLTSCALE
 70
     1
  9
$TREEDEPTH
 70
  3020
  9
$PICKSTYLE
 70
     1
  9
$CMLSTYLE
  2
STANDARD
  9
$CMLJUST
 70
     0
  9
$CMLSCALE
 40
1.0
  9
$PROXYGRAPHICS
 70
     1
  9
$MEASUREMENT
 70
     0
  0
ENDSEC
  0
SECTION
  2
CLASSES
  0
CLASS
  1
DICTIONARYVAR
  2
AcDbDictionaryVar
  3
ObjectDBX Classes
 90
        0
280
     0
281
     0
  0
CLASS
  1
LWPOLYLINE
  2
AcDbPolyline
  3
AutoCAD 2000
 90
        0
280
     0
281
     1
  0
CLASS
  1
XRECORD
  2
AcDbXrecord
  3
AutoCAD 2000
 90
        0
280
     0
281
     0
  0
CLASS
  1
HATCH
  2
AcDbHatch
  3
AutoCAD 2000
 90
        0
280
     0
281
     1
  0
CLASS
  1
ACDBPLACEHOLDER
  2
AcDbPlaceHolder
  3
ObjectDBX Classes
 90
        0
280
     0
281
     0
  0
CLASS
  1
LAYOUT
  2
AcDbLayout
  3
ObjectDBX Classes
 90
        0
280
     0
281
     0
  0
ENDSEC
  0
SECTION
  2
TABLES
  0
TABLE
  2
VPORT
  5
FF
330
0
100
AcDbSymbolTable
 70
     2
  0
VPORT
  5
131
102
{ACAD_XDICTIONARY
360
154
102
}
330
FF
100
AcDbSymbolTableRecord
100
AcDbViewportTableRecord
  2
*ACTIVE
 70
     0
 10
0.0
 20
0.0
 11
1.0
 21
1.0
 12
56.21229879418593
 22
-30.91133706801904
 13
0.0
 23
0.0
 14
0.5
 24
0.5
 15
0.5
 25
0.5
 16
0.0
 26
0.0
 36
1.0
 17
0.0
 27
0.0
 37
0.0
 40
407.9171286573515
 41
1.748582230623819
 42
50.0
 43
0.0
 44
0.0
 50
0.0
 51
0.0
 71
     0
 72
   100
 73
     1
 74
     3
 75
     0
 76
     0
 77
     0
 78
     0
  0
ENDTAB
  0
TABLE
  2
LTYPE
  5
FC
330
0
100
AcDbSymbolTable
 70
     9
  0
LTYPE
  5
108
330
FC
100
AcDbSymbolTableRecord
100
AcDbLinetypeTableRecord
  2
BYBLOCK
 70
     0
  3

 72
    65
 73
     0
 40
0.0
  0
LTYPE
  5
109
330
FC
100
AcDbSymbolTableRecord
100
AcDbLinetypeTableRecord
  2
BYLAYER
 70
     0
  3

 72
    65
 73
     0
 40
0.0
  0
LTYPE
  5
10A
330
FC
100
AcDbSymbolTableRecord
100
AcDbLinetypeTableRecord
  2
CONTINUOUS
 70
     0
  3
Solid Line
 72
    65
 73
     0
 40
0.0
  0
LTYPE
  5
11B
330
FC
100
AcDbSymbolTableRecord
100
AcDbLinetypeTableRecord
  2
MCDASH1
 70
     0
  3
MiniCad+ Generated
 72
    65
 73
     2
 40
2.116538
 49
1.058075
 74
     0
 49
-1.058463
 74
     0
  0
LTYPE
  5
11C
330
FC
100
AcDbSymbolTableRecord
100
AcDbLinetypeTableRecord
  2
MCDASH2
 70
     0
  3
MiniCad+ Generated
 72
    65
 73
     2
 40
3.527692
 49
2.469229
 74
     0
 49
-1.058463
 74
     0
  0
LTYPE
  5
11D
330
FC
100
AcDbSymbolTableRecord
100
AcDbLinetypeTableRecord
  2
MCDASH3
 70
     0
  3
MiniCad+ Generated
 72
    65
 73
     2
 40
6.35
 49
5.291537
 74
     0
 49
-1.058463
 74
     0
  0
LTYPE
  5
11E
330
FC
100
AcDbSymbolTableRecord
100
AcDbLinetypeTableRecord
  2
MCDASH4
 70
     0
  3
MiniCad+ Generated
 72
    65
 73
     2
 40
7.760767
 49
6.702692
 74
     0
 49
-1.058075
 74
     0
  0
LTYPE
  5
11F
330
FC
100
AcDbSymbolTableRecord
100
AcDbLinetypeTableRecord
  2
MCDASH5
 70
     0
  3
MiniCad+ Generated
 72
    65
 73
     2
 40
1.058075
 49
0.352692
 74
     0
 49
-0.705383
 74
     0
  0
LTYPE
  5
120
330
FC
100
AcDbSymbolTableRecord
100
AcDbLinetypeTableRecord
  2
MCDASH6
 70
     0
  3
MiniCad+ Generated
 72
    65
 73
     4
 40
5.291538
 49
3.175
 74
     0
 49
-1.058075
 74
     0
 49
0.352692
 74
     0
 49
-0.705771
 74
     0
  0
LTYPE
  5
121
330
FC
100
AcDbSymbolTableRecord
100
AcDbLinetypeTableRecord
  2
MCDASH7
 70
     0
  3
MiniCad+ Generated
 72
    65
 73
     6
 40
9.525001
 49
3.175
 74
     0
 49
-1.058075
 74
     0
 49
3.175
 74
     0
 49
-1.058463
 74
     0
 49
0.352692
 74
     0
 49
-0.705771
 74
     0
  0
LTYPE
  5
122
330
FC
100
AcDbSymbolTableRecord
100
AcDbLinetypeTableRecord
  2
MCDASH8
 70
     0
  3
MiniCad+ Generated
 72
    65
 73
     6
 40
6.350001000000001
 49
3.175
 74
     0
 49
-1.058075
 74
     0
 49
0.352692
 74
     0
 49
-0.705771
 74
     0
 49
0.352692
 74
     0
 49
-0.705771
 74
     0
  0
ENDTAB
  0
TABLE
  2
LAYER
  5
F9
330
0
100
AcDbSymbolTable
 70
     4
  0
LAYER
  5
105
330
F9
100
AcDbSymbolTableRecord
100
AcDbLayerTableRecord
  2
0
 70
     0
 62
     7
  6
CONTINUOUS
  0
LAYER
  5
126
330
F9
100
AcDbSymbolTableRecord
100
AcDbLayerTableRecord
  2
PROFILI
 70
     0
 62
     7
  6
CONTINUOUS
  0
LAYER
  5
127
330
F9
100
AcDbSymbolTableRecord
100
AcDbLayerTableRecord
  2
FISSAGGI
 70
     0
 62
     2
  6
CONTINUOUS
  0
LAYER
  5
128
330
F9
100
AcDbSymbolTableRecord
100
AcDbLayerTableRecord
  2
PANNELLI
 70
     0
 62
     6
  6
CONTINUOUS
  0
ENDTAB
  0
TABLE
  2
STYLE
  5
FA
330
0
100
AcDbSymbolTable
 70
     1
  0
STYLE
  5
106
330
FA
100
AcDbSymbolTableRecord
100
AcDbTextStyleTableRecord
  2
STANDARD
 70
     0
 40
0.0
 41
1.0
 50
0.0
 71
     0
 42
0.2
  3
txt
  4

  0
ENDTAB
  0
TABLE
  2
VIEW
  5
FD
330
0
100
AcDbSymbolTable
 70
     0
  0
ENDTAB
  0
TABLE
  2
UCS
  5
FE
330
0
100
AcDbSymbolTable
 70
     0
  0
ENDTAB
  0
TABLE
  2
APPID
  5
100
330
0
100
AcDbSymbolTable
 70
     1
  0
APPID
  5
107
330
100
100
AcDbSymbolTableRecord
100
AcDbRegAppTableRecord
  2
ACAD
 70
     0
  0
ENDTAB
  0
TABLE
  2
DIMSTYLE
  5
101
330
0
100
AcDbSymbolTable
 70
     1
  0
DIMSTYLE
105
124
330
101
100
AcDbSymbolTableRecord
100
AcDbDimStyleTableRecord
  2
STANDARD
 70
     0
  3

  4

  5

  6

  7

 40
1.0
 41
0.18
 42
0.0625
 43
0.38
 44
0.18
 45
0.0
 46
0.0
 47
0.0
 48
0.0
140
0.18
141
0.09
142
0.0
143
25.4
144
1.0
145
0.0
146
1.0
147
0.09
 71
     0
 72
     0
 73
     1
 74
     1
 75
     0
 76
     0
 77
     0
 78
     0
170
     0
171
     2
172
     0
173
     0
174
     0
175
     0
176
     0
177
     0
178
     0
270
     2
271
     4
272
     4
273
     2
274
     2
340
106
275
     0
280
     0
281
     0
282
     0
283
     1
284
     0
285
     0
286
     0
287
     5
288
     0
  0
ENDTAB
  0
TABLE
  2
BLOCK_RECORD
  5
F8
330
0
100
AcDbSymbolTable
 70
     8
  0
BLOCK_RECORD
  5
10E
330
F8
100
AcDbSymbolTableRecord
100
AcDbBlockTableRecord
  2
*MODEL_SPACE
  0
BLOCK_RECORD
  5
10B
330
F8
100
AcDbSymbolTableRecord
100
AcDbBlockTableRecord
  2
*PAPER_SPACE
  0
BLOCK_RECORD
  5
113
330
F8
100
AcDbSymbolTableRecord
100
AcDbBlockTableRecord
  2
$ARROW1$
  0
BLOCK_RECORD
  5
114
330
F8
100
AcDbSymbolTableRecord
100
AcDbBlockTableRecord
  2
$ARROW2$
  0
BLOCK_RECORD
  5
115
330
F8
100
AcDbSymbolTableRecord
100
AcDbBlockTableRecord
  2
$ARROW3$
  0
BLOCK_RECORD
  5
116
330
F8
100
AcDbSymbolTableRecord
100
AcDbBlockTableRecord
  2
$ARROW4$
  0
BLOCK_RECORD
  5
117
330
F8
100
AcDbSymbolTableRecord
100
AcDbBlockTableRecord
  2
$ARROW5$
  0
BLOCK_RECORD
  5
118
330
F8
100
AcDbSymbolTableRecord
100
AcDbBlockTableRecord
  2
BORDER
  0
BLOCK_RECORD
  5
119
330
F8
100
AcDbSymbolTableRecord
100
AcDbBlockTableRecord
  2
119E
  0
BLOCK_RECORD
  5
11A
330
F8
100
AcDbSymbolTableRecord
100
AcDbBlockTableRecord
  2
119F
  0
ENDTAB
  0
ENDSEC
  0
SECTION
  2
BLOCKS
  0
BLOCK
  5
12B
330
10E
100
AcDbEntity
  8
0
100
AcDbBlockBegin
  2
*MODEL_SPACE
 70
     0
 71
     0
 10
0.0
 20
0.0
 30
0.0
  3
*MODEL_SPACE
  1

  0
ENDBLK
  5
12C
330
10E
100
AcDbEntity
  8
0
100
AcDbBlockEnd
  0
BLOCK
  5
129
330
10B
100
AcDbEntity
 67
     1
  8
0
100
AcDbBlockBegin
  2
*PAPER_SPACE
 70
     0
 71
     0
 10
0.0
 20
0.0
 30
0.0
  3
*PAPER_SPACE
  1

  0
ENDBLK
  5
12A
330
10B
100
AcDbEntity
 67
     1
  8
0
100
AcDbBlockEnd
  0
BLOCK
  5
2E
330
113
100
AcDbEntity
  8
0
100
AcDbBlockBegin
  2
$ARROW1$
 70
     0
 71
     0
 10
0.0
 20
0.0
 30
0.0
  3
$ARROW1$
  1

  0
SOLID
  5
30
330
113
100
AcDbEntity
  8
0
 62
     0
100
AcDbTrace
 10
-25.4
 20
4.318
 30
0.0
 11
-25.4
 21
-4.318
 31
0.0
 12
0.0
 22
0.0
 32
0.0
 13
0.0
 23
0.0
 33
0.0
  0
ENDBLK
  5
31
330
113
100
AcDbEntity
  8
0
100
AcDbBlockEnd
  0
BLOCK
  5
32
330
114
100
AcDbEntity
  8
0
100
AcDbBlockBegin
  2
$ARROW2$
 70
     0
 71
     0
 10
0.0
 20
0.0
 30
0.0
  3
$ARROW2$
  1

  0
SOLID
  5
34
330
114
100
AcDbEntity
  8
0
 62
     0
100
AcDbTrace
 10
-25.4
 20
12.7
 30
0.0
 11
-25.4
 21
-12.7
 31
0.0
 12
0.0
 22
0.0
 32
0.0
 13
0.0
 23
0.0
 33
0.0
  0
ENDBLK
  5
35
330
114
100
AcDbEntity
  8
0
100
AcDbBlockEnd
  0
BLOCK
  5
36
330
115
100
AcDbEntity
  8
0
100
AcDbBlockBegin
  2
$ARROW3$
 70
     0
 71
     0
 10
0.0
 20
0.0
 30
0.0
  3
$ARROW3$
  1

  0
LWPOLYLINE
  5
38
330
115
100
AcDbEntity
  8
0
  6
BYBLOCK
 62
     0
100
AcDbPolyline
 90
        2
 70
     1
 43
0.5
 10
-6.35
 20
0.0
 42
1.0
 10
6.35
 20
0.0
 42
1.0
  0
ENDBLK
  5
3C
330
115
100
AcDbEntity
  8
0
100
AcDbBlockEnd
  0
BLOCK
  5
3D
330
116
100
AcDbEntity
  8
0
100
AcDbBlockBegin
  2
$ARROW4$
 70
     0
 71
     0
 10
0.0
 20
0.0
 30
0.0
  3
$ARROW4$
  1

  0
LINE
  5
3F
330
116
100
AcDbEntity
  8
0
  6
BYBLOCK
 62
     0
100
AcDbLine
 10
12.7
 20
12.7
 30
0.0
 11
-12.7
 21
-12.7
 31
0.0
  0
ENDBLK
  5
40
330
116
100
AcDbEntity
  8
0
100
AcDbBlockEnd
  0
BLOCK
  5
41
330
117
100
AcDbEntity
  8
0
100
AcDbBlockBegin
  2
$ARROW5$
 70
     0
 71
     0
 10
0.0
 20
0.0
 30
0.0
  3
$ARROW5$
  1

  0
LINE
  5
43
330
117
100
AcDbEntity
  8
0
  6
BYBLOCK
 62
     0
100
AcDbLine
 10
12.7
 20
12.7
 30
0.0
 11
-12.7
 21
-12.7
 31
0.0
  0
LINE
  5
44
330
117
100
AcDbEntity
  8
0
  6
BYBLOCK
 62
     0
100
AcDbLine
 10
-12.7
 20
12.7
 30
0.0
 11
12.7
 21
-12.7
 31
0.0
  0
ENDBLK
  5
45
330
117
100
AcDbEntity
  8
0
100
AcDbBlockEnd
  0
BLOCK
  5
46
330
118
100
AcDbEntity
  8
0
100
AcDbBlockBegin
  2
BORDER
 70
     0
 71
     0
 10
0.0
 20
0.0
 30
0.0
  3
BORDER
  1

  0
LINE
  5
48
330
118
100
AcDbEntity
  8
0
 62
     6
100
AcDbLine
 10
0.0
 20
0.0
 30
0.0
 11
1.0
 21
0.0
 31
0.0
  0
LINE
  5
49
330
118
100
AcDbEntity
  8
0
 62
     6
100
AcDbLine
 10
1.0
 20
0.0
 30
0.0
 11
1.0
 21
1.0
 31
0.0
  0
LINE
  5
4A
330
118
100
AcDbEntity
  8
0
 62
     6
100
AcDbLine
 10
1.0
 20
1.0
 30
0.0
 11
0.0
 21
1.0
 31
0.0
  0
LINE
  5
4B
330
118
100
AcDbEntity
  8
0
 62
     6
100
AcDbLine
 10
0.0
 20
1.0
 30
0.0
 11
0.0
 21
0.0
 31
0.0
  0
ENDBLK
  5
4C
330
118
100
AcDbEntity
  8
0
100
AcDbBlockEnd
  0
BLOCK
  5
4D
330
119
100
AcDbEntity
  8
0
100
AcDbBlockBegin
  2
119E
 70
     0
 71
     0
 10
0.0
 20
0.0
 30
0.0
  3
119E
  1

  0
LWPOLYLINE
  5
4F
330
119
100
AcDbEntity
  8
0
 62
     3
100
AcDbPolyline
 90
        6
 70
     1
 43
0.0
 10
-50.0
 20
-57.75
 10
-42.63878
 20
-62.0
 10
-42.63878
 20
-70.5
 10
-50.0
 20
-74.75
 10
-57.36122
 20
-70.5
 10
-57.36122
 20
-62.0
  0
LWPOLYLINE
  5
57
330
119
100
AcDbEntity
  8
0
 62
     3
100
AcDbPolyline
 90
        6
 70
     1
 43
0.0
 10
-50.0
 20
-30.75
 10
-42.63878
 20
-26.5
 10
-42.63878
 20
-18.0
 10
-50.0
 20
-13.75
 10
-57.36122
 20
-18.0
 10
-57.36122
 20
-26.5
  0
LINE
  5
5F
330
119
100
AcDbEntity
  8
0
 62
     3
100
AcDbLine
 10
-40.38874
 20
-82.0
 30
0.0
 11
-40.38874
 21
-89.0
 31
0.0
  0
LINE
  5
60
330
119
100
AcDbEntity
  8
0
 62
     3
100
AcDbLine
 10
-40.38874
 20
0.0
 30
0.0
 11
-40.38874
 21
-7.0
 31
0.0
  0
LINE
  5
61
330
119
100
AcDbEntity
  8
0
 62
     3
100
AcDbLine
 10
-72.0
 20
-7.0
 30
0.0
 11
-40.38874
 21
-7.0
 31
0.0
  0
LINE
  5
62
330
119
100
AcDbEntity
  8
0
 62
     3
100
AcDbLine
 10
-72.0
 20
-82.0
 30
0.0
 11
-40.38874
 21
-82.0
 31
0.0
  0
LINE
  5
63
330
119
100
AcDbEntity
  8
0
 62
     3
100
AcDbLine
 10
-40.38874
 20
0.0
 30
0.0
 11
40.38874
 21
0.0
 31
0.0
  0
LINE
  5
64
330
119
100
AcDbEntity
  8
0
 62
     3
100
AcDbLine
 10
126.47057
 20
-148.0
 30
0.0
 11
126.47057
 21
-69.41269
 31
0.0
  0
LINE
  5
65
330
119
100
AcDbEntity
  8
0
 62
     3
100
AcDbLine
 10
80.98701
 20
-150.0
 30
0.0
 11
124.47057
 21
-150.0
 31
0.0
  0
LINE
  5
66
330
119
100
AcDbEntity
  8
0
 62
     3
100
AcDbLine
 10
-40.38874
 20
-89.0
 30
0.0
 11
40.38874
 21
-89.0
 31
0.0
  0
LINE
  5
67
330
119
100
AcDbEntity
  8
0
 62
     3
100
AcDbLine
 10
-5.71914
 20
-3.0
 30
0.0
 11
73.36761
 21
-3.0
 31
0.0
  0
LINE
  5
68
330
119
100
AcDbEntity
  8
0
 62
     3
100
AcDbLine
 10
82.9238
 20
-67.41269
 30
0.0
 11
124.47057
 21
-67.41269
 31
0.0
  0
LINE
  5
69
330
119
100
AcDbEntity
  8
0
 62
     3
100
AcDbLine
 10
40.38874
 20
-3.0
 30
0.0
 11
40.38874
 21
0.0
 31
0.0
  0
LINE
  5
6A
330
119
100
AcDbEntity
  8
0
 62
     3
100
AcDbLine
 10
30.06634
 20
-3.0
 30
0.0
 11
79.78589
 21
-65.89332
 31
0.0
  0
LINE
  5
6B
330
119
100
AcDbEntity
  8
0
 62
     3
100
AcDbLine
 10
73.36761
 20
-3.0
 30
0.0
 11
124.28828
 21
-67.41269
 31
0.0
  0
LINE
  5
6C
330
119
100
AcDbEntity
  8
0
 62
     3
100
AcDbLine
 10
40.38874
 20
-86.0
 30
0.0
 11
80.98701
 21
-147.0
 31
0.0
  0
LINE
  5
6D
330
119
100
AcDbEntity
  8
0
 62
     3
100
AcDbLine
 10
80.98701
 20
-150.0
 30
0.0
 11
80.98701
 21
-147.0
 31
0.0
  0
LINE
  5
6E
330
119
100
AcDbEntity
  8
0
 62
     3
100
AcDbLine
 10
40.38874
 20
-86.0
 30
0.0
 11
0.0
 21
-86.0
 31
0.0
  0
LINE
  5
6F
330
119
100
AcDbEntity
  8
0
 62
     3
100
AcDbLine
 10
31.0
 20
-10.0
 30
0.0
 11
31.0
 21
-82.0
 31
0.0
  0
LINE
  5
70
330
119
100
AcDbEntity
  8
0
 62
     3
100
AcDbLine
 10
87.5
 20
-149.0
 30
0.0
 11
86.56759
 21
-127.55447
 31
0.0
  0
LINE
  5
71
330
119
100
AcDbEntity
  8
0
 62
     3
100
AcDbLine
 10
85.39979
 20
-124.89979
 30
0.0
 11
46.5
 21
-86.0
 31
0.0
  0
ARC
  5
72
330
119
100
AcDbEntity
  8
0
 62
     3
100
AcDbCircle
 10
124.47057
 20
-69.41269
 30
0.0
 40
2.0
100
AcDbArc
 50
0.0
 51
90.0
  0
ARC
  5
73
330
119
100
AcDbEntity
  8
0
 62
     3
100
AcDbCircle
 10
124.47057
 20
-148.0
 30
0.0
 40
2.0
100
AcDbArc
 50
270.0
 51
0.0
  0
ARC
  5
74
330
119
100
AcDbEntity
  8
0
 62
     3
100
AcDbCircle
 10
81.9554
 20
-65.41269
 30
0.0
 40
2.0
100
AcDbArc
 50
218.327698
 51
270.0
  0
ARC
  5
75
330
119
100
AcDbEntity
  8
0
 62
     3
100
AcDbCircle
 10
82.57136
 20
-127.72822
 30
0.0
 40
4.0
100
AcDbArc
 50
2.489548
 51
45.0
  0
LINE
  5
76
330
119
100
AcDbEntity
  8
0
 62
     3
100
AcDbLine
 10
-40.5
 20
-13.0
 30
0.0
 11
-40.5
 21
-75.5
 31
0.0
  0
ARC
  5
77
330
119
100
AcDbEntity
  8
0
 62
     3
100
AcDbCircle
 10
82.9238
 20
-63.41269
 30
0.0
 40
4.0
100
AcDbArc
 50
218.327698
 51
270.0
  0
LINE
  5
78
330
119
100
AcDbEntity
  8
0
 62
     3
100
AcDbLine
 10
-72.0
 20
-82.0
 30
0.0
 11
-72.0
 21
-7.0
 31
0.0
  0
ENDBLK
  5
79
330
119
100
AcDbEntity
  8
0
100
AcDbBlockEnd
  0
BLOCK
  5
7A
330
11A
100
AcDbEntity
  8
0
100
AcDbBlockBegin
  2
119F
 70
     0
 71
     0
 10
0.0
 20
0.0
 30
0.0
  3
119F
  1

  0
LINE
  5
7C
330
11A
100
AcDbEntity
  8
0
 62
     3
100
AcDbLine
 10
-17.5
 20
-72.0
 30
0.0
 11
17.5
 21
-72.0
 31
0.0
  0
ARC
  5
7D
330
11A
100
AcDbEntity
  8
0
 62
     3
100
AcDbCircle
 10
0.0
 20
0.0
 30
0.0
 40
24.15
100
AcDbArc
 50
35.71667500000001
 51
24.300003
  0
ARC
  5
7E
330
11A
100
AcDbEntity
  8
0
 62
     3
100
AcDbCircle
 10
0.0
 20
0.0
 30
0.0
 40
40.5
100
AcDbArc
 50
34.248032
 51
25.751984
  0
LINE
  5
7F
330
11A
100
AcDbEntity
  8
0
 62
     3
100
AcDbLine
 10
77.07643
 20
73.36761
 30
0.0
 11
102.07643
 21
30.06634
 31
0.0
  0
LINE
  5
80
330
11A
100
AcDbEntity
  8
0
 62
     3
100
AcDbLine
 10
102.07643
 20
30.06634
 30
0.0
 11
204.32364
 21
101.66061
 31
0.0
  0
LINE
  5
81
330
11A
100
AcDbEntity
  8
0
 62
     3
100
AcDbLine
 10
77.07643
 20
73.36761
 30
0.0
 11
190.95609
 21
126.47057
 31
0.0
  0
ARC
  5
82
330
11A
100
AcDbEntity
  8
0
 62
     3
100
AcDbCircle
 10
199.83811
 20
115.25
 30
0.0
 40
14.31054
100
AcDbArc
 50
288.266815
 51
128.364578
  0
LINE
  5
83
330
11A
100
AcDbEntity
  8
0
 62
     3
100
AcDbLine
 10
165.27361
 20
124.28828
 30
0.0
 11
15.09416
 21
37.58213
 31
0.0
  0
LINE
  5
84
330
11A
100
AcDbEntity
  8
0
 62
     3
100
AcDbLine
 10
165.27361
 20
124.28828
 30
0.0
 11
169.72859
 21
116.57202
 31
0.0
  0
LINE
  5
85
330
11A
100
AcDbEntity
  8
0
 62
     3
100
AcDbLine
 10
190.27361
 20
80.98701
 30
0.0
 11
40.09416
 21
-5.71914
 31
0.0
  0
LINE
  5
86
330
11A
100
AcDbEntity
  8
0
 62
     3
100
AcDbLine
 10
185.81863
 20
88.70326
 30
0.0
 11
190.27361
 21
80.98701
 31
0.0
  0
LINE
  5
87
330
11A
100
AcDbEntity
  8
0
 62
     3
100
AcDbLine
 10
49.84334
 20
32.24117
 30
0.0
 11
19.60737
 21
14.0987
 31
0.0
  0
LINE
  5
88
330
11A
100
AcDbEntity
  8
0
 62
     3
100
AcDbLine
 10
52.84334
 20
27.04501
 30
0.0
 11
22.01036
 21
9.93815
 31
0.0
  0
LINE
  5
89
330
11A
100
AcDbEntity
  8
0
 62
     3
100
AcDbLine
 10
52.84334
 20
27.04501
 30
0.0
 11
49.84334
 21
32.24117
 31
0.0
  0
LINE
  5
8A
330
11A
100
AcDbEntity
  8
0
 62
     3
100
AcDbLine
 10
50.83104
 20
0.4798
 30
0.0
 11
51.83104
 21
-1.25225
 31
0.0
  0
LINE
  5
8B
330
11A
100
AcDbEntity
  8
0
 62
     3
100
AcDbLine
 10
52.69706
 20
-0.75225
 30
0.0
 11
54.44706
 21
-3.78334
 31
0.0
  0
LINE
  5
8C
330
11A
100
AcDbEntity
  8
0
 62
     3
100
AcDbLine
 10
66.55347
 20
7.24775
 30
0.0
 11
68.30347
 21
4.21666
 31
0.0
  0
ARC
  5
8D
330
11A
100
AcDbEntity
  8
0
 62
     3
100
AcDbCircle
 10
63.33937
 20
4.81474
 30
0.0
 40
5.0
100
AcDbArc
 50
246.869888
 51
353.130096
  0
ARC
  5
8E
330
11A
100
AcDbEntity
  8
0
 62
     3
100
AcDbCircle
 10
56.41116
 20
0.81474
 30
0.0
 40
5.0
100
AcDbArc
 50
246.869888
 51
353.130096
  0
LINE
  5
8F
330
11A
100
AcDbEntity
  8
0
 62
     3
100
AcDbLine
 10
59.62527
 20
3.24775
 30
0.0
 11
61.37527
 21
0.21666
 31
0.0
  0
LINE
  5
90
330
11A
100
AcDbEntity
  8
0
 62
     3
100
AcDbLine
 10
65.83937
 20
0.48461
 30
0.0
 11
58.91116
 21
-3.51539
 31
0.0
  0
LINE
  5
91
330
11A
100
AcDbEntity
  8
0
 62
     3
100
AcDbLine
 10
66.4195
 20
9.479799999999999
 30
0.0
 11
67.4195
 21
7.74775
 31
0.0
  0
LINE
  5
92
330
11A
100
AcDbEntity
  8
0
 62
     3
100
AcDbLine
 10
67.4195
 20
7.74775
 30
0.0
 11
51.83104
 21
-1.25225
 31
0.0
  0
LINE
  5
93
330
11A
100
AcDbEntity
  8
0
 62
     3
100
AcDbLine
 10
40.4195
 20
54.51312
 30
0.0
 11
24.83104
 21
45.51312
 31
0.0
  0
LINE
  5
94
330
11A
100
AcDbEntity
  8
0
 62
     3
100
AcDbLine
 10
41.4195
 20
52.78107
 30
0.0
 11
40.4195
 21
54.51312
 31
0.0
  0
LINE
  5
95
330
11A
100
AcDbEntity
  8
0
 62
     3
100
AcDbLine
 10
34.28013
 20
59.14681
 30
0.0
 11
33.32142
 21
60.80735
 31
0.0
  0
LINE
  5
96
330
11A
100
AcDbEntity
  8
0
 62
     3
100
AcDbLine
 10
33.2559
 20
58.92083
 30
0.0
 11
31.95539
 21
61.17338
 31
0.0
  0
LINE
  5
97
330
11A
100
AcDbEntity
  8
0
 62
     3
100
AcDbLine
 10
24.59565
 20
53.92083
 30
0.0
 11
23.29514
 21
56.17338
 31
0.0
  0
LINE
  5
98
330
11A
100
AcDbEntity
  8
0
 62
     3
100
AcDbLine
 10
23.88783
 20
53.14681
 30
0.0
 11
22.92911
 21
54.80735
 31
0.0
  0
LINE
  5
99
330
11A
100
AcDbEntity
  8
0
 62
     3
100
AcDbLine
 10
23.29514
 20
56.17338
 30
0.0
 11
22.92911
 21
54.80735
 31
0.0
  0
LINE
  5
9A
330
11A
100
AcDbEntity
  8
0
 62
     3
100
AcDbLine
 10
31.95539
 20
61.17338
 30
0.0
 11
33.32142
 21
60.80735
 31
0.0
  0
LINE
  5
9B
330
11A
100
AcDbEntity
  8
0
 62
     3
100
AcDbLine
 10
33.32142
 20
60.80735
 30
0.0
 11
22.92911
 21
54.80735
 31
0.0
  0
LINE
  5
9C
330
11A
100
AcDbEntity
  8
0
 62
     3
100
AcDbLine
 10
31.95539
 20
61.17338
 30
0.0
 11
23.29514
 21
56.17338
 31
0.0
  0
LINE
  5
9D
330
11A
100
AcDbEntity
  8
0
 62
     3
100
AcDbLine
 10
27.42911
 20
47.01312
 30
0.0
 11
27.2204
 21
47.37462
 31
0.0
  0
LINE
  5
9E
330
11A
100
AcDbEntity
  8
0
 62
     3
100
AcDbLine
 10
37.82142
 20
53.01312
 30
0.0
 11
37.61271
 21
53.37462
 31
0.0
  0
LINE
  5
9F
330
11A
100
AcDbEntity
  8
0
 62
     3
100
AcDbLine
 10
36.95539
 20
52.51312
 30
0.0
 11
36.90488
 21
52.60061
 31
0.0
  0
LINE
  5
A0
330
11A
100
AcDbEntity
  8
0
 62
     3
100
AcDbLine
 10
28.29514
 20
47.51312
 30
0.0
 11
28.24463
 21
47.60061
 31
0.0
  0
LINE
  5
A1
330
11A
100
AcDbEntity
  8
0
 62
     3
100
AcDbLine
 10
32.33937
 20
58.50831
 30
0.0
 11
25.41116
 21
54.50831
 31
0.0
  0
LINE
  5
A2
330
11A
100
AcDbEntity
  8
0
 62
     3
100
AcDbLine
 10
31.62527
 20
51.74517
 30
0.0
 11
29.87527
 21
54.77626
 31
0.0
  0
ARC
  5
A3
330
11A
100
AcDbEntity
  8
0
 62
     3
100
AcDbCircle
 10
27.91116
 20
50.17818
 30
0.0
 40
5.0
100
AcDbArc
 50
66.869888
 51
173.130096
  0
ARC
  5
A4
330
11A
100
AcDbEntity
  8
0
 62
     3
100
AcDbCircle
 10
34.83937
 20
54.17818
 30
0.0
 40
5.0
100
AcDbArc
 50
66.869888
 51
173.130096
  0
ARC
  5
A5
330
11A
100
AcDbEntity
  8
0
 62
     3
100
AcDbCircle
 10
26.66116
 20
52.34325
 30
0.0
 40
5.0
100
AcDbArc
 50
246.869888
 51
353.130096
  0
ARC
  5
A6
330
11A
100
AcDbEntity
  8
0
 62
     3
100
AcDbCircle
 10
33.58937
 20
56.34325
 30
0.0
 40
5.0
100
AcDbArc
 50
246.869888
 51
353.130096
  0
LINE
  5
A7
330
11A
100
AcDbEntity
  8
0
 62
     3
100
AcDbLine
 10
38.55347
 20
55.74517
 30
0.0
 11
36.80347
 21
58.77626
 31
0.0
  0
LINE
  5
A8
330
11A
100
AcDbEntity
  8
0
 62
     3
100
AcDbLine
 10
24.69706
 20
47.74517
 30
0.0
 11
22.94706
 21
50.77626
 31
0.0
  0
LINE
  5
A9
330
11A
100
AcDbEntity
  8
0
 62
     3
100
AcDbLine
 10
25.83104
 20
43.78107
 30
0.0
 11
24.83104
 21
45.51312
 31
0.0
  0
LINE
  5
AA
330
11A
100
AcDbEntity
  8
0
 62
     3
100
AcDbLine
 10
-17.5
 20
-36.52396
 30
0.0
 11
-17.5
 21
-72.0
 31
0.0
  0
LINE
  5
AB
330
11A
100
AcDbEntity
  8
0
 62
     3
100
AcDbLine
 10
17.5
 20
-36.52396
 30
0.0
 11
17.5
 21
-72.0
 31
0.0
  0
LINE
  5
AC
330
11A
100
AcDbEntity
  8
0
 62
     3
100
AcDbLine
 10
-77.07643
 20
73.36761
 30
0.0
 11
-102.07643
 21
30.06634
 31
0.0
  0
LINE
  5
AD
330
11A
100
AcDbEntity
  8
0
 62
     3
100
AcDbLine
 10
-77.07643
 20
73.36761
 30
0.0
 11
-190.95609
 21
126.47057
 31
0.0
  0
LINE
  5
AE
330
11A
100
AcDbEntity
  8
0
 62
     3
100
AcDbLine
 10
-102.07643
 20
30.06634
 30
0.0
 11
-204.32364
 21
101.66061
 31
0.0
  0
ARC
  5
AF
330
11A
100
AcDbEntity
  8
0
 62
     3
100
AcDbCircle
 10
-199.83811
 20
115.25
 30
0.0
 40
14.31054
100
AcDbArc
 50
51.635422
 51
251.733185
  0
LINE
  5
B0
330
11A
100
AcDbEntity
  8
0
 62
     3
100
AcDbLine
 10
-165.27361
 20
124.28828
 30
0.0
 11
-15.09416
 21
37.58213
 31
0.0
  0
LINE
  5
B1
330
11A
100
AcDbEntity
  8
0
 62
     3
100
AcDbLine
 10
-190.27361
 20
80.98701
 30
0.0
 11
-40.09416
 21
-5.71914
 31
0.0
  0
LINE
  5
B2
330
11A
100
AcDbEntity
  8
0
 62
     3
100
AcDbLine
 10
-165.27361
 20
124.28828
 30
0.0
 11
-169.72859
 21
116.57202
 31
0.0
  0
LINE
  5
B3
330
11A
100
AcDbEntity
  8
0
 62
     3
100
AcDbLine
 10
-185.81863
 20
88.70326
 30
0.0
 11
-190.27361
 21
80.98701
 31
0.0
  0
LINE
  5
B4
330
11A
100
AcDbEntity
  8
0
 62
     3
100
AcDbLine
 10
-17.5
 20
-41.0
 30
0.0
 11
-19.5
 21
-41.0
 31
0.0
  0
LINE
  5
B5
330
11A
100
AcDbEntity
  8
0
 62
     3
100
AcDbLine
 10
-19.5
 20
-42.0
 30
0.0
 11
-23.0
 21
-42.0
 31
0.0
  0
LINE
  5
B6
330
11A
100
AcDbEntity
  8
0
 62
     3
100
AcDbLine
 10
-19.5
 20
-58.0
 30
0.0
 11
-23.0
 21
-58.0
 31
0.0
  0
ARC
  5
B7
330
11A
100
AcDbEntity
  8
0
 62
     3
100
AcDbCircle
 10
-20.0
 20
-54.0
 30
0.0
 40
5.0
100
AcDbArc
 50
126.869888
 51
233.130096
  0
ARC
  5
B8
330
11A
100
AcDbEntity
  8
0
 62
     3
100
AcDbCircle
 10
-20.0
 20
-46.0
 30
0.0
 40
5.0
100
AcDbArc
 50
126.869888
 51
233.130096
  0
LINE
  5
B9
330
11A
100
AcDbEntity
  8
0
 62
     3
100
AcDbLine
 10
-19.5
 20
-50.0
 30
0.0
 11
-23.0
 21
-50.0
 31
0.0
  0
LINE
  5
BA
330
11A
100
AcDbEntity
  8
0
 62
     3
100
AcDbLine
 10
-25.0
 20
-54.0
 30
0.0
 11
-25.0
 21
-46.0
 31
0.0
  0
LINE
  5
BB
330
11A
100
AcDbEntity
  8
0
 62
     3
100
AcDbLine
 10
-17.5
 20
-59.0
 30
0.0
 11
-19.5
 21
-59.0
 31
0.0
  0
LINE
  5
BC
330
11A
100
AcDbEntity
  8
0
 62
     3
100
AcDbLine
 10
-19.5
 20
-59.0
 30
0.0
 11
-19.5
 21
-41.0
 31
0.0
  0
LINE
  5
BD
330
11A
100
AcDbEntity
  8
0
 62
     3
100
AcDbLine
 10
19.5
 20
-59.0
 30
0.0
 11
19.5
 21
-41.0
 31
0.0
  0
LINE
  5
BE
330
11A
100
AcDbEntity
  8
0
 62
     3
100
AcDbLine
 10
17.5
 20
-59.0
 30
0.0
 11
19.5
 21
-59.0
 31
0.0
  0
LINE
  5
BF
330
11A
100
AcDbEntity
  8
0
 62
     3
100
AcDbLine
 10
26.58258
 20
-56.0
 30
0.0
 11
28.5
 21
-56.0
 31
0.0
  0
LINE
  5
C0
330
11A
100
AcDbEntity
  8
0
 62
     3
100
AcDbLine
 10
26.89898
 20
-55.0
 30
0.0
 11
29.5
 21
-55.0
 31
0.0
  0
LINE
  5
C1
330
11A
100
AcDbEntity
  8
0
 62
     3
100
AcDbLine
 10
26.89898
 20
-45.0
 30
0.0
 11
29.5
 21
-45.0
 31
0.0
  0
LINE
  5
C2
330
11A
100
AcDbEntity
  8
0
 62
     3
100
AcDbLine
 10
26.58258
 20
-44.0
 30
0.0
 11
28.5
 21
-44.0
 31
0.0
  0
LINE
  5
C3
330
11A
100
AcDbEntity
  8
0
 62
     3
100
AcDbLine
 10
29.5
 20
-45.0
 30
0.0
 11
28.5
 21
-44.0
 31
0.0
  0
LINE
  5
C4
330
11A
100
AcDbEntity
  8
0
 62
     3
100
AcDbLine
 10
29.5
 20
-55.0
 30
0.0
 11
28.5
 21
-56.0
 31
0.0
  0
LINE
  5
C5
330
11A
100
AcDbEntity
  8
0
 62
     3
100
AcDbLine
 10
28.5
 20
-56.0
 30
0.0
 11
28.5
 21
-44.0
 31
0.0
  0
LINE
  5
C6
330
11A
100
AcDbEntity
  8
0
 62
     3
100
AcDbLine
 10
29.5
 20
-55.0
 30
0.0
 11
29.5
 21
-45.0
 31
0.0
  0
LINE
  5
C7
330
11A
100
AcDbEntity
  8
0
 62
     3
100
AcDbLine
 10
19.5
 20
-44.0
 30
0.0
 11
19.91742
 21
-44.0
 31
0.0
  0
LINE
  5
C8
330
11A
100
AcDbEntity
  8
0
 62
     3
100
AcDbLine
 10
19.5
 20
-56.0
 30
0.0
 11
19.91742
 21
-56.0
 31
0.0
  0
LINE
  5
C9
330
11A
100
AcDbEntity
  8
0
 62
     3
100
AcDbLine
 10
19.5
 20
-55.0
 30
0.0
 11
19.60102
 21
-55.0
 31
0.0
  0
LINE
  5
CA
330
11A
100
AcDbEntity
  8
0
 62
     3
100
AcDbLine
 10
19.5
 20
-45.0
 30
0.0
 11
19.60102
 21
-45.0
 31
0.0
  0
LINE
  5
CB
330
11A
100
AcDbEntity
  8
0
 62
     3
100
AcDbLine
 10
27.0
 20
-54.0
 30
0.0
 11
27.0
 21
-46.0
 31
0.0
  0
LINE
  5
CC
330
11A
100
AcDbEntity
  8
0
 62
     3
100
AcDbLine
 10
21.5
 20
-50.0
 30
0.0
 11
25.0
 21
-50.0
 31
0.0
  0
ARC
  5
CD
330
11A
100
AcDbEntity
  8
0
 62
     3
100
AcDbCircle
 10
22.0
 20
-46.0
 30
0.0
 40
5.0
100
AcDbArc
 50
306.869888
 51
53.130096
  0
ARC
  5
CE
330
11A
100
AcDbEntity
  8
0
 62
     3
100
AcDbCircle
 10
22.0
 20
-54.0
 30
0.0
 40
5.0
100
AcDbArc
 50
306.869888
 51
53.130096
  0
ARC
  5
CF
330
11A
100
AcDbEntity
  8
0
 62
     3
100
AcDbCircle
 10
24.5
 20
-46.0
 30
0.0
 40
5.0
100
AcDbArc
 50
126.869888
 51
233.130096
  0
ARC
  5
D0
330
11A
100
AcDbEntity
  8
0
 62
     3
100
AcDbCircle
 10
24.5
 20
-54.0
 30
0.0
 40
5.0
100
AcDbArc
 50
126.869888
 51
233.130096
  0
LINE
  5
D1
330
11A
100
AcDbEntity
  8
0
 62
     3
100
AcDbLine
 10
21.5
 20
-58.0
 30
0.0
 11
25.0
 21
-58.0
 31
0.0
  0
LINE
  5
D2
330
11A
100
AcDbEntity
  8
0
 62
     3
100
AcDbLine
 10
21.5
 20
-42.0
 30
0.0
 11
25.0
 21
-42.0
 31
0.0
  0
LINE
  5
D3
330
11A
100
AcDbEntity
  8
0
 62
     3
100
AcDbLine
 10
17.5
 20
-41.0
 30
0.0
 11
19.5
 21
-41.0
 31
0.0
  0
ENDBLK
  5
D4
330
11A
100
AcDbEntity
  8
0
100
AcDbBlockEnd
  0
ENDSEC
  0
SECTION
  2
ENTITIES
  0
INSERT
  5
D5
330
10E
100
AcDbEntity
  8
0
100
AcDbBlockReference
  2
119E
 10
-306.61109
 20
-28.6763
 30
0.0
 50
90.0
  0
INSERT
  5
D6
330
10E
100
AcDbEntity
  8
0
100
AcDbBlockReference
  2
119F
 10
92.88891
 20
-28.6763
 30
0.0
  0
ENDSEC
  0
SECTION
  2
OBJECTS
  0
DICTIONARY
  5
103
330
0
100
AcDbDictionary
  3
ACAD_GROUP
350
104
  3
ACAD_LAYOUT
350
132
  3
ACAD_MLINESTYLE
350
111
  3
ACDBHEADERROUNDTRIPXREC
350
135
  3
ACDBVARIABLEDICTIONARY
350
12D
  0
DICTIONARY
  5
154
330
131
100
AcDbDictionary
280
     1
  3
ACAD_XREC_ROUNDTRIP
360
155
  0
DICTIONARY
  5
104
102
{ACAD_REACTORS
330
103
102
}
330
103
100
AcDbDictionary
  0
DICTIONARY
  5
132
102
{ACAD_REACTORS
330
103
102
}
330
103
100
AcDbDictionary
  0
DICTIONARY
  5
111
102
{ACAD_REACTORS
330
103
102
}
330
103
100
AcDbDictionary
  3
STANDARD
350
112
  0
DICTIONARY
  5
135
102
{ACAD_REACTORS
330
103
102
}
330
103
100
AcDbDictionary
  3
CEPSNTYPE
350
13D
  3
DIMSTYLEDATA
350
153
  3
FINGERPRINTGUID
350
13E
  3
HYPERLINKBASE
350
138
  3
INSUNITS
350
13C
  3
LAYOUTDICT
350
13A
  3
LWETCUNION
350
13B
  3
PSVPSCALE
350
140
  3
PUCSBASE
350
143
  3
PUCSORGBACK
350
149
  3
PUCSORGBOTTOM
350
145
  3
PUCSORGFRONT
350
148
  3
PUCSORGLEFT
350
146
  3
PUCSORGRIGHT
350
147
  3
PUCSORGTOP
350
144
  3
PUCSORTHOREF
350
141
  3
PUCSORTHOVIEW
350
142
  3
STYLESHEET
350
139
  3
TSTACKALIGN
350
136
  3
TSTACKSIZE
350
137
  3
UCSBASE
350
14C
  3
UCSORGBACK
350
152
  3
UCSORGBOTTOM
350
14E
  3
UCSORGFRONT
350
151
  3
UCSORGLEFT
350
14F
  3
UCSORGRIGHT
350
150
  3
UCSORGTOP
350
14D
  3
UCSORTHOREF
350
14A
  3
UCSORTHOVIEW
350
14B
  3
VERSIONGUID
350
13F
  0
DICTIONARY
  5
12D
102
{ACAD_REACTORS
330
103
102
}
330
103
100
AcDbDictionary
  3
DIMADEC
350
12E
  0
XRECORD
  5
155
102
{ACAD_REACTORS
330
154
102
}
330
154
100
AcDbXrecord
102
UCS
 74
     0
 71
     1
 10
0.0
 20
0.0
 30
0.0
 10
1.0
 20
0.0
 30
0.0
 10
0.0
 20
1.0
 30
0.0
146
0.0
 79
     0
102
VIEW
281
     0
  0
MLINESTYLE
  5
112
102
{ACAD_REACTORS
330
111
102
}
330
111
100
AcDbMlineStyle
  2
STANDARD
 70
     0
  3

 62
   256
 51
90.0
 52
90.0
 71
     2
 49
0.5
 62
   256
  6
BYLAYER
 49
-0.5
 62
   256
  6
BYLAYER
  0
XRECORD
  5
13D
102
{ACAD_REACTORS
330
135
102
}
330
135
100
AcDbXrecord
 90
        0
  0
XRECORD
  5
153
102
{ACAD_REACTORS
330
135
102
}
330
135
100
AcDbXrecord
1000
DSTYLE
1002
{
1070
   279
 70
     2
1070
   340
340
106
1002
}
  0
XRECORD
  5
13E
102
{ACAD_REACTORS
330
135
102
}
330
135
100
AcDbXrecord
  1
{FAEB1C30-E019-11D5-929B-00C0DF256EC4}
  0
XRECORD
  5
138
102
{ACAD_REACTORS
330
135
102
}
330
135
100
AcDbXrecord
  1

  0
XRECORD
  5
13C
102
{ACAD_REACTORS
330
135
102
}
330
135
100
AcDbXrecord
 90
        0
  0
XRECORD
  5
13A
102
{ACAD_REACTORS
330
135
102
}
330
135
100
AcDbXrecord
340
132
  0
XRECORD
  5
13B
102
{ACAD_REACTORS
330
135
102
}
330
135
100
AcDbXrecord
 90
    10781
  0
XRECORD
  5
140
102
{ACAD_REACTORS
330
135
102
}
330
135
100
AcDbXrecord
 40
0.0
  0
XRECORD
  5
143
102
{ACAD_REACTORS
330
135
102
}
330
135
100
AcDbXrecord
340
0
  0
XRECORD
  5
149
102
{ACAD_REACTORS
330
135
102
}
330
135
100
AcDbXrecord
 10
0.0
 20
0.0
 30
0.0
  0
XRECORD
  5
145
102
{ACAD_REACTORS
330
135
102
}
330
135
100
AcDbXrecord
 10
0.0
 20
0.0
 30
0.0
  0
XRECORD
  5
148
102
{ACAD_REACTORS
330
135
102
}
330
135
100
AcDbXrecord
 10
0.0
 20
0.0
 30
0.0
  0
XRECORD
  5
146
102
{ACAD_REACTORS
330
135
102
}
330
135
100
AcDbXrecord
 10
0.0
 20
0.0
 30
0.0
  0
XRECORD
  5
147
102
{ACAD_REACTORS
330
135
102
}
330
135
100
AcDbXrecord
 10
0.0
 20
0.0
 30
0.0
  0
XRECORD
  5
144
102
{ACAD_REACTORS
330
135
102
}
330
135
100
AcDbXrecord
 10
0.0
 20
0.0
 30
0.0
  0
XRECORD
  5
141
102
{ACAD_REACTORS
330
135
102
}
330
135
100
AcDbXrecord
340
0
  0
XRECORD
  5
142
102
{ACAD_REACTORS
330
135
102
}
330
135
100
AcDbXrecord
 70
     0
  0
XRECORD
  5
139
102
{ACAD_REACTORS
330
135
102
}
330
135
100
AcDbXrecord
  1

  0
XRECORD
  5
136
102
{ACAD_REACTORS
330
135
102
}
330
135
100
AcDbXrecord
 90
        1
  0
XRECORD
  5
137
102
{ACAD_REACTORS
330
135
102
}
330
135
100
AcDbXrecord
 90
       70
  0
XRECORD
  5
14C
102
{ACAD_REACTORS
330
135
102
}
330
135
100
AcDbXrecord
340
0
  0
XRECORD
  5
152
102
{ACAD_REACTORS
330
135
102
}
330
135
100
AcDbXrecord
 10
0.0
 20
0.0
 30
0.0
  0
XRECORD
  5
14E
102
{ACAD_REACTORS
330
135
102
}
330
135
100
AcDbXrecord
 10
0.0
 20
0.0
 30
0.0
  0
XRECORD
  5
151
102
{ACAD_REACTORS
330
135
102
}
330
135
100
AcDbXrecord
 10
0.0
 20
0.0
 30
0.0
  0
XRECORD
  5
14F
102
{ACAD_REACTORS
330
135
102
}
330
135
100
AcDbXrecord
 10
0.0
 20
0.0
 30
0.0
  0
XRECORD
  5
150
102
{ACAD_REACTORS
330
135
102
}
330
135
100
AcDbXrecord
 10
0.0
 20
0.0
 30
0.0
  0
XRECORD
  5
14D
102
{ACAD_REACTORS
330
135
102
}
330
135
100
AcDbXrecord
 10
0.0
 20
0.0
 30
0.0
  0
XRECORD
  5
14A
102
{ACAD_REACTORS
330
135
102
}
330
135
100
AcDbXrecord
340
0
  0
XRECORD
  5
14B
102
{ACAD_REACTORS
330
135
102
}
330
135
100
AcDbXrecord
 70
     0
  0
XRECORD
  5
13F
102
{ACAD_REACTORS
330
135
102
}
330
135
100
AcDbXrecord
  1
{FAEB1C32-E019-11D5-929B-00C0DF256EC4}
  0
DICTIONARYVAR
  5
12E
102
{ACAD_REACTORS
330
12D
102
}
330
12D
100
DictionaryVariables
280
     0
  1
0
  0
ENDSEC
  0
EOF
