  0
SECTION
  2
HEADER
  9
$ACADVER
  1
AC1009
  9
$DWGCODEPAGE
  3
ansi_1252
  9
$INSBASE
 10
0.0
 20
0.0
 30
0.0
  9
$EXTMIN
 10
-105.56786
 20
-153.25
 30
0.0
  9
$EXTMAX
 10
105.56786
 20
153.25
 30
0.0
  9
$LIMMIN
 10
0.0
 20
0.0
  9
$LIMMAX
 10
12.0
 20
9.0
  9
$ORTHOMODE
 70
     0
  9
$REGENMODE
 70
     1
  9
$FILLMODE
 70
     1
  9
$QTEXTMODE
 70
     0
  9
$MIRRTEXT
 70
     1
  9
$DRAGMODE
 70
     2
  9
$LTSCALE
 40
1.112444
  9
$OSMODE
 70
    37
  9
$ATTMODE
 70
     1
  9
$TEXTSIZE
 40
0.2
  9
$TRACEWID
 40
0.05
  9
$TEXTSTYLE
  7
STANDARD
  9
$CLAYER
  8
0
  9
$CELTYPE
  6
BYBLOCK
  9
$CECOLOR
 62
   256
  9
$DIMSCALE
 40
1.0
  9
$DIMASZ
 40
0.18
  9
$DIMEXO
 40
0.0625
  9
$DIMDLI
 40
0.38
  9
$DIMRND
 40
0.0
  9
$DIMDLE
 40
0.0
  9
$DIMEXE
 40
0.18
  9
$DIMTP
 40
0.0
  9
$DIMTM
 40
0.0
  9
$DIMTXT
 40
0.18
  9
$DIMCEN
 40
0.09
  9
$DIMTSZ
 40
0.0
  9
$DIMTOL
 70
     0
  9
$DIMLIM
 70
     0
  9
$DIMTIH
 70
     1
  9
$DIMTOH
 70
     1
  9
$DIMSE1
 70
     0
  9
$DIMSE2
 70
     0
  9
$DIMTAD
 70
     0
  9
$DIMZIN
 70
     0
  9
$DIMBLK
  1

  9
$DIMASO
 70
     1
  9
$DIMSHO
 70
     1
  9
$DIMPOST
  1

  9
$DIMAPOST
  1

  9
$DIMALT
 70
     0
  9
$DIMALTD
 70
     2
  9
$DIMALTF
 40
25.4
  9
$DIMLFAC
 40
1.0
  9
$DIMTOFL
 70
     0
  9
$DIMTVP
 40
0.0
  9
$DIMTIX
 70
     0
  9
$DIMSOXD
 70
     0
  9
$DIMSAH
 70
     0
  9
$DIMBLK1
  1

  9
$DIMBLK2
  1

  9
$DIMSTYLE
  2
STANDARD
  9
$DIMCLRD
 70
     0
  9
$DIMCLRE
 70
     0
  9
$DIMCLRT
 70
     0
  9
$DIMTFAC
 40
1.0
  9
$DIMGAP
 40
0.09
  9
$LUNITS
 70
     2
  9
$LUPREC
 70
     4
  9
$SKETCHINC
 40
0.1
  9
$FILLETRAD
 40
0.5
  9
$AUNITS
 70
     0
  9
$AUPREC
 70
     0
  9
$MENU
  1
.
  9
$ELEVATION
 40
0.0
  9
$PELEVATION
 40
0.0
  9
$THICKNESS
 40
0.0
  9
$LIMCHECK
 70
     0
  9
$CHAMFERA
 40
0.5
  9
$CHAMFERB
 40
0.5
  9
$SKPOLY
 70
     0
  9
$TDCREATE
 40
2453619.49570397
  9
$TDUPDATE
 40
2453619.495703981
  9
$TDINDWG
 40
0.0000000116
  9
$TDUSRTIMER
 40
0.0000000116
  9
$USRTIMER
 70
     1
  9
$ANGBASE
 50
0.0
  9
$ANGDIR
 70
     0
  9
$PDMODE
 70
     0
  9
$PDSIZE
 40
0.0
  9
$PLINEWID
 40
0.0
  9
$COORDS
 70
     1
  9
$SPLFRAME
 70
     0
  9
$SPLINETYPE
 70
     6
  9
$SPLINESEGS
 70
     8
  9
$ATTDIA
 70
     0
  9
$ATTREQ
 70
     1
  9
$HANDLING
 70
     1
  9
$HANDSEED
  5
1A3
  9
$SURFTAB1
 70
     6
  9
$SURFTAB2
 70
     6
  9
$SURFTYPE
 70
     6
  9
$SURFU
 70
     6
  9
$SURFV
 70
     6
  9
$UCSNAME
  2

  9
$UCSORG
 10
0.0
 20
0.0
 30
0.0
  9
$UCSXDIR
 10
1.0
 20
0.0
 30
0.0
  9
$UCSYDIR
 10
0.0
 20
1.0
 30
0.0
  9
$PUCSNAME
  2

  9
$PUCSORG
 10
0.0
 20
0.0
 30
0.0
  9
$PUCSXDIR
 10
1.0
 20
0.0
 30
0.0
  9
$PUCSYDIR
 10
0.0
 20
1.0
 30
0.0
  9
$USERI1
 70
     0
  9
$USERI2
 70
     0
  9
$USERI3
 70
     0
  9
$USERI4
 70
     0
  9
$USERI5
 70
     0
  9
$USERR1
 40
0.0
  9
$USERR2
 40
0.0
  9
$USERR3
 40
0.0
  9
$USERR4
 40
0.0
  9
$USERR5
 40
0.0
  9
$WORLDVIEW
 70
     1
  9
$SHADEDGE
 70
     3
  9
$SHADEDIF
 70
    70
  9
$TILEMODE
 70
     1
  9
$MAXACTVP
 70
    64
  9
$PLIMCHECK
 70
     0
  9
$PEXTMIN
 10
1.000000000000000E+20
 20
1.000000000000000E+20
 30
1.000000000000000E+20
  9
$PEXTMAX
 10
-1.000000000000000E+20
 20
-1.000000000000000E+20
 30
-1.000000000000000E+20
  9
$PLIMMIN
 10
0.0
 20
0.0
  9
$PLIMMAX
 10
12.0
 20
9.0
  9
$UNITMODE
 70
     0
  9
$VISRETAIN
 70
     1
  9
$PLINEGEN
 70
     0
  9
$PSLTSCALE
 70
     1
  0
ENDSEC
  0
SECTION
  2
TABLES
  0
TABLE
  2
VPORT
 70
     1
  0
VPORT
  2
*ACTIVE
 70
     0
 10
0.0
 20
0.0
 11
1.0
 21
1.0
 12
10.42990654205607
 22
4.5
 13
0.0
 23
0.0
 14
0.5
 24
0.5
 15
0.5
 25
0.5
 16
0.0
 26
0.0
 36
1.0
 17
0.0
 27
0.0
 37
0.0
 40
9.0
 41
1.972972972850329
 42
50.0
 43
0.0
 44
0.0
 50
0.0
 51
0.0
 71
     0
 72
   100
 73
     1
 74
     3
 75
     0
 76
     0
 77
     0
 78
     0
  0
ENDTAB
  0
TABLE
  2
LTYPE
 70
     9
  0
LTYPE
  2
CONTINUOUS
 70
     0
  3
Solid Line
 72
    65
 73
     0
 40
0.0
  0
LTYPE
  2
MCDASH1
 70
     0
  3
MiniCad+ Generated
 72
    65
 73
     2
 40
3.370725
 49
2.24715
 49
-1.123575
  0
LTYPE
  2
MCDASH2
 70
     0
  3
MiniCad+ Generated
 72
    65
 73
     2
 40
3.527692
 49
2.469229
 49
-1.058463
  0
LTYPE
  2
MCDASH3
 70
     0
  3
MiniCad+ Generated
 72
    65
 73
     2
 40
6.35
 49
5.291537
 49
-1.058463
  0
LTYPE
  2
MCDASH4
 70
     0
  3
MiniCad+ Generated
 72
    65
 73
     2
 40
7.760767
 49
6.702692
 49
-1.058075
  0
LTYPE
  2
MCDASH5
 70
     0
  3
MiniCad+ Generated
 72
    65
 73
     2
 40
1.058075
 49
0.352692
 49
-0.705383
  0
LTYPE
  2
MCDASH6
 70
     0
  3
MiniCad+ Generated
 72
    65
 73
     4
 40
5.291538
 49
3.175
 49
-1.058075
 49
0.352692
 49
-0.705771
  0
LTYPE
  2
MCDASH7
 70
     0
  3
MiniCad+ Generated
 72
    65
 73
     6
 40
9.525001
 49
3.175
 49
-1.058075
 49
3.175
 49
-1.058463
 49
0.352692
 49
-0.705771
  0
LTYPE
  2
MCDASH8
 70
     0
  3
MiniCad+ Generated
 72
    65
 73
     6
 40
6.350001000000001
 49
3.175
 49
-1.058075
 49
0.352692
 49
-0.705771
 49
0.352692
 49
-0.705771
  0
ENDTAB
  0
TABLE
  2
LAYER
 70
     4
  0
LAYER
  2
0
 70
     0
 62
     7
  6
CONTINUOUS
  0
LAYER
  2
PROFILI
 70
     0
 62
     7
  6
CONTINUOUS
  0
LAYER
  2
FISSAGGI
 70
     0
 62
     2
  6
CONTINUOUS
  0
LAYER
  2
PANNELLI
 70
     0
 62
     6
  6
CONTINUOUS
  0
ENDTAB
  0
TABLE
  2
STYLE
 70
     1
  0
STYLE
  2
STANDARD
 70
     0
 40
0.0
 41
1.0
 50
0.0
 71
     0
 42
0.2
  3
txt
  4

  0
ENDTAB
  0
TABLE
  2
VIEW
 70
     0
  0
ENDTAB
  0
TABLE
  2
UCS
 70
     0
  0
ENDTAB
  0
TABLE
  2
APPID
 70
     1
  0
APPID
  2
ACAD
 70
     0
  0
ENDTAB
  0
TABLE
  2
DIMSTYLE
 70
     1
  0
DIMSTYLE
  2
STANDARD
 70
     0
  3

  4

  5

  6

  7

 40
1.0
 41
0.18
 42
0.0625
 43
0.38
 44
0.18
 45
0.0
 46
0.0
 47
0.0
 48
0.0
140
0.18
141
0.09
142
0.0
143
25.4
144
1.0
145
0.0
146
1.0
147
0.09
 71
     0
 72
     0
 73
     1
 74
     1
 75
     0
 76
     0
 77
     0
 78
     0
170
     0
171
     2
172
     0
173
     0
174
     0
175
     0
176
     0
177
     0
178
     0
  0
ENDTAB
  0
ENDSEC
  0
SECTION
  2
BLOCKS
  0
BLOCK
  8
0
  2
$MODEL_SPACE
 70
     0
 10
0.0
 20
0.0
 30
0.0
  3
$MODEL_SPACE
  1

  0
ENDBLK
  5
19E
  8
0
  0
BLOCK
 67
     1
  8
0
  2
$PAPER_SPACE
 70
     0
 10
0.0
 20
0.0
 30
0.0
  3
$PAPER_SPACE
  1

  0
ENDBLK
  5
19C
 67
     1
  8
0
  0
BLOCK
  8
0
  2
$ARROW1$
 70
     0
 10
0.0
 20
0.0
 30
0.0
  3
$ARROW1$
  1

  0
POLYLINE
  5
30
  8
0
 62
     6
 66
     1
 10
0.0
 20
0.0
 30
0.0
 70
     1
  0
VERTEX
  5
123
  8
0
 62
     6
 10
-25.4
 20
4.318
 30
0.0
  0
VERTEX
  5
124
  8
0
 62
     6
 10
-25.4
 20
-4.318
 30
0.0
  0
VERTEX
  5
125
  8
0
 62
     6
 10
0.0
 20
0.0
 30
0.0
  0
SEQEND
  5
186
  8
0
 62
     6
  0
ENDBLK
  5
188
  8
0
  0
BLOCK
  8
0
  2
$ARROW2$
 70
     0
 10
0.0
 20
0.0
 30
0.0
  3
$ARROW2$
  1

  0
POLYLINE
  5
38
  8
0
 62
     6
 66
     1
 10
0.0
 20
0.0
 30
0.0
 70
     1
  0
VERTEX
  5
127
  8
0
 62
     6
 10
-25.4
 20
12.7
 30
0.0
  0
VERTEX
  5
128
  8
0
 62
     6
 10
-25.4
 20
-12.7
 30
0.0
  0
VERTEX
  5
129
  8
0
 62
     6
 10
0.0
 20
0.0
 30
0.0
  0
SEQEND
  5
189
  8
0
 62
     6
  0
ENDBLK
  5
18B
  8
0
  0
BLOCK
  8
0
  2
$ARROW3$
 70
     0
 10
0.0
 20
0.0
 30
0.0
  3
$ARROW3$
  1

  0
POLYLINE
  5
40
  8
0
 62
     6
 66
     1
 10
0.0
 20
0.0
 30
0.0
 70
     1
 40
0.508609
 41
0.508609
  0
VERTEX
  5
12B
  8
0
 62
     6
 10
-6.35
 20
0.0
 30
0.0
  0
VERTEX
  5
12C
  8
0
 62
     6
 10
-6.2535
 20
-1.10284
 30
0.0
  0
VERTEX
  5
12D
  8
0
 62
     6
 10
-5.96699
 20
-2.17198
 30
0.0
  0
VERTEX
  5
12E
  8
0
 62
     6
 10
-5.49919
 20
-3.17512
 30
0.0
  0
VERTEX
  5
12F
  8
0
 62
     6
 10
-4.86431
 20
-4.08179
 30
0.0
  0
VERTEX
  5
130
  8
0
 62
     6
 10
-4.08164
 20
-4.86443
 30
0.0
  0
VERTEX
  5
131
  8
0
 62
     6
 10
-3.17496
 20
-5.49929
 30
0.0
  0
VERTEX
  5
132
  8
0
 62
     6
 10
-2.17179
 20
-5.96706
 30
0.0
  0
VERTEX
  5
133
  8
0
 62
     6
 10
-1.10264
 20
-6.25353
 30
0.0
  0
VERTEX
  5
134
  8
0
 62
     6
 10
0.0001
 20
-6.35
 30
0.0
  0
VERTEX
  5
135
  8
0
 62
     6
 10
0.0
 20
-6.35
 30
0.0
  0
VERTEX
  5
136
  8
0
 62
     6
 10
1.10274
 20
-6.25352
 30
0.0
  0
VERTEX
  5
137
  8
0
 62
     6
 10
2.17188
 20
-5.96703
 30
0.0
  0
VERTEX
  5
138
  8
0
 62
     6
 10
3.17504
 20
-5.49924
 30
0.0
  0
VERTEX
  5
139
  8
0
 62
     6
 10
4.08172
 20
-4.86437
 30
0.0
  0
VERTEX
  5
13A
  8
0
 62
     6
 10
4.86443
 20
-4.08164
 30
0.0
  0
VERTEX
  5
13B
  8
0
 62
     6
 10
5.49929
 20
-3.17496
 30
0.0
  0
VERTEX
  5
13C
  8
0
 62
     6
 10
5.96706
 20
-2.17179
 30
0.0
  0
VERTEX
  5
13D
  8
0
 62
     6
 10
6.25353
 20
-1.10264
 30
0.0
  0
VERTEX
  5
13E
  8
0
 62
     6
 10
6.35
 20
0.0
 30
0.0
  0
VERTEX
  5
13F
  8
0
 62
     6
 10
6.25353
 20
1.10264
 30
0.0
  0
VERTEX
  5
140
  8
0
 62
     6
 10
5.96703
 20
2.17188
 30
0.0
  0
VERTEX
  5
141
  8
0
 62
     6
 10
5.49924
 20
3.17504
 30
0.0
  0
VERTEX
  5
142
  8
0
 62
     6
 10
4.86437
 20
4.08172
 30
0.0
  0
VERTEX
  5
143
  8
0
 62
     6
 10
4.08172
 20
4.86437
 30
0.0
  0
VERTEX
  5
144
  8
0
 62
     6
 10
3.17504
 20
5.49924
 30
0.0
  0
VERTEX
  5
145
  8
0
 62
     6
 10
2.17179
 20
5.96706
 30
0.0
  0
VERTEX
  5
146
  8
0
 62
     6
 10
1.10264
 20
6.25353
 30
0.0
  0
VERTEX
  5
147
  8
0
 62
     6
 10
0.0
 20
6.35
 30
0.0
  0
VERTEX
  5
148
  8
0
 62
     6
 10
-1.10264
 20
6.25353
 30
0.0
  0
VERTEX
  5
149
  8
0
 62
     6
 10
-2.17188
 20
5.96703
 30
0.0
  0
VERTEX
  5
14A
  8
0
 62
     6
 10
-3.17504
 20
5.49924
 30
0.0
  0
VERTEX
  5
14B
  8
0
 62
     6
 10
-4.08172
 20
4.86437
 30
0.0
  0
VERTEX
  5
14C
  8
0
 62
     6
 10
-4.86437
 20
4.08172
 30
0.0
  0
VERTEX
  5
14D
  8
0
 62
     6
 10
-5.49929
 20
3.17496
 30
0.0
  0
VERTEX
  5
14E
  8
0
 62
     6
 10
-5.96706
 20
2.17179
 30
0.0
  0
VERTEX
  5
14F
  8
0
 62
     6
 10
-6.25353
 20
1.10264
 30
0.0
  0
VERTEX
  5
150
  8
0
 62
     6
 10
-6.35
 20
0.0
 30
0.0
  0
SEQEND
  5
18C
  8
0
 62
     6
  0
ENDBLK
  5
18E
  8
0
  0
BLOCK
  8
0
  2
$ARROW4$
 70
     0
 10
0.0
 20
0.0
 30
0.0
  3
$ARROW4$
  1

  0
LINE
  5
6B
  8
0
 10
12.7
 20
12.7
 30
0.0
 11
-12.7
 21
-12.7
 31
0.0
  0
ENDBLK
  5
190
  8
0
  0
BLOCK
  8
0
  2
$ARROW5$
 70
     0
 10
0.0
 20
0.0
 30
0.0
  3
$ARROW5$
  1

  0
LINE
  5
6F
  8
0
 10
12.7
 20
12.7
 30
0.0
 11
-12.7
 21
-12.7
 31
0.0
  0
LINE
  5
70
  8
0
 10
-12.7
 20
12.7
 30
0.0
 11
12.7
 21
-12.7
 31
0.0
  0
ENDBLK
  5
192
  8
0
  0
BLOCK
  8
0
  2
BORDER
 70
     0
 10
0.0
 20
0.0
 30
0.0
  3
BORDER
  1

  0
LINE
  5
74
  8
0
 62
     6
 10
0.0
 20
0.0
 30
0.0
 11
1.0
 21
0.0
 31
0.0
  0
LINE
  5
75
  8
0
 62
     6
 10
1.0
 20
0.0
 30
0.0
 11
1.0
 21
1.0
 31
0.0
  0
LINE
  5
76
  8
0
 62
     6
 10
1.0
 20
1.0
 30
0.0
 11
0.0
 21
1.0
 31
0.0
  0
LINE
  5
77
  8
0
 62
     6
 10
0.0
 20
1.0
 30
0.0
 11
0.0
 21
0.0
 31
0.0
  0
ENDBLK
  5
194
  8
0
  0
BLOCK
  8
0
  2
107A
 70
     0
 10
0.0
 20
0.0
 30
0.0
  3
107A
  1

  0
LINE
  5
7B
  8
0
 62
     5
 10
-10.0
 20
25.5
 30
0.0
 11
10.0
 21
25.5
 31
0.0
  0
LINE
  5
7C
  8
0
 62
     5
 10
-10.0
 20
22.0
 30
0.0
 11
-10.0
 21
25.5
 31
0.0
  0
LINE
  5
7D
  8
0
 62
     5
 10
10.0
 20
22.0
 30
0.0
 11
10.0
 21
25.5
 31
0.0
  0
LINE
  5
7E
  8
0
 62
     2
 10
-16.5
 20
53.5
 30
0.0
 11
16.5
 21
53.5
 31
0.0
  0
LINE
  5
7F
  8
0
 62
     2
 10
25.0
 20
65.5
 30
0.0
 11
25.0
 21
62.0
 31
0.0
  0
LINE
  5
80
  8
0
 62
     2
 10
5.0
 20
71.0
 30
0.0
 11
0.0
 21
71.0
 31
0.0
  0
LINE
  5
81
  8
0
 62
     2
 10
6.0
 20
65.5
 30
0.0
 11
0.0
 21
65.5
 31
0.0
  0
LINE
  5
82
  8
0
 62
     2
 10
16.5
 20
35.5
 30
0.0
 11
0.0
 21
35.5
 31
0.0
  0
LINE
  5
83
  8
0
 62
     2
 10
16.5
 20
53.1123
 30
0.0
 11
16.5
 21
35.5
 31
0.0
  0
LINE
  5
84
  8
0
 62
     2
 10
24.40773
 20
67.27679999999999
 30
0.0
 11
25.0
 21
65.5
 31
0.0
  0
LINE
  5
85
  8
0
 62
     2
 10
25.0
 20
62.0
 30
0.0
 11
17.95717
 21
56.20002
 31
0.0
  0
ARC
  5
86
  8
0
 62
     2
 10
22.51037
 20
66.64435
 30
0.0
 40
2.0
 50
18.434937
 51
84.05313099999999
  0
ARC
  5
87
  8
0
 62
     2
 10
20.5
 20
53.1123
 30
0.0
 40
4.0
 50
129.472458
 51
180.0
  0
LINE
  5
88
  8
0
 62
     2
 10
5.0
 20
71.0
 30
0.0
 11
22.71758
 21
68.63359
 31
0.0
  0
LINE
  5
89
  8
0
 62
     2
 10
7.5
 20
35.5
 30
0.0
 11
7.5
 21
25.5
 31
0.0
  0
ARC
  5
8A
  8
0
 62
     2
 10
18.04511
 20
47.4004
 30
0.0
 40
21.74121
 50
77.589584
 51
123.643387
  0
ARC
  5
8B
  8
0
 62
     2
 10
14.85751
 20
67.6263
 30
0.0
 40
14.22146
 50
231.477112
 51
276.632095
  0
LINE
  5
8C
  8
0
 62
     2
 10
6.0
 20
65.5
 30
0.0
 11
6.0
 21
56.5
 31
0.0
  0
LINE
  5
8D
  8
0
 62
     2
 10
6.0
 20
56.5
 30
0.0
 11
0.0
 21
56.5
 31
0.0
  0
LINE
  5
8E
  8
0
 62
     2
 10
-6.0
 20
56.5
 30
0.0
 11
0.0
 21
56.5
 31
0.0
  0
LINE
  5
8F
  8
0
 62
     2
 10
-6.0
 20
65.5
 30
0.0
 11
-6.0
 21
56.5
 31
0.0
  0
ARC
  5
90
  8
0
 62
     2
 10
-14.85751
 20
67.6263
 30
0.0
 40
14.22146
 50
263.367905
 51
308.522888
  0
ARC
  5
91
  8
0
 62
     2
 10
-18.04511
 20
47.4004
 30
0.0
 40
21.74121
 50
56.356628
 51
102.410431
  0
LINE
  5
92
  8
0
 62
     2
 10
-7.5
 20
35.5
 30
0.0
 11
-7.5
 21
25.5
 31
0.0
  0
LINE
  5
93
  8
0
 62
     2
 10
-5.0
 20
71.0
 30
0.0
 11
-22.71758
 21
68.63359
 31
0.0
  0
ARC
  5
94
  8
0
 62
     2
 10
-20.5
 20
53.1123
 30
0.0
 40
4.0
 50
0.0
 51
50.527542
  0
ARC
  5
95
  8
0
 62
     2
 10
-22.51037
 20
66.64435
 30
0.0
 40
2.0
 50
95.946854
 51
161.565048
  0
LINE
  5
96
  8
0
 62
     2
 10
-25.0
 20
62.0
 30
0.0
 11
-17.95717
 21
56.20002
 31
0.0
  0
LINE
  5
97
  8
0
 62
     2
 10
-24.40773
 20
67.27679999999999
 30
0.0
 11
-25.0
 21
65.5
 31
0.0
  0
LINE
  5
98
  8
0
 62
     2
 10
-16.5
 20
53.1123
 30
0.0
 11
-16.5
 21
35.5
 31
0.0
  0
LINE
  5
99
  8
0
 62
     2
 10
-16.5
 20
35.5
 30
0.0
 11
0.0
 21
35.5
 31
0.0
  0
LINE
  5
9A
  8
0
 62
     2
 10
-6.0
 20
65.5
 30
0.0
 11
0.0
 21
65.5
 31
0.0
  0
LINE
  5
9B
  8
0
 62
     2
 10
-5.0
 20
71.0
 30
0.0
 11
0.0
 21
71.0
 31
0.0
  0
LINE
  5
9C
  8
0
 62
     2
 10
-25.0
 20
65.5
 30
0.0
 11
-25.0
 21
62.0
 31
0.0
  0
LINE
  5
9D
  8
0
 62
     5
 10
4.5
 20
-112.75
 30
0.0
 11
4.5
 21
-71.24993000000001
 31
0.0
  0
LINE
  5
9E
  8
0
 62
     5
 10
-4.5
 20
-71.25006999999999
 30
0.0
 11
-4.5
 21
-112.75007
 31
0.0
  0
LINE
  5
9F
  8
0
 62
     5
 10
-1.5
 20
-57.5
 30
0.0
 11
-14.0
 21
-57.5
 31
0.0
  0
LINE
  5
A0
  8
0
 62
     5
 10
-1.5
 20
-62.0
 30
0.0
 11
1.5
 21
-62.0
 31
0.0
  0
LINE
  5
A1
  8
0
 62
     5
 10
-1.5
 20
-51.5
 30
0.0
 11
-1.5
 21
-62.0
 31
0.0
  0
LINE
  5
A2
  8
0
 62
     5
 10
1.5
 20
-51.5
 30
0.0
 11
1.5
 21
-62.0
 31
0.0
  0
LINE
  5
A3
  8
0
 62
     5
 10
13.79048
 20
-51.5
 30
0.0
 11
-13.79048
 21
-51.5
 31
0.0
  0
LINE
  5
A4
  8
0
 62
     5
 10
-7.875
 20
-112.0
 30
0.0
 11
-7.875
 21
-57.5
 31
0.0
  0
LINE
  5
A5
  8
0
 62
     5
 10
7.875
 20
-112.0
 30
0.0
 11
7.875
 21
-57.5
 31
0.0
  0
ARC
  5
A6
  8
0
 62
     5
 10
0.0
 20
-112.0
 30
0.0
 40
7.875
 50
180.0
 51
0.0
  0
LINE
  5
A7
  8
0
 62
     5
 10
12.44566
 20
-12.98942
 30
0.0
 11
-12.44566
 21
-12.98942
 31
0.0
  0
LINE
  5
A8
  8
0
 62
     5
 10
14.0
 20
-57.5
 30
0.0
 11
12.44566
 21
-12.98942
 31
0.0
  0
LINE
  5
A9
  8
0
 62
     5
 10
14.0
 20
-57.5
 30
0.0
 11
14.0
 21
-129.0
 31
0.0
  0
LINE
  5
AA
  8
0
 62
     5
 10
-14.0
 20
-57.5
 30
0.0
 11
-14.0
 21
-129.0
 31
0.0
  0
LINE
  5
AB
  8
0
 62
     5
 10
-14.0
 20
-57.5
 30
0.0
 11
-12.44566
 21
-12.98942
 31
0.0
  0
LINE
  5
AC
  8
0
 62
     5
 10
20.0
 20
-57.5
 30
0.0
 11
20.0
 21
-129.0
 31
0.0
  0
LINE
  5
AD
  8
0
 62
     5
 10
-20.0
 20
-57.5
 30
0.0
 11
-20.0
 21
-129.0
 31
0.0
  0
LINE
  5
AE
  8
0
 62
     5
 10
20.0
 20
-57.5
 30
0.0
 11
17.2238
 21
22.0
 31
0.0
  0
LINE
  5
AF
  8
0
 62
     5
 10
-20.0
 20
-57.5
 30
0.0
 11
-17.2238
 21
22.0
 31
0.0
  0
LINE
  5
B0
  8
0
 62
     5
 10
14.0
 20
-57.5
 30
0.0
 11
1.5
 21
-57.5
 31
0.0
  0
CIRCLE
  5
B1
  8
0
 62
     5
 10
0.0
 20
0.0
 30
0.0
 40
6.0
  0
ARC
  5
B2
  8
0
 62
     5
 10
0.0
 20
-71.25
 30
0.0
 40
4.5
 50
0.0
 51
180.0
  0
ARC
  5
B3
  8
0
 62
     5
 10
0.0
 20
-112.75
 30
0.0
 40
4.5
 50
180.0
 51
0.0
  0
LINE
  5
B4
  8
0
 62
     5
 10
17.2238
 20
22.0
 30
0.0
 11
-17.2238
 21
22.0
 31
0.0
  0
LINE
  5
B5
  8
0
 62
     5
 10
20.0
 20
-129.0
 30
0.0
 11
-20.0
 21
-129.0
 31
0.0
  0
ENDBLK
  5
196
  8
0
  0
BLOCK
  8
0
  2
107B
 70
     0
 10
0.0
 20
0.0
 30
0.0
  3
107B
  1

  0
LINE
  5
B9
  8
0
 62
     5
 10
17.0
 20
-84.5
 30
0.0
 11
-24.0
 21
-151.0
 31
0.0
  0
LINE
  5
BA
  8
0
 62
     5
 10
17.0
 20
-84.5
 30
0.0
 11
15.0
 21
0.0
 31
0.0
  0
LINE
  5
BB
  8
0
 62
     2
 10
-24.75
 20
44.0
 30
0.0
 11
-24.75
 21
40.5
 31
0.0
  0
LINE
  5
BC
  8
0
 62
     2
 10
-4.75
 20
49.5
 30
0.0
 11
0.25
 21
49.5
 31
0.0
  0
LINE
  5
BD
  8
0
 62
     2
 10
-5.75
 20
44.0
 30
0.0
 11
0.25
 21
44.0
 31
0.0
  0
LINE
  5
BE
  8
0
 62
     2
 10
-16.25
 20
14.0
 30
0.0
 11
0.25
 21
14.0
 31
0.0
  0
LINE
  5
BF
  8
0
 62
     2
 10
-16.25
 20
31.6123
 30
0.0
 11
-16.25
 21
14.0
 31
0.0
  0
LINE
  5
C0
  8
0
 62
     2
 10
-24.15773
 20
45.7768
 30
0.0
 11
-24.75
 21
44.0
 31
0.0
  0
LINE
  5
C1
  8
0
 62
     2
 10
-24.75
 20
40.5
 30
0.0
 11
-17.70717
 21
34.70002
 31
0.0
  0
ARC
  5
C2
  8
0
 62
     2
 10
-22.26037
 20
45.14435
 30
0.0
 40
2.0
 50
95.946854
 51
161.565048
  0
ARC
  5
C3
  8
0
 62
     2
 10
-20.25
 20
31.6123
 30
0.0
 40
4.0
 50
0.0
 51
50.527542
  0
LINE
  5
C4
  8
0
 62
     2
 10
-4.75
 20
49.5
 30
0.0
 11
-22.46758
 21
47.13359
 31
0.0
  0
LINE
  5
C5
  8
0
 62
     2
 10
-7.25
 20
14.0
 30
0.0
 11
-7.25
 21
4.0
 31
0.0
  0
ARC
  5
C6
  8
0
 62
     2
 10
-17.79511
 20
25.9004
 30
0.0
 40
21.74121
 50
56.356628
 51
102.410431
  0
ARC
  5
C7
  8
0
 62
     2
 10
-14.60751
 20
46.1263
 30
0.0
 40
14.22146
 50
263.367905
 51
308.522888
  0
LINE
  5
C8
  8
0
 62
     2
 10
-5.75
 20
44.0
 30
0.0
 11
-5.75
 21
35.0
 31
0.0
  0
LINE
  5
C9
  8
0
 62
     2
 10
-5.75
 20
35.0
 30
0.0
 11
0.25
 21
35.0
 31
0.0
  0
LINE
  5
CA
  8
0
 62
     2
 10
6.25
 20
35.0
 30
0.0
 11
0.25
 21
35.0
 31
0.0
  0
LINE
  5
CB
  8
0
 62
     2
 10
6.25
 20
44.0
 30
0.0
 11
6.25
 21
35.0
 31
0.0
  0
ARC
  5
CC
  8
0
 62
     2
 10
15.10751
 20
46.1263
 30
0.0
 40
14.22146
 50
231.477112
 51
276.632095
  0
ARC
  5
CD
  8
0
 62
     2
 10
18.29511
 20
25.9004
 30
0.0
 40
21.74121
 50
77.589584
 51
123.643387
  0
LINE
  5
CE
  8
0
 62
     2
 10
7.75
 20
14.0
 30
0.0
 11
7.75
 21
4.0
 31
0.0
  0
LINE
  5
CF
  8
0
 62
     2
 10
5.25
 20
49.5
 30
0.0
 11
22.96758
 21
47.13359
 31
0.0
  0
ARC
  5
D0
  8
0
 62
     2
 10
20.75
 20
31.6123
 30
0.0
 40
4.0
 50
129.472458
 51
180.0
  0
ARC
  5
D1
  8
0
 62
     2
 10
22.76037
 20
45.14435
 30
0.0
 40
2.0
 50
18.434937
 51
84.05313099999999
  0
LINE
  5
D2
  8
0
 62
     2
 10
25.25
 20
40.5
 30
0.0
 11
18.20717
 21
34.70002
 31
0.0
  0
LINE
  5
D3
  8
0
 62
     2
 10
24.65773
 20
45.7768
 30
0.0
 11
25.25
 21
44.0
 31
0.0
  0
LINE
  5
D4
  8
0
 62
     2
 10
16.75
 20
31.6123
 30
0.0
 11
16.75
 21
14.0
 31
0.0
  0
LINE
  5
D5
  8
0
 62
     2
 10
16.75
 20
14.0
 30
0.0
 11
0.25
 21
14.0
 31
0.0
  0
LINE
  5
D6
  8
0
 62
     2
 10
6.25
 20
44.0
 30
0.0
 11
0.25
 21
44.0
 31
0.0
  0
LINE
  5
D7
  8
0
 62
     2
 10
5.25
 20
49.5
 30
0.0
 11
0.25
 21
49.5
 31
0.0
  0
LINE
  5
D8
  8
0
 62
     2
 10
25.25
 20
44.0
 30
0.0
 11
25.25
 21
40.5
 31
0.0
  0
LINE
  5
D9
  8
0
 62
     2
 10
-16.25
 20
32.0
 30
0.0
 11
16.75
 21
32.0
 31
0.0
  0
LINE
  5
DA
  8
0
 62
     5
 10
10.25
 20
0.5
 30
0.0
 11
10.25
 21
4.0
 31
0.0
  0
LINE
  5
DB
  8
0
 62
     5
 10
-9.75
 20
0.5
 30
0.0
 11
-9.75
 21
4.0
 31
0.0
  0
LINE
  5
DC
  8
0
 62
     5
 10
-9.75
 20
4.0
 30
0.0
 11
10.25
 21
4.0
 31
0.0
  0
LINE
  5
DD
  8
0
 62
     5
 10
-6.25
 20
0.0
 30
0.0
 11
-6.25
 21
-33.0
 31
0.0
  0
LINE
  5
DE
  8
0
 62
     5
 10
5.75
 20
0.0
 30
0.0
 11
5.75
 21
-33.0
 31
0.0
  0
LINE
  5
DF
  8
0
 62
     5
 10
-45.0
 20
-76.5
 30
0.0
 11
-15.0
 21
-52.0
 31
0.0
  0
LINE
  5
E0
  8
0
 62
     5
 10
-6.25
 20
-33.0
 30
0.0
 11
5.75
 21
-33.0
 31
0.0
  0
LINE
  5
E1
  8
0
 62
     5
 10
-48.0
 20
-76.5
 30
0.0
 11
-45.0
 21
-76.5
 31
0.0
  0
LINE
  5
E2
  8
0
 62
     5
 10
-48.0
 20
-79.5
 30
0.0
 11
-45.0
 21
-79.5
 31
0.0
  0
LINE
  5
E3
  8
0
 62
     5
 10
-48.0
 20
-79.5
 30
0.0
 11
-48.0
 21
-76.5
 31
0.0
  0
LINE
  5
E4
  8
0
 62
     5
 10
-15.0
 20
-52.0
 30
0.0
 11
-15.0
 21
0.0
 31
0.0
  0
LINE
  5
E5
  8
0
 62
     5
 10
-45.0
 20
-151.0
 30
0.0
 11
-45.0
 21
-79.5
 31
0.0
  0
LINE
  5
E6
  8
0
 62
     5
 10
-15.0
 20
0.0
 30
0.0
 11
15.0
 21
0.0
 31
0.0
  0
LINE
  5
E7
  8
0
 62
     5
 10
-45.0
 20
-151.0
 30
0.0
 11
-24.0
 21
-151.0
 31
0.0
  0
ENDBLK
  5
198
  8
0
  0
BLOCK
  8
0
  2
107C
 70
     0
 10
0.0
 20
0.0
 30
0.0
  3
107C
  1

  0
CIRCLE
  5
EB
  8
0
  6
MCDASH1
 10
0.0
 20
0.0
 30
0.0
 40
6.0
  0
ARC
  5
EC
  8
0
 62
     2
 10
-16.26346
 20
-16.26346
 30
0.0
 40
11.5
 50
0.0
 51
90.0
  0
LINE
  5
ED
  8
0
 62
     2
 10
-25.0
 20
2.76346
 30
0.0
 11
-25.0
 21
-2.76346
 31
0.0
  0
LINE
  5
EE
  8
0
 62
     2
 10
-16.26346
 20
4.76346
 30
0.0
 11
-23.0
 21
4.76346
 31
0.0
  0
LINE
  5
EF
  8
0
 62
     2
 10
-16.26346
 20
-4.76346
 30
0.0
 11
-23.0
 21
-4.76346
 31
0.0
  0
ARC
  5
F0
  8
0
 62
     2
 10
-23.0
 20
2.76346
 30
0.0
 40
2.0
 50
90.0
 51
180.0
  0
ARC
  5
F1
  8
0
 62
     2
 10
-23.0
 20
-2.76346
 30
0.0
 40
2.0
 50
180.0
 51
270.0
  0
ARC
  5
F2
  8
0
 62
     2
 10
-2.76346
 20
-23.0
 30
0.0
 40
2.0
 50
180.0
 51
270.0
  0
ARC
  5
F3
  8
0
 62
     2
 10
2.76346
 20
-23.0
 30
0.0
 40
2.0
 50
270.0
 51
0.0
  0
LINE
  5
F4
  8
0
 62
     2
 10
-4.76346
 20
-16.26346
 30
0.0
 11
-4.76346
 21
-23.0
 31
0.0
  0
LINE
  5
F5
  8
0
 62
     2
 10
4.76346
 20
-16.26346
 30
0.0
 11
4.76346
 21
-23.0
 31
0.0
  0
LINE
  5
F6
  8
0
 62
     2
 10
2.76346
 20
-25.0
 30
0.0
 11
-2.76346
 21
-25.0
 31
0.0
  0
ARC
  5
F7
  8
0
 62
     2
 10
16.26346
 20
-16.26346
 30
0.0
 40
11.5
 50
90.0
 51
180.0
  0
LINE
  5
F8
  8
0
 62
     2
 10
25.0
 20
-2.76346
 30
0.0
 11
25.0
 21
2.76346
 31
0.0
  0
LINE
  5
F9
  8
0
 62
     2
 10
16.26346
 20
-4.76346
 30
0.0
 11
23.0
 21
-4.76346
 31
0.0
  0
LINE
  5
FA
  8
0
 62
     2
 10
16.26346
 20
4.76346
 30
0.0
 11
23.0
 21
4.76346
 31
0.0
  0
ARC
  5
FB
  8
0
 62
     2
 10
23.0
 20
-2.76346
 30
0.0
 40
2.0
 50
270.0
 51
0.0
  0
ARC
  5
FC
  8
0
 62
     2
 10
23.0
 20
2.76346
 30
0.0
 40
2.0
 50
0.0
 51
90.0
  0
ARC
  5
FD
  8
0
 62
     2
 10
2.76346
 20
23.0
 30
0.0
 40
2.0
 50
0.0
 51
90.0
  0
ARC
  5
FE
  8
0
 62
     2
 10
-2.76346
 20
23.0
 30
0.0
 40
2.0
 50
90.0
 51
180.0
  0
ARC
  5
FF
  8
0
 62
     2
 10
16.26346
 20
16.26346
 30
0.0
 40
11.5
 50
180.0
 51
270.0
  0
LINE
  5
100
  8
0
 62
     2
 10
4.76346
 20
16.26346
 30
0.0
 11
4.76346
 21
23.0
 31
0.0
  0
LINE
  5
101
  8
0
 62
     2
 10
-4.76346
 20
16.26346
 30
0.0
 11
-4.76346
 21
23.0
 31
0.0
  0
ARC
  5
102
  8
0
 62
     2
 10
-16.26346
 20
16.26346
 30
0.0
 40
11.5
 50
270.0
 51
0.0
  0
CIRCLE
  5
103
  8
0
  6
MCDASH1
 10
0.0
 20
0.0
 30
0.0
 40
11.5
  0
LINE
  5
104
  8
0
 62
     2
 10
-2.76346
 20
25.0
 30
0.0
 11
2.76346
 21
25.0
 31
0.0
  0
LINE
  5
105
  8
0
 62
     5
 10
-17.2238
 20
-16.0
 30
0.0
 11
17.2238
 21
-16.0
 31
0.0
  0
LINE
  5
106
  8
0
 62
     5
 10
-17.2238
 20
16.0
 30
0.0
 11
17.2238
 21
16.0
 31
0.0
  0
LINE
  5
107
  8
0
 62
     5
 10
17.2238
 20
43.0
 30
0.0
 11
17.2238
 21
-16.0
 31
0.0
  0
LINE
  5
108
  8
0
 62
     5
 10
-17.2238
 20
43.0
 30
0.0
 11
-17.2238
 21
-16.0
 31
0.0
  0
LINE
  5
109
  8
0
 62
     5
 10
-20.0
 20
46.0
 30
0.0
 11
20.0
 21
46.0
 31
0.0
  0
LINE
  5
10A
  8
0
 62
     5
 10
-20.0
 20
-19.0
 30
0.0
 11
20.0
 21
-19.0
 31
0.0
  0
LINE
  5
10B
  8
0
 62
     5
 10
-20.0
 20
43.0
 30
0.0
 11
20.0
 21
43.0
 31
0.0
  0
LINE
  5
10C
  8
0
 62
     5
 10
20.0
 20
46.0
 30
0.0
 11
20.0
 21
-19.0
 31
0.0
  0
LINE
  5
10D
  8
0
 62
     5
 10
-20.0
 20
46.0
 30
0.0
 11
-20.0
 21
-19.0
 31
0.0
  0
ENDBLK
  5
19A
  8
0
  0
ENDSEC
  0
SECTION
  2
ENTITIES
  0
INSERT
  5
10F
  8
0
  2
107A
 10
-57.625
 20
81.75
 30
0.0
  0
INSERT
  5
110
  8
0
  2
107B
 10
57.375
 20
103.75
 30
0.0
  0
INSERT
  5
111
  8
0
  2
107C
 10
-57.625
 20
-128.25
 30
0.0
  0
ENDSEC
  0
EOF
