  0
SECTION
  2
HEADER
  9
$ACADVER
  1
AC1014
  9
$ACADMAINTVER
 70
     9
  9
$DWGCODEPAGE
  3
ANSI_1252
  9
$INSBASE
 10
0.0
 20
0.0
 30
0.0
  9
$EXTMIN
 10
-22.5
 20
-200.0
 30
0.0
  9
$EXTMAX
 10
150.0
 20
30.74
 30
0.0
  9
$LIMMIN
 10
0.0
 20
0.0
  9
$LIMMAX
 10
297.0
 20
210.0
  9
$ORTHOMODE
 70
     0
  9
$REGENMODE
 70
     1
  9
$FILLMODE
 70
     1
  9
$QTEXTMODE
 70
     0
  9
$MIRRTEXT
 70
     1
  9
$DRAGMODE
 70
     2
  9
$LTSCALE
 40
10.0
  9
$OSMODE
 70
    37
  9
$ATTMODE
 70
     1
  9
$TEXTSIZE
 40
0.2
  9
$TRACEWID
 40
0.05
  9
$TEXTSTYLE
  7
STANDARD
  9
$CLAYER
  8
0
  9
$CELTYPE
  6
BYLAYER
  9
$CECOLOR
 62
   256
  9
$CELTSCALE
 40
1.0
  9
$DELOBJ
 70
     1
  9
$DISPSILH
 70
     0
  9
$DIMSCALE
 40
1.0
  9
$DIMASZ
 40
0.18
  9
$DIMEXO
 40
0.0625
  9
$DIMDLI
 40
0.38
  9
$DIMRND
 40
0.0
  9
$DIMDLE
 40
0.0
  9
$DIMEXE
 40
0.18
  9
$DIMTP
 40
0.0
  9
$DIMTM
 40
0.0
  9
$DIMTXT
 40
0.18
  9
$DIMCEN
 40
0.09
  9
$DIMTSZ
 40
0.0
  9
$DIMTOL
 70
     0
  9
$DIMLIM
 70
     0
  9
$DIMTIH
 70
     1
  9
$DIMTOH
 70
     1
  9
$DIMSE1
 70
     0
  9
$DIMSE2
 70
     0
  9
$DIMTAD
 70
     0
  9
$DIMZIN
 70
     0
  9
$DIMBLK
  1

  9
$DIMASO
 70
     1
  9
$DIMSHO
 70
     0
  9
$DIMPOST
  1

  9
$DIMAPOST
  1

  9
$DIMALT
 70
     0
  9
$DIMALTD
 70
     2
  9
$DIMALTF
 40
25.4
  9
$DIMLFAC
 40
1.0
  9
$DIMTOFL
 70
     0
  9
$DIMTVP
 40
0.0
  9
$DIMTIX
 70
     0
  9
$DIMSOXD
 70
     0
  9
$DIMSAH
 70
     0
  9
$DIMBLK1
  1

  9
$DIMBLK2
  1

  9
$DIMSTYLE
  2
STANDARD
  9
$DIMCLRD
 70
     0
  9
$DIMCLRE
 70
     0
  9
$DIMCLRT
 70
     0
  9
$DIMTFAC
 40
1.0
  9
$DIMGAP
 40
0.09
  9
$DIMJUST
 70
     0
  9
$DIMSD1
 70
     0
  9
$DIMSD2
 70
     0
  9
$DIMTOLJ
 70
     1
  9
$DIMTZIN
 70
     0
  9
$DIMALTZ
 70
     0
  9
$DIMALTTZ
 70
     0
  9
$DIMFIT
 70
     3
  9
$DIMUPT
 70
     0
  9
$DIMUNIT
 70
     2
  9
$DIMDEC
 70
     4
  9
$DIMTDEC
 70
     4
  9
$DIMALTU
 70
     2
  9
$DIMALTTD
 70
     2
  9
$DIMTXSTY
  7
STANDARD
  9
$DIMAUNIT
 70
     0
  9
$LUNITS
 70
     2
  9
$LUPREC
 70
     4
  9
$SKETCHINC
 40
0.1
  9
$FILLETRAD
 40
0.0
  9
$AUNITS
 70
     0
  9
$AUPREC
 70
     0
  9
$MENU
  1
sitopluk
  9
$ELEVATION
 40
0.0
  9
$PELEVATION
 40
0.0
  9
$THICKNESS
 40
0.0
  9
$LIMCHECK
 70
     0
  9
$CHAMFERA
 40
0.0
  9
$CHAMFERB
 40
0.0
  9
$CHAMFERC
 40
0.0
  9
$CHAMFERD
 40
0.0
  9
$SKPOLY
 70
     0
  9
$TDCREATE
 40
2450497.96770301
  9
$TDUPDATE
 40
2453594.478173681
  9
$TDINDWG
 40
0.0001254167
  9
$TDUSRTIMER
 40
0.0001254167
  9
$USRTIMER
 70
     1
  9
$ANGBASE
 50
0.0
  9
$ANGDIR
 70
     0
  9
$PDMODE
 70
     0
  9
$PDSIZE
 40
0.0
  9
$PLINEWID
 40
0.0
  9
$COORDS
 70
     1
  9
$SPLFRAME
 70
     0
  9
$SPLINETYPE
 70
     6
  9
$SPLINESEGS
 70
     8
  9
$ATTDIA
 70
     0
  9
$ATTREQ
 70
     1
  9
$HANDLING
 70
     1
  9
$HANDSEED
  5
D0
  9
$SURFTAB1
 70
     6
  9
$SURFTAB2
 70
     6
  9
$SURFTYPE
 70
     6
  9
$SURFU
 70
     6
  9
$SURFV
 70
     6
  9
$UCSNAME
  2

  9
$UCSORG
 10
0.0
 20
0.0
 30
0.0
  9
$UCSXDIR
 10
1.0
 20
0.0
 30
0.0
  9
$UCSYDIR
 10
0.0
 20
1.0
 30
0.0
  9
$PUCSNAME
  2

  9
$PUCSORG
 10
0.0
 20
0.0
 30
0.0
  9
$PUCSXDIR
 10
1.0
 20
0.0
 30
0.0
  9
$PUCSYDIR
 10
0.0
 20
1.0
 30
0.0
  9
$USERI1
 70
     0
  9
$USERI2
 70
     0
  9
$USERI3
 70
     0
  9
$USERI4
 70
     0
  9
$USERI5
 70
     0
  9
$USERR1
 40
0.0
  9
$USERR2
 40
0.0
  9
$USERR3
 40
0.0
  9
$USERR4
 40
0.0
  9
$USERR5
 40
0.0
  9
$WORLDVIEW
 70
     1
  9
$SHADEDGE
 70
     3
  9
$SHADEDIF
 70
    70
  9
$TILEMODE
 70
     1
  9
$MAXACTVP
 70
    48
  9
$PINSBASE
 10
0.0
 20
0.0
 30
0.0
  9
$PLIMCHECK
 70
     0
  9
$PEXTMIN
 10
1.000000000000000E+20
 20
1.000000000000000E+20
 30
1.000000000000000E+20
  9
$PEXTMAX
 10
-1.000000000000000E+20
 20
-1.000000000000000E+20
 30
-1.000000000000000E+20
  9
$PLIMMIN
 10
0.0
 20
0.0
  9
$PLIMMAX
 10
12.0
 20
9.0
  9
$UNITMODE
 70
     0
  9
$VISRETAIN
 70
     1
  9
$PLINEGEN
 70
     0
  9
$PSLTSCALE
 70
     1
  9
$TREEDEPTH
 70
  3020
  9
$PICKSTYLE
 70
     1
  9
$CMLSTYLE
  2
STANDARD
  9
$CMLJUST
 70
     0
  9
$CMLSCALE
 40
1.0
  9
$PROXYGRAPHICS
 70
     1
  9
$MEASUREMENT
 70
     0
  0
ENDSEC
  0
SECTION
  2
CLASSES
  0
CLASS
  1
XRECORD
  2
AcDbXrecord
  3
AutoCAD 2000
 90
        0
280
     0
281
     0
  0
CLASS
  1
LWPOLYLINE
  2
AcDbPolyline
  3
AutoCAD 2000
 90
        0
280
     0
281
     1
  0
CLASS
  1
HATCH
  2
AcDbHatch
  3
AutoCAD 2000
 90
        0
280
     0
281
     1
  0
CLASS
  1
ACDBPLACEHOLDER
  2
AcDbPlaceHolder
  3
ObjectDBX Classes
 90
        0
280
     0
281
     0
  0
CLASS
  1
LAYOUT
  2
AcDbLayout
  3
ObjectDBX Classes
 90
        0
280
     0
281
     0
  0
ENDSEC
  0
SECTION
  2
TABLES
  0
TABLE
  2
VPORT
  5
8
330
0
100
AcDbSymbolTable
 70
     2
  0
VPORT
  5
AB
102
{ACAD_XDICTIONARY
360
CE
102
}
330
8
100
AcDbSymbolTableRecord
100
AcDbViewportTableRecord
  2
*ACTIVE
 70
     0
 10
0.0
 20
0.0
 11
1.0
 21
1.0
 12
137.25
 22
5.0
 13
0.0
 23
0.0
 14
0.5
 24
0.5
 15
0.0
 25
0.0
 16
0.0
 26
0.0
 36
1.0
 17
0.0
 27
0.0
 37
0.0
 40
414.6415094339623
 41
1.748582230623819
 42
50.0
 43
0.0
 44
0.0
 50
0.0
 51
0.0
 71
     0
 72
   100
 73
     1
 74
     1
 75
     1
 76
     0
 77
     0
 78
     0
  0
ENDTAB
  0
TABLE
  2
LTYPE
  5
5
330
0
100
AcDbSymbolTable
 70
     2
  0
LTYPE
  5
12
330
5
100
AcDbSymbolTableRecord
100
AcDbLinetypeTableRecord
  2
BYBLOCK
 70
     0
  3

 72
    65
 73
     0
 40
0.0
  0
LTYPE
  5
13
330
5
100
AcDbSymbolTableRecord
100
AcDbLinetypeTableRecord
  2
BYLAYER
 70
     0
  3

 72
    65
 73
     0
 40
0.0
  0
LTYPE
  5
14
330
5
100
AcDbSymbolTableRecord
100
AcDbLinetypeTableRecord
  2
CONTINUOUS
 70
     0
  3
Solid line
 72
    65
 73
     0
 40
0.0
  0
LTYPE
  5
1F
330
5
100
AcDbSymbolTableRecord
100
AcDbLinetypeTableRecord
  2
HIDDEN
 70
     0
  3
_ _ _ _ _ _ _ _ _ _ _ _ _ _ _ _ _ _ _ _ _ _ _
 72
    65
 73
     2
 40
0.375
 49
0.25
 74
     0
 49
-0.125
 74
     0
  0
ENDTAB
  0
TABLE
  2
LAYER
  5
2
330
0
100
AcDbSymbolTable
 70
     4
  0
LAYER
  5
E
330
2
100
AcDbSymbolTableRecord
100
AcDbLayerTableRecord
  2
0
 70
     0
 62
     7
  6
CONTINUOUS
  0
LAYER
  5
20
330
2
100
AcDbSymbolTableRecord
100
AcDbLayerTableRecord
  2
PROFILI
 70
     0
 62
     7
  6
CONTINUOUS
  0
LAYER
  5
21
330
2
100
AcDbSymbolTableRecord
100
AcDbLayerTableRecord
  2
FISSAGGI
 70
     0
 62
     2
  6
CONTINUOUS
  0
LAYER
  5
22
330
2
100
AcDbSymbolTableRecord
100
AcDbLayerTableRecord
  2
PANNELLI
 70
     0
 62
     6
  6
CONTINUOUS
  0
ENDTAB
  0
TABLE
  2
STYLE
  5
3
330
0
100
AcDbSymbolTable
 70
     1
  0
STYLE
  5
F
330
3
100
AcDbSymbolTableRecord
100
AcDbTextStyleTableRecord
  2
STANDARD
 70
     0
 40
0.0
 41
1.0
 50
0.0
 71
     0
 42
0.2
  3
txt
  4

  0
ENDTAB
  0
TABLE
  2
VIEW
  5
6
330
0
100
AcDbSymbolTable
 70
     0
  0
ENDTAB
  0
TABLE
  2
UCS
  5
7
330
0
100
AcDbSymbolTable
 70
     0
  0
ENDTAB
  0
TABLE
  2
APPID
  5
9
330
0
100
AcDbSymbolTable
 70
     1
  0
APPID
  5
10
330
9
100
AcDbSymbolTableRecord
100
AcDbRegAppTableRecord
  2
ACAD
 70
     0
  0
ENDTAB
  0
TABLE
  2
DIMSTYLE
  5
A
330
0
100
AcDbSymbolTable
 70
     1
  0
DIMSTYLE
105
AA
330
A
100
AcDbSymbolTableRecord
100
AcDbDimStyleTableRecord
  2
STANDARD
 70
     0
  3

  4

  5

  6

  7

 40
1.0
 41
0.18
 42
0.0625
 43
0.38
 44
0.18
 45
0.0
 46
0.0
 47
0.0
 48
0.0
140
0.18
141
0.09
142
0.0
143
25.4
144
1.0
145
0.0
146
1.0
147
0.09
 71
     0
 72
     0
 73
     1
 74
     1
 75
     0
 76
     0
 77
     0
 78
     0
170
     0
171
     2
172
     0
173
     0
174
     0
175
     0
176
     0
177
     0
178
     0
270
     2
271
     4
272
     4
273
     2
274
     2
340
F
275
     0
280
     0
281
     0
282
     0
283
     1
284
     0
285
     0
286
     0
287
     3
288
     0
  0
ENDTAB
  0
TABLE
  2
BLOCK_RECORD
  5
1
330
0
100
AcDbSymbolTable
 70
     6
  0
BLOCK_RECORD
  5
18
330
1
100
AcDbSymbolTableRecord
100
AcDbBlockTableRecord
  2
*MODEL_SPACE
  0
BLOCK_RECORD
  5
15
330
1
100
AcDbSymbolTableRecord
100
AcDbBlockTableRecord
  2
*PAPER_SPACE
  0
BLOCK_RECORD
  5
23
330
1
100
AcDbSymbolTableRecord
100
AcDbBlockTableRecord
  2
BORDER
  0
BLOCK_RECORD
  5
2A
330
1
100
AcDbSymbolTableRecord
100
AcDbBlockTableRecord
  2
88AA
  0
BLOCK_RECORD
  5
68
330
1
100
AcDbSymbolTableRecord
100
AcDbBlockTableRecord
  2
88BB
  0
BLOCK_RECORD
  5
6E
330
1
100
AcDbSymbolTableRecord
100
AcDbBlockTableRecord
  2
81BB
  0
BLOCK_RECORD
  5
87
330
1
100
AcDbSymbolTableRecord
100
AcDbBlockTableRecord
  2
88CC
  0
BLOCK_RECORD
  5
94
330
1
100
AcDbSymbolTableRecord
100
AcDbBlockTableRecord
  2
81CC
  0
ENDTAB
  0
ENDSEC
  0
SECTION
  2
BLOCKS
  0
BLOCK
  5
19
330
18
100
AcDbEntity
  8
0
100
AcDbBlockBegin
  2
*MODEL_SPACE
 70
     0
 71
     0
 10
0.0
 20
0.0
 30
0.0
  3
*MODEL_SPACE
  1

  0
ENDBLK
  5
1A
330
18
100
AcDbEntity
  8
0
100
AcDbBlockEnd
  0
BLOCK
  5
16
330
15
100
AcDbEntity
 67
     1
  8
0
100
AcDbBlockBegin
  2
*PAPER_SPACE
 70
     0
 71
     0
 10
0.0
 20
0.0
 30
0.0
  3
*PAPER_SPACE
  1

  0
ENDBLK
  5
17
330
15
100
AcDbEntity
 67
     1
  8
0
100
AcDbBlockEnd
  0
BLOCK
  5
24
330
23
100
AcDbEntity
  8
0
100
AcDbBlockBegin
  2
BORDER
 70
     0
 71
     0
 10
0.0
 20
0.0
 30
0.0
  3
BORDER
  1

  0
LINE
  5
25
330
23
100
AcDbEntity
  8
0
100
AcDbLine
 10
0.0
 20
0.0
 30
0.0
 11
1.0
 21
0.0
 31
0.0
  0
LINE
  5
26
330
23
100
AcDbEntity
  8
0
100
AcDbLine
 10
1.0
 20
0.0
 30
0.0
 11
1.0
 21
1.0
 31
0.0
  0
LINE
  5
27
330
23
100
AcDbEntity
  8
0
100
AcDbLine
 10
1.0
 20
1.0
 30
0.0
 11
0.0
 21
1.0
 31
0.0
  0
LINE
  5
28
330
23
100
AcDbEntity
  8
0
100
AcDbLine
 10
0.0
 20
1.0
 30
0.0
 11
0.0
 21
0.0
 31
0.0
  0
ENDBLK
  5
29
330
23
100
AcDbEntity
  8
0
100
AcDbBlockEnd
  0
BLOCK
  5
2B
330
2A
100
AcDbEntity
  8
0
100
AcDbBlockBegin
  2
88AA
 70
     0
 71
     0
 10
0.0
 20
0.0
 30
0.0
  3
88AA
  1

  0
LINE
  5
2C
330
2A
100
AcDbEntity
  8
0
 62
     5
100
AcDbLine
 10
27.8
 20
23.4
 30
0.0
 11
27.8
 21
13.25
 31
0.0
  0
LINE
  5
2D
330
2A
100
AcDbEntity
  8
0
 62
     5
100
AcDbLine
 10
29.2
 20
23.4
 30
0.0
 11
29.2
 21
13.25
 31
0.0
  0
LINE
  5
2E
330
2A
100
AcDbEntity
  8
0
 62
     5
100
AcDbLine
 10
30.6
 20
23.4
 30
0.0
 11
30.6
 21
13.25
 31
0.0
  0
LINE
  5
2F
330
2A
100
AcDbEntity
  8
0
 62
     5
100
AcDbLine
 10
32.0
 20
23.4
 30
0.0
 11
32.0
 21
13.25
 31
0.0
  0
LINE
  5
30
330
2A
100
AcDbEntity
  8
0
 62
     5
100
AcDbLine
 10
33.4
 20
23.4
 30
0.0
 11
33.4
 21
13.25
 31
0.0
  0
LWPOLYLINE
  5
31
330
2A
100
AcDbEntity
  8
0
 62
     5
100
AcDbPolyline
 90
        7
 70
     0
 43
0.0
 10
29.476114
 20
12.55
 10
28.895102
 20
11.678481
 10
37.6
 20
-11.25
 42
-0.4742689999999999
 10
36.197489
 20
-14.184366
 10
30.136198
 20
-15.612537
 42
-0.39983
 10
27.625432
 20
-14.170001
 10
20.890588
 20
12.55
  0
LWPOLYLINE
  5
3A
330
2A
100
AcDbEntity
  8
0
 62
     5
100
AcDbPolyline
 90
        7
 70
     0
 43
0.0
 10
32.0
 20
12.55
 10
31.3
 20
11.5
 10
40.0057
 20
-12.774612
 42
-0.4742689999999999
 10
38.603188
 20
-15.708978
 10
28.691903
 20
-18.126365
 42
-0.39983
 10
26.181137
 20
-16.683829
 10
18.7
 20
12.55
  0
LINE
  5
43
330
2A
100
AcDbEntity
  8
0
 62
     5
100
AcDbLine
 10
18.7
 20
13.95
 30
0.0
 11
17.65
 21
13.95
 31
0.0
  0
LINE
  5
44
330
2A
100
AcDbEntity
  8
0
 62
     5
100
AcDbLine
 10
17.65
 20
22.7
 30
0.0
 11
18.7
 21
22.7
 31
0.0
  0
LINE
  5
45
330
2A
100
AcDbEntity
  8
0
 62
     5
100
AcDbLine
 10
18.7
 20
12.55
 30
0.0
 11
18.7
 21
24.1
 31
0.0
  0
LINE
  5
46
330
2A
100
AcDbEntity
  8
0
 62
     5
100
AcDbLine
 10
35.15
 20
12.55
 30
0.0
 11
18.7
 21
12.55
 31
0.0
  0
LINE
  5
47
330
2A
100
AcDbEntity
  8
0
 62
     5
100
AcDbLine
 10
35.15
 20
24.1
 30
0.0
 11
35.15
 21
12.55
 31
0.0
  0
LINE
  5
48
330
2A
100
AcDbEntity
  8
0
 62
     5
100
AcDbLine
 10
18.7
 20
24.1
 30
0.0
 11
35.15
 21
24.1
 31
0.0
  0
LINE
  5
49
330
2A
100
AcDbEntity
  8
0
 62
     5
100
AcDbLine
 10
-22.5
 20
-51.76
 30
0.0
 11
-22.5
 21
-121.26
 31
0.0
  0
LINE
  5
4A
330
2A
100
AcDbEntity
  8
0
 62
     5
100
AcDbLine
 10
-20.5
 20
-123.26
 30
0.0
 11
20.5
 21
-123.26
 31
0.0
  0
LINE
  5
4B
330
2A
100
AcDbEntity
  8
0
 62
     5
100
AcDbLine
 10
-15.5
 20
30.74
 30
0.0
 11
-2.0
 21
30.74
 31
0.0
  0
LINE
  5
4C
330
2A
100
AcDbEntity
  8
0
 62
     5
100
AcDbLine
 10
22.5
 20
-51.76
 30
0.0
 11
22.5
 21
-121.26
 31
0.0
  0
LINE
  5
4D
330
2A
100
AcDbEntity
  8
0
 62
     5
100
AcDbLine
 10
17.5
 20
-117.26
 30
0.0
 11
17.5
 21
28.74
 31
0.0
  0
LINE
  5
4E
330
2A
100
AcDbEntity
  8
0
 62
     5
100
AcDbLine
 10
-17.5
 20
-117.26
 30
0.0
 11
-17.5
 21
28.74
 31
0.0
  0
LINE
  5
4F
330
2A
100
AcDbEntity
  8
0
 62
     5
100
AcDbLine
 10
-20.5
 20
-49.76
 30
0.0
 11
-17.5
 21
-49.76
 31
0.0
  0
LINE
  5
50
330
2A
100
AcDbEntity
  8
0
 62
     5
100
AcDbLine
 10
-11.5
 20
-117.26
 30
0.0
 11
-11.5
 21
-23.76
 31
0.0
  0
LINE
  5
51
330
2A
100
AcDbEntity
  8
0
 62
     5
100
AcDbLine
 10
11.5
 20
-117.26
 30
0.0
 11
11.5
 21
-23.76
 31
0.0
  0
LINE
  5
52
330
2A
100
AcDbEntity
  8
0
 62
     5
100
AcDbLine
 10
-17.5
 20
-115.26
 30
0.0
 11
-11.5
 21
-115.26
 31
0.0
  0
LINE
  5
53
330
2A
100
AcDbEntity
  8
0
 62
     5
100
AcDbLine
 10
5.25
 20
-108.0
 30
0.0
 11
5.25
 21
-73.0
 31
0.0
  0
LINE
  5
54
330
2A
100
AcDbEntity
  8
0
 62
     5
100
AcDbLine
 10
-5.25
 20
-108.0
 30
0.0
 11
-5.25
 21
-73.0
 31
0.0
  0
ARC
  5
55
330
2A
100
AcDbEntity
  8
0
 62
     5
100
AcDbCircle
 10
0.0
 20
-108.00999
 30
0.0
 40
5.25001
100
AcDbArc
 50
179.890969
 51
0.109031
  0
ARC
  5
56
330
2A
100
AcDbEntity
  8
0
 62
     5
100
AcDbCircle
 10
0.0
 20
-72.99001
 30
0.0
 40
5.25001
100
AcDbArc
 50
359.890969
 51
180.109031
  0
LINE
  5
57
330
2A
100
AcDbEntity
  8
0
 62
     5
100
AcDbLine
 10
11.5
 20
-115.26
 30
0.0
 11
17.5
 21
-115.26
 31
0.0
  0
LINE
  5
58
330
2A
100
AcDbEntity
  8
0
 62
     5
100
AcDbLine
 10
17.5
 20
-49.76
 30
0.0
 11
20.5
 21
-49.76
 31
0.0
  0
ARC
  5
59
330
2A
100
AcDbEntity
  8
0
 62
     5
100
AcDbCircle
 10
0.0
 20
0.0
 30
0.0
 40
7.0
100
AcDbArc
 50
106.60155
 51
73.39845
  0
LINE
  5
5A
330
2A
100
AcDbEntity
  8
0
 62
     5
100
AcDbLine
 10
2.0
 20
6.708203999999999
 30
0.0
 11
2.0
 21
30.74
 31
0.0
  0
LINE
  5
5B
330
2A
100
AcDbEntity
  8
0
 62
     5
100
AcDbLine
 10
-2.0
 20
6.708203999999999
 30
0.0
 11
-2.0
 21
30.74
 31
0.0
  0
LINE
  5
5C
330
2A
100
AcDbEntity
  8
0
 62
     5
100
AcDbLine
 10
2.0
 20
30.74
 30
0.0
 11
15.5
 21
30.74
 31
0.0
  0
LINE
  5
5D
330
2A
100
AcDbEntity
  8
0
 62
     5
100
AcDbLine
 10
-11.5
 20
-60.76
 30
0.0
 11
11.5
 21
-60.76
 31
0.0
  0
LINE
  5
5E
330
2A
100
AcDbEntity
  8
0
 62
     5
100
AcDbLine
 10
-17.5
 20
-42.26
 30
0.0
 11
-11.5
 21
-42.26
 31
0.0
  0
LINE
  5
5F
330
2A
100
AcDbEntity
  8
0
 62
     5
100
AcDbLine
 10
11.5
 20
-42.26
 30
0.0
 11
17.5
 21
-42.26
 31
0.0
  0
LINE
  5
60
330
2A
100
AcDbEntity
  8
0
 62
     5
100
AcDbLine
 10
-11.5
 20
-28.76
 30
0.0
 11
11.5
 21
-28.76
 31
0.0
  0
ARC
  5
61
330
2A
100
AcDbEntity
  8
0
 62
     5
100
AcDbCircle
 10
15.5
 20
28.74
 30
0.0
 40
2.0
100
AcDbArc
 50
0.0
 51
90.0
  0
ARC
  5
62
330
2A
100
AcDbEntity
  8
0
 62
     5
100
AcDbCircle
 10
-15.5
 20
28.74
 30
0.0
 40
2.0
100
AcDbArc
 50
90.0
 51
180.0
  0
ARC
  5
63
330
2A
100
AcDbEntity
  8
0
 62
     5
100
AcDbCircle
 10
-20.5
 20
-51.76
 30
0.0
 40
2.0
100
AcDbArc
 50
90.0
 51
180.0
  0
ARC
  5
64
330
2A
100
AcDbEntity
  8
0
 62
     5
100
AcDbCircle
 10
-20.5
 20
-121.26
 30
0.0
 40
2.0
100
AcDbArc
 50
180.0
 51
270.0
  0
ARC
  5
65
330
2A
100
AcDbEntity
  8
0
 62
     5
100
AcDbCircle
 10
20.5
 20
-121.26
 30
0.0
 40
2.0
100
AcDbArc
 50
270.0
 51
0.0
  0
ARC
  5
66
330
2A
100
AcDbEntity
  8
0
 62
     5
100
AcDbCircle
 10
20.5
 20
-51.76
 30
0.0
 40
2.0
100
AcDbArc
 50
0.0
 51
90.0
  0
ENDBLK
  5
67
330
2A
100
AcDbEntity
  8
0
100
AcDbBlockEnd
  0
BLOCK
  5
69
330
68
100
AcDbEntity
  8
0
100
AcDbBlockBegin
  2
88BB
 70
     0
 71
     0
 10
0.0
 20
0.0
 30
0.0
  3
88BB
  1

  0
LINE
  5
6A
330
68
100
AcDbEntity
  8
0
 62
     5
100
AcDbLine
 10
8.0
 20
12.907378
 30
0.0
 11
8.0
 21
-12.774612
 31
0.0
  0
LINE
  5
6B
330
68
100
AcDbEntity
  8
0
 62
     5
100
AcDbLine
 10
12.0
 20
12.907378
 30
0.0
 11
12.0
 21
-12.774612
 31
0.0
  0
CIRCLE
  5
6C
330
68
100
AcDbEntity
  8
0
 62
     5
100
AcDbCircle
 10
10.0
 20
18.325
 30
0.0
 40
5.775
  0
LINE
  5
6D
330
68
100
AcDbEntity
  8
0
 62
     5
100
AcDbLine
 10
8.0
 20
-12.774612
 30
0.0
 11
12.0
 21
-12.774612
 31
0.0
  0
INSERT
  5
6F
330
68
100
AcDbEntity
  8
0
 62
     5
100
AcDbBlockReference
  2
81BB
 10
0.5
 20
0.5
 30
0.0
  0
ENDBLK
  5
70
330
68
100
AcDbEntity
  8
0
100
AcDbBlockEnd
  0
BLOCK
  5
71
330
6E
100
AcDbEntity
  8
0
100
AcDbBlockBegin
  2
81BB
 70
     0
 71
     0
 10
0.0
 20
0.0
 30
0.0
  3
81BB
  1

  0
ARC
  5
72
330
6E
100
AcDbEntity
  8
0
 62
     5
100
AcDbCircle
 10
15.5
 20
-42.338592
 30
0.0
 40
4.0
100
AcDbArc
 50
341.221967
 51
0.0
  0
ARC
  5
73
330
6E
100
AcDbEntity
  8
0
 62
     5
100
AcDbCircle
 10
-4.5
 20
-16.831619
 30
0.0
 40
4.0
100
AcDbArc
 50
322.261441
 51
0.0
  0
ARC
  5
74
330
6E
100
AcDbEntity
  8
0
 62
     5
100
AcDbCircle
 10
-8.864879
 20
-114.0
 30
0.0
 40
4.0
100
AcDbArc
 50
270.0
 51
341.221967
  0
LINE
  5
75
330
6E
100
AcDbEntity
  8
0
  6
HIDDEN
 62
     5
100
AcDbLine
 10
-0.5
 20
6.26
 30
0.0
 11
19.5
 21
6.26
 31
0.0
  0
LINE
  5
76
330
6E
100
AcDbEntity
  8
0
  6
HIDDEN
 62
     5
100
AcDbLine
 10
-0.5
 20
-7.74
 30
0.0
 11
19.5
 21
-7.74
 31
0.0
  0
LINE
  5
77
330
6E
100
AcDbEntity
  8
0
  6
HIDDEN
 62
     5
100
AcDbLine
 10
-25.5
 20
-114.0
 30
0.0
 11
-12.5
 21
-114.0
 31
0.0
  0
LINE
  5
78
330
6E
100
AcDbEntity
  8
0
  6
HIDDEN
 62
     5
100
AcDbLine
 10
-25.5
 20
-68.48
 30
0.0
 11
-12.5
 21
-68.48
 31
0.0
  0
LINE
  5
79
330
6E
100
AcDbEntity
  8
0
 62
     5
100
AcDbLine
 10
-25.5
 20
-50.5
 30
0.0
 11
-12.5
 21
-50.5
 31
0.0
  0
LINE
  5
7A
330
6E
100
AcDbEntity
  8
0
 62
     5
100
AcDbLine
 10
-8.864879
 20
-118.0
 30
0.0
 11
-12.5
 21
-118.0
 31
0.0
  0
LINE
  5
7B
330
6E
100
AcDbEntity
  8
0
 62
     5
100
AcDbLine
 10
-1.336753
 20
-19.279857
 30
0.0
 11
-25.5
 21
-50.5
 31
0.0
  0
LINE
  5
7C
330
6E
100
AcDbEntity
  8
0
 62
     5
100
AcDbLine
 10
19.287091
 20
-43.626203
 30
0.0
 11
-5.077788
 21
-115.287611
 31
0.0
  0
LINE
  5
7D
330
6E
100
AcDbEntity
  8
0
 62
     5
100
AcDbLine
 10
-28.5
 20
-54.5
 30
0.0
 11
-25.5
 21
-54.5
 31
0.0
  0
LINE
  5
7E
330
6E
100
AcDbEntity
  8
0
 62
     5
100
AcDbLine
 10
-28.5
 20
-54.5
 30
0.0
 11
-28.5
 21
-50.5
 31
0.0
  0
LINE
  5
7F
330
6E
100
AcDbEntity
  8
0
 62
     5
100
AcDbLine
 10
-28.5
 20
-50.5
 30
0.0
 11
-25.5
 21
-50.5
 31
0.0
  0
LINE
  5
80
330
6E
100
AcDbEntity
  8
0
 62
     5
100
AcDbLine
 10
-12.5
 20
-124.0
 30
0.0
 11
-12.5
 21
-50.5
 31
0.0
  0
LINE
  5
81
330
6E
100
AcDbEntity
  8
0
 62
     5
100
AcDbLine
 10
-0.5
 20
30.0
 30
0.0
 11
19.5
 21
30.0
 31
0.0
  0
LINE
  5
82
330
6E
100
AcDbEntity
  8
0
 62
     5
100
AcDbLine
 10
-0.5
 20
-16.831619
 30
0.0
 11
-0.5
 21
30.0
 31
0.0
  0
LINE
  5
83
330
6E
100
AcDbEntity
  8
0
 62
     5
100
AcDbLine
 10
19.5
 20
-42.338592
 30
0.0
 11
19.5
 21
30.0
 31
0.0
  0
LINE
  5
84
330
6E
100
AcDbEntity
  8
0
 62
     5
100
AcDbLine
 10
-25.5
 20
-124.0
 30
0.0
 11
-25.5
 21
-54.5
 31
0.0
  0
LINE
  5
85
330
6E
100
AcDbEntity
  8
0
 62
     5
100
AcDbLine
 10
-12.5
 20
-124.0
 30
0.0
 11
-25.5
 21
-124.0
 31
0.0
  0
ENDBLK
  5
86
330
6E
100
AcDbEntity
  8
0
100
AcDbBlockEnd
  0
BLOCK
  5
88
330
87
100
AcDbEntity
  8
0
100
AcDbBlockBegin
  2
88CC
 70
     0
 71
     0
 10
0.0
 20
0.0
 30
0.0
  3
88CC
  1

  0
LINE
  5
89
330
87
100
AcDbEntity
  8
0
 62
     5
100
AcDbLine
 10
18.7
 20
-3.9
 30
0.0
 11
35.15
 21
-3.9
 31
0.0
  0
LINE
  5
8A
330
87
100
AcDbEntity
  8
0
 62
     5
100
AcDbLine
 10
35.15
 20
-3.9
 30
0.0
 11
35.15
 21
-15.45
 31
0.0
  0
LINE
  5
8B
330
87
100
AcDbEntity
  8
0
 62
     5
100
AcDbLine
 10
35.15
 20
-15.45
 30
0.0
 11
18.7
 21
-15.45
 31
0.0
  0
LINE
  5
8C
330
87
100
AcDbEntity
  8
0
 62
     5
100
AcDbLine
 10
18.7
 20
-15.45
 30
0.0
 11
18.7
 21
-3.9
 31
0.0
  0
LINE
  5
8D
330
87
100
AcDbEntity
  8
0
 62
     5
100
AcDbLine
 10
17.65
 20
-5.3
 30
0.0
 11
18.7
 21
-5.3
 31
0.0
  0
LINE
  5
8E
330
87
100
AcDbEntity
  8
0
 62
     5
100
AcDbLine
 10
18.7
 20
-14.05
 30
0.0
 11
17.65
 21
-14.05
 31
0.0
  0
LINE
  5
8F
330
87
100
AcDbEntity
  8
0
 62
     5
100
AcDbLine
 10
33.4
 20
-4.6
 30
0.0
 11
33.4
 21
-14.75
 31
0.0
  0
LINE
  5
90
330
87
100
AcDbEntity
  8
0
 62
     5
100
AcDbLine
 10
32.0
 20
-4.6
 30
0.0
 11
32.0
 21
-14.75
 31
0.0
  0
LINE
  5
91
330
87
100
AcDbEntity
  8
0
 62
     5
100
AcDbLine
 10
30.6
 20
-4.6
 30
0.0
 11
30.6
 21
-14.75
 31
0.0
  0
LINE
  5
92
330
87
100
AcDbEntity
  8
0
 62
     5
100
AcDbLine
 10
29.2
 20
-4.6
 30
0.0
 11
29.2
 21
-14.75
 31
0.0
  0
LINE
  5
93
330
87
100
AcDbEntity
  8
0
 62
     5
100
AcDbLine
 10
27.8
 20
-4.6
 30
0.0
 11
27.8
 21
-14.75
 31
0.0
  0
INSERT
  5
95
330
87
100
AcDbEntity
  8
0
 62
     5
100
AcDbBlockReference
  2
81CC
 10
0.0
 20
0.0
 30
0.0
  0
ENDBLK
  5
96
330
87
100
AcDbEntity
  8
0
100
AcDbBlockEnd
  0
BLOCK
  5
97
330
94
100
AcDbEntity
  8
0
100
AcDbBlockBegin
  2
81CC
 70
     0
 71
     0
 10
0.0
 20
0.0
 30
0.0
  3
81CC
  1

  0
LINE
  5
98
330
94
100
AcDbEntity
  8
0
  6
HIDDEN
 62
     5
100
AcDbLine
 10
7.0
 20
0.0
 30
0.0
 11
7.0
 21
-20.0
 31
0.0
  0
LINE
  5
99
330
94
100
AcDbEntity
  8
0
  6
HIDDEN
 62
     5
100
AcDbLine
 10
-7.0
 20
0.0
 30
0.0
 11
-7.0
 21
-20.0
 31
0.0
  0
LINE
  5
9A
330
94
100
AcDbEntity
  8
0
 62
     5
100
AcDbLine
 10
22.5
 20
28.0
 30
0.0
 11
22.5
 21
11.0
 31
0.0
  0
LINE
  5
9B
330
94
100
AcDbEntity
  8
0
 62
     5
100
AcDbLine
 10
-22.5
 20
28.0
 30
0.0
 11
-22.5
 21
11.0
 31
0.0
  0
LINE
  5
9C
330
94
100
AcDbEntity
  8
0
 62
     5
100
AcDbLine
 10
-22.5
 20
28.0
 30
0.0
 11
22.5
 21
28.0
 31
0.0
  0
LINE
  5
9D
330
94
100
AcDbEntity
  8
0
 62
     5
100
AcDbLine
 10
-1.0
 20
0.0
 30
0.0
 11
-1.0
 21
-20.0
 31
0.0
  0
LINE
  5
9E
330
94
100
AcDbEntity
  8
0
 62
     5
100
AcDbLine
 10
1.0
 20
0.0
 30
0.0
 11
1.0
 21
-20.0
 31
0.0
  0
LINE
  5
9F
330
94
100
AcDbEntity
  8
0
 62
     5
100
AcDbLine
 10
-17.5
 20
0.0
 30
0.0
 11
17.5
 21
0.0
 31
0.0
  0
LINE
  5
A0
330
94
100
AcDbEntity
  8
0
 62
     5
100
AcDbLine
 10
17.5
 20
11.0
 30
0.0
 11
17.5
 21
-20.0
 31
0.0
  0
LINE
  5
A1
330
94
100
AcDbEntity
  8
0
 62
     5
100
AcDbLine
 10
11.5
 20
11.0
 30
0.0
 11
11.5
 21
0.0
 31
0.0
  0
LINE
  5
A2
330
94
100
AcDbEntity
  8
0
 62
     5
100
AcDbLine
 10
-11.5
 20
11.0
 30
0.0
 11
-11.5
 21
0.0
 31
0.0
  0
LINE
  5
A3
330
94
100
AcDbEntity
  8
0
 62
     5
100
AcDbLine
 10
-17.5
 20
11.0
 30
0.0
 11
-17.5
 21
-20.0
 31
0.0
  0
LINE
  5
A4
330
94
100
AcDbEntity
  8
0
 62
     5
100
AcDbLine
 10
-22.5
 20
11.0
 30
0.0
 11
22.5
 21
11.0
 31
0.0
  0
LINE
  5
A5
330
94
100
AcDbEntity
  8
0
 62
     5
100
AcDbLine
 10
-17.5
 20
-20.0
 30
0.0
 11
17.5
 21
-20.0
 31
0.0
  0
ENDBLK
  5
A6
330
94
100
AcDbEntity
  8
0
100
AcDbBlockEnd
  0
ENDSEC
  0
SECTION
  2
ENTITIES
  0
INSERT
  5
A7
330
18
100
AcDbEntity
  8
0
100
AcDbBlockReference
  2
88AA
 10
0.0
 20
0.0
 30
0.0
  0
INSERT
  5
A8
330
18
100
AcDbEntity
  8
0
100
AcDbBlockReference
  2
88BB
 10
130.0
 20
0.0
 30
0.0
  0
INSERT
  5
A9
330
18
100
AcDbEntity
  8
0
100
AcDbBlockReference
  2
88CC
 10
0.0
 20
-180.0
 30
0.0
  0
ENDSEC
  0
SECTION
  2
OBJECTS
  0
DICTIONARY
  5
C
330
0
100
AcDbDictionary
  3
ACAD_GROUP
350
D
  3
ACAD_LAYOUT
350
AC
  3
ACAD_MLINESTYLE
350
1B
  3
ACDBHEADERROUNDTRIPXREC
350
AF
  0
DICTIONARY
  5
CE
330
AB
100
AcDbDictionary
280
     1
  3
ACAD_XREC_ROUNDTRIP
360
CF
  0
DICTIONARY
  5
D
102
{ACAD_REACTORS
330
C
102
}
330
C
100
AcDbDictionary
  0
DICTIONARY
  5
AC
102
{ACAD_REACTORS
330
C
102
}
330
C
100
AcDbDictionary
  0
DICTIONARY
  5
1B
102
{ACAD_REACTORS
330
C
102
}
330
C
100
AcDbDictionary
  3
STANDARD
350
1C
  0
DICTIONARY
  5
AF
102
{ACAD_REACTORS
330
C
102
}
330
C
100
AcDbDictionary
  3
CEPSNTYPE
350
B7
  3
DIMSTYLEDATA
350
CD
  3
FINGERPRINTGUID
350
B8
  3
HYPERLINKBASE
350
B2
  3
INSUNITS
350
B6
  3
LAYOUTDICT
350
B4
  3
LWETCUNION
350
B5
  3
PSVPSCALE
350
BA
  3
PUCSBASE
350
BD
  3
PUCSORGBACK
350
C3
  3
PUCSORGBOTTOM
350
BF
  3
PUCSORGFRONT
350
C2
  3
PUCSORGLEFT
350
C0
  3
PUCSORGRIGHT
350
C1
  3
PUCSORGTOP
350
BE
  3
PUCSORTHOREF
350
BB
  3
PUCSORTHOVIEW
350
BC
  3
STYLESHEET
350
B3
  3
TSTACKALIGN
350
B0
  3
TSTACKSIZE
350
B1
  3
UCSBASE
350
C6
  3
UCSORGBACK
350
CC
  3
UCSORGBOTTOM
350
C8
  3
UCSORGFRONT
350
CB
  3
UCSORGLEFT
350
C9
  3
UCSORGRIGHT
350
CA
  3
UCSORGTOP
350
C7
  3
UCSORTHOREF
350
C4
  3
UCSORTHOVIEW
350
C5
  3
VERSIONGUID
350
B9
  0
XRECORD
  5
CF
102
{ACAD_REACTORS
330
CE
102
}
330
CE
100
AcDbXrecord
102
UCS
 74
     0
 71
     1
 10
0.0
 20
0.0
 30
0.0
 10
1.0
 20
0.0
 30
0.0
 10
0.0
 20
1.0
 30
0.0
146
0.0
 79
     0
102
VIEW
281
     0
  0
MLINESTYLE
  5
1C
102
{ACAD_REACTORS
330
1B
102
}
330
1B
100
AcDbMlineStyle
  2
STANDARD
 70
     0
  3

 62
   256
 51
90.0
 52
90.0
 71
     2
 49
0.5
 62
   256
  6
BYLAYER
 49
-0.5
 62
   256
  6
BYLAYER
  0
XRECORD
  5
B7
102
{ACAD_REACTORS
330
AF
102
}
330
AF
100
AcDbXrecord
 90
        0
  0
XRECORD
  5
CD
102
{ACAD_REACTORS
330
AF
102
}
330
AF
100
AcDbXrecord
1000
DSTYLE
1002
{
1070
   340
340
F
1002
}
  0
XRECORD
  5
B8
102
{ACAD_REACTORS
330
AF
102
}
330
AF
100
AcDbXrecord
  1
{FAEB1C30-E019-11D5-929B-00C0DF256EC4}
  0
XRECORD
  5
B2
102
{ACAD_REACTORS
330
AF
102
}
330
AF
100
AcDbXrecord
  1

  0
XRECORD
  5
B6
102
{ACAD_REACTORS
330
AF
102
}
330
AF
100
AcDbXrecord
 90
        0
  0
XRECORD
  5
B4
102
{ACAD_REACTORS
330
AF
102
}
330
AF
100
AcDbXrecord
340
AC
  0
XRECORD
  5
B5
102
{ACAD_REACTORS
330
AF
102
}
330
AF
100
AcDbXrecord
 90
    10781
  0
XRECORD
  5
BA
102
{ACAD_REACTORS
330
AF
102
}
330
AF
100
AcDbXrecord
 40
0.0
  0
XRECORD
  5
BD
102
{ACAD_REACTORS
330
AF
102
}
330
AF
100
AcDbXrecord
340
0
  0
XRECORD
  5
C3
102
{ACAD_REACTORS
330
AF
102
}
330
AF
100
AcDbXrecord
 10
0.0
 20
0.0
 30
0.0
  0
XRECORD
  5
BF
102
{ACAD_REACTORS
330
AF
102
}
330
AF
100
AcDbXrecord
 10
0.0
 20
0.0
 30
0.0
  0
XRECORD
  5
C2
102
{ACAD_REACTORS
330
AF
102
}
330
AF
100
AcDbXrecord
 10
0.0
 20
0.0
 30
0.0
  0
XRECORD
  5
C0
102
{ACAD_REACTORS
330
AF
102
}
330
AF
100
AcDbXrecord
 10
0.0
 20
0.0
 30
0.0
  0
XRECORD
  5
C1
102
{ACAD_REACTORS
330
AF
102
}
330
AF
100
AcDbXrecord
 10
0.0
 20
0.0
 30
0.0
  0
XRECORD
  5
BE
102
{ACAD_REACTORS
330
AF
102
}
330
AF
100
AcDbXrecord
 10
0.0
 20
0.0
 30
0.0
  0
XRECORD
  5
BB
102
{ACAD_REACTORS
330
AF
102
}
330
AF
100
AcDbXrecord
340
0
  0
XRECORD
  5
BC
102
{ACAD_REACTORS
330
AF
102
}
330
AF
100
AcDbXrecord
 70
     0
  0
XRECORD
  5
B3
102
{ACAD_REACTORS
330
AF
102
}
330
AF
100
AcDbXrecord
  1

  0
XRECORD
  5
B0
102
{ACAD_REACTORS
330
AF
102
}
330
AF
100
AcDbXrecord
 90
        1
  0
XRECORD
  5
B1
102
{ACAD_REACTORS
330
AF
102
}
330
AF
100
AcDbXrecord
 90
       70
  0
XRECORD
  5
C6
102
{ACAD_REACTORS
330
AF
102
}
330
AF
100
AcDbXrecord
340
0
  0
XRECORD
  5
CC
102
{ACAD_REACTORS
330
AF
102
}
330
AF
100
AcDbXrecord
 10
0.0
 20
0.0
 30
0.0
  0
XRECORD
  5
C8
102
{ACAD_REACTORS
330
AF
102
}
330
AF
100
AcDbXrecord
 10
0.0
 20
0.0
 30
0.0
  0
XRECORD
  5
CB
102
{ACAD_REACTORS
330
AF
102
}
330
AF
100
AcDbXrecord
 10
0.0
 20
0.0
 30
0.0
  0
XRECORD
  5
C9
102
{ACAD_REACTORS
330
AF
102
}
330
AF
100
AcDbXrecord
 10
0.0
 20
0.0
 30
0.0
  0
XRECORD
  5
CA
102
{ACAD_REACTORS
330
AF
102
}
330
AF
100
AcDbXrecord
 10
0.0
 20
0.0
 30
0.0
  0
XRECORD
  5
C7
102
{ACAD_REACTORS
330
AF
102
}
330
AF
100
AcDbXrecord
 10
0.0
 20
0.0
 30
0.0
  0
XRECORD
  5
C4
102
{ACAD_REACTORS
330
AF
102
}
330
AF
100
AcDbXrecord
340
0
  0
XRECORD
  5
C5
102
{ACAD_REACTORS
330
AF
102
}
330
AF
100
AcDbXrecord
 70
     0
  0
XRECORD
  5
B9
102
{ACAD_REACTORS
330
AF
102
}
330
AF
100
AcDbXrecord
  1
{FAEB1C32-E019-11D5-929B-00C0DF256EC4}
  0
ENDSEC
  0
EOF
