  0
SECTION
  2
HEADER
  9
$ACADVER
  1
AC1009
  9
$DWGCODEPAGE
  3
ansi_1252
  9
$INSBASE
 10
0.0
 20
0.0
 30
0.0
  9
$EXTMIN
 10
-86.25
 20
-125.20678
 30
0.0
  9
$EXTMAX
 10
86.25
 20
125.20678
 30
0.0
  9
$LIMMIN
 10
0.0
 20
0.0
  9
$LIMMAX
 10
12.0
 20
9.0
  9
$ORTHOMODE
 70
     0
  9
$REGENMODE
 70
     1
  9
$FILLMODE
 70
     1
  9
$QTEXTMODE
 70
     0
  9
$MIRRTEXT
 70
     1
  9
$DRAGMODE
 70
     2
  9
$LTSCALE
 40
0.908878
  9
$OSMODE
 70
    37
  9
$ATTMODE
 70
     1
  9
$TEXTSIZE
 40
0.2
  9
$TRACEWID
 40
0.05
  9
$TEXTSTYLE
  7
STANDARD
  9
$CLAYER
  8
0
  9
$CELTYPE
  6
BYBLOCK
  9
$CECOLOR
 62
   256
  9
$DIMSCALE
 40
1.0
  9
$DIMASZ
 40
0.18
  9
$DIMEXO
 40
0.0625
  9
$DIMDLI
 40
0.38
  9
$DIMRND
 40
0.0
  9
$DIMDLE
 40
0.0
  9
$DIMEXE
 40
0.18
  9
$DIMTP
 40
0.0
  9
$DIMTM
 40
0.0
  9
$DIMTXT
 40
0.18
  9
$DIMCEN
 40
0.09
  9
$DIMTSZ
 40
0.0
  9
$DIMTOL
 70
     0
  9
$DIMLIM
 70
     0
  9
$DIMTIH
 70
     1
  9
$DIMTOH
 70
     1
  9
$DIMSE1
 70
     0
  9
$DIMSE2
 70
     0
  9
$DIMTAD
 70
     0
  9
$DIMZIN
 70
     0
  9
$DIMBLK
  1

  9
$DIMASO
 70
     1
  9
$DIMSHO
 70
     1
  9
$DIMPOST
  1

  9
$DIMAPOST
  1

  9
$DIMALT
 70
     0
  9
$DIMALTD
 70
     2
  9
$DIMALTF
 40
25.4
  9
$DIMLFAC
 40
1.0
  9
$DIMTOFL
 70
     0
  9
$DIMTVP
 40
0.0
  9
$DIMTIX
 70
     0
  9
$DIMSOXD
 70
     0
  9
$DIMSAH
 70
     0
  9
$DIMBLK1
  1

  9
$DIMBLK2
  1

  9
$DIMSTYLE
  2
STANDARD
  9
$DIMCLRD
 70
     0
  9
$DIMCLRE
 70
     0
  9
$DIMCLRT
 70
     0
  9
$DIMTFAC
 40
1.0
  9
$DIMGAP
 40
0.09
  9
$LUNITS
 70
     2
  9
$LUPREC
 70
     4
  9
$SKETCHINC
 40
0.1
  9
$FILLETRAD
 40
0.5
  9
$AUNITS
 70
     0
  9
$AUPREC
 70
     0
  9
$MENU
  1
.
  9
$ELEVATION
 40
0.0
  9
$PELEVATION
 40
0.0
  9
$THICKNESS
 40
0.0
  9
$LIMCHECK
 70
     0
  9
$CHAMFERA
 40
0.5
  9
$CHAMFERB
 40
0.5
  9
$SKPOLY
 70
     0
  9
$TDCREATE
 40
2453619.495695266
  9
$TDUPDATE
 40
2453619.495695278
  9
$TDINDWG
 40
0.0000000116
  9
$TDUSRTIMER
 40
0.0000000116
  9
$USRTIMER
 70
     1
  9
$ANGBASE
 50
0.0
  9
$ANGDIR
 70
     0
  9
$PDMODE
 70
     0
  9
$PDSIZE
 40
0.0
  9
$PLINEWID
 40
0.0
  9
$COORDS
 70
     1
  9
$SPLFRAME
 70
     0
  9
$SPLINETYPE
 70
     6
  9
$SPLINESEGS
 70
     8
  9
$ATTDIA
 70
     0
  9
$ATTREQ
 70
     1
  9
$HANDLING
 70
     1
  9
$HANDSEED
  5
1A0
  9
$SURFTAB1
 70
     6
  9
$SURFTAB2
 70
     6
  9
$SURFTYPE
 70
     6
  9
$SURFU
 70
     6
  9
$SURFV
 70
     6
  9
$UCSNAME
  2

  9
$UCSORG
 10
0.0
 20
0.0
 30
0.0
  9
$UCSXDIR
 10
1.0
 20
0.0
 30
0.0
  9
$UCSYDIR
 10
0.0
 20
1.0
 30
0.0
  9
$PUCSNAME
  2

  9
$PUCSORG
 10
0.0
 20
0.0
 30
0.0
  9
$PUCSXDIR
 10
1.0
 20
0.0
 30
0.0
  9
$PUCSYDIR
 10
0.0
 20
1.0
 30
0.0
  9
$USERI1
 70
     0
  9
$USERI2
 70
     0
  9
$USERI3
 70
     0
  9
$USERI4
 70
     0
  9
$USERI5
 70
     0
  9
$USERR1
 40
0.0
  9
$USERR2
 40
0.0
  9
$USERR3
 40
0.0
  9
$USERR4
 40
0.0
  9
$USERR5
 40
0.0
  9
$WORLDVIEW
 70
     1
  9
$SHADEDGE
 70
     3
  9
$SHADEDIF
 70
    70
  9
$TILEMODE
 70
     1
  9
$MAXACTVP
 70
    64
  9
$PLIMCHECK
 70
     0
  9
$PEXTMIN
 10
1.000000000000000E+20
 20
1.000000000000000E+20
 30
1.000000000000000E+20
  9
$PEXTMAX
 10
-1.000000000000000E+20
 20
-1.000000000000000E+20
 30
-1.000000000000000E+20
  9
$PLIMMIN
 10
0.0
 20
0.0
  9
$PLIMMAX
 10
12.0
 20
9.0
  9
$UNITMODE
 70
     0
  9
$VISRETAIN
 70
     1
  9
$PLINEGEN
 70
     0
  9
$PSLTSCALE
 70
     1
  0
ENDSEC
  0
SECTION
  2
TABLES
  0
TABLE
  2
VPORT
 70
     1
  0
VPORT
  2
*ACTIVE
 70
     0
 10
0.0
 20
0.0
 11
1.0
 21
1.0
 12
10.42990654205607
 22
4.5
 13
0.0
 23
0.0
 14
0.5
 24
0.5
 15
0.5
 25
0.5
 16
0.0
 26
0.0
 36
1.0
 17
0.0
 27
0.0
 37
0.0
 40
9.0
 41
1.972972972850329
 42
50.0
 43
0.0
 44
0.0
 50
0.0
 51
0.0
 71
     0
 72
   100
 73
     1
 74
     3
 75
     0
 76
     0
 77
     0
 78
     0
  0
ENDTAB
  0
TABLE
  2
LTYPE
 70
     9
  0
LTYPE
  2
CONTINUOUS
 70
     0
  3
Solid Line
 72
    65
 73
     0
 40
0.0
  0
LTYPE
  2
MCDASH1
 70
     0
  3
MiniCad+ Generated
 72
    65
 73
     2
 40
4.126104
 49
2.750607
 49
-1.375497
  0
LTYPE
  2
MCDASH2
 70
     0
  3
MiniCad+ Generated
 72
    65
 73
     2
 40
3.527692
 49
2.469229
 49
-1.058463
  0
LTYPE
  2
MCDASH3
 70
     0
  3
MiniCad+ Generated
 72
    65
 73
     2
 40
6.35
 49
5.291537
 49
-1.058463
  0
LTYPE
  2
MCDASH4
 70
     0
  3
MiniCad+ Generated
 72
    65
 73
     2
 40
7.760767
 49
6.702692
 49
-1.058075
  0
LTYPE
  2
MCDASH5
 70
     0
  3
MiniCad+ Generated
 72
    65
 73
     2
 40
1.058075
 49
0.352692
 49
-0.705383
  0
LTYPE
  2
MCDASH6
 70
     0
  3
MiniCad+ Generated
 72
    65
 73
     4
 40
5.291538
 49
3.175
 49
-1.058075
 49
0.352692
 49
-0.705771
  0
LTYPE
  2
MCDASH7
 70
     0
  3
MiniCad+ Generated
 72
    65
 73
     6
 40
9.525001
 49
3.175
 49
-1.058075
 49
3.175
 49
-1.058463
 49
0.352692
 49
-0.705771
  0
LTYPE
  2
MCDASH8
 70
     0
  3
MiniCad+ Generated
 72
    65
 73
     6
 40
6.350001000000001
 49
3.175
 49
-1.058075
 49
0.352692
 49
-0.705771
 49
0.352692
 49
-0.705771
  0
ENDTAB
  0
TABLE
  2
LAYER
 70
     4
  0
LAYER
  2
0
 70
     0
 62
     7
  6
CONTINUOUS
  0
LAYER
  2
PROFILI
 70
     0
 62
     7
  6
CONTINUOUS
  0
LAYER
  2
FISSAGGI
 70
     0
 62
     2
  6
CONTINUOUS
  0
LAYER
  2
PANNELLI
 70
     0
 62
     6
  6
CONTINUOUS
  0
ENDTAB
  0
TABLE
  2
STYLE
 70
     1
  0
STYLE
  2
STANDARD
 70
     0
 40
0.0
 41
1.0
 50
0.0
 71
     0
 42
0.2
  3
txt
  4

  0
ENDTAB
  0
TABLE
  2
VIEW
 70
     0
  0
ENDTAB
  0
TABLE
  2
UCS
 70
     0
  0
ENDTAB
  0
TABLE
  2
APPID
 70
     1
  0
APPID
  2
ACAD
 70
     0
  0
ENDTAB
  0
TABLE
  2
DIMSTYLE
 70
     1
  0
DIMSTYLE
  2
STANDARD
 70
     0
  3

  4

  5

  6

  7

 40
1.0
 41
0.18
 42
0.0625
 43
0.38
 44
0.18
 45
0.0
 46
0.0
 47
0.0
 48
0.0
140
0.18
141
0.09
142
0.0
143
25.4
144
1.0
145
0.0
146
1.0
147
0.09
 71
     0
 72
     0
 73
     1
 74
     1
 75
     0
 76
     0
 77
     0
 78
     0
170
     0
171
     2
172
     0
173
     0
174
     0
175
     0
176
     0
177
     0
178
     0
  0
ENDTAB
  0
ENDSEC
  0
SECTION
  2
BLOCKS
  0
BLOCK
  8
0
  2
$MODEL_SPACE
 70
     0
 10
0.0
 20
0.0
 30
0.0
  3
$MODEL_SPACE
  1

  0
ENDBLK
  5
19B
  8
0
  0
BLOCK
 67
     1
  8
0
  2
$PAPER_SPACE
 70
     0
 10
0.0
 20
0.0
 30
0.0
  3
$PAPER_SPACE
  1

  0
ENDBLK
  5
199
 67
     1
  8
0
  0
BLOCK
  8
0
  2
$ARROW1$
 70
     0
 10
0.0
 20
0.0
 30
0.0
  3
$ARROW1$
  1

  0
SOLID
  5
30
  8
0
 62
     0
 10
-25.4
 20
4.318
 30
0.0
 11
-25.4
 21
-4.318
 31
0.0
 12
0.0
 22
0.0
 32
0.0
 13
0.0
 23
0.0
 33
0.0
  0
ENDBLK
  5
180
  8
0
  0
BLOCK
  8
0
  2
$ARROW2$
 70
     0
 10
0.0
 20
0.0
 30
0.0
  3
$ARROW2$
  1

  0
SOLID
  5
34
  8
0
 62
     0
 10
-25.4
 20
12.7
 30
0.0
 11
-25.4
 21
-12.7
 31
0.0
 12
0.0
 22
0.0
 32
0.0
 13
0.0
 23
0.0
 33
0.0
  0
ENDBLK
  5
182
  8
0
  0
BLOCK
  8
0
  2
$ARROW3$
 70
     0
 10
0.0
 20
0.0
 30
0.0
  3
$ARROW3$
  1

  0
POLYLINE
  5
38
  8
0
  6
BYBLOCK
 62
     0
 66
     1
 10
0.0
 20
0.0
 30
0.0
 70
     1
 40
0.5
 41
0.5
  0
VERTEX
  5
10A
  8
0
  6
BYBLOCK
 62
     0
 10
-6.35
 20
0.0
 30
0.0
 42
1.0
  0
VERTEX
  5
10B
  8
0
  6
BYBLOCK
 62
     0
 10
6.35
 20
0.0
 30
0.0
 42
1.0
  0
SEQEND
  5
183
  8
0
  6
BYBLOCK
 62
     0
  0
ENDBLK
  5
185
  8
0
  0
BLOCK
  8
0
  2
$ARROW4$
 70
     0
 10
0.0
 20
0.0
 30
0.0
  3
$ARROW4$
  1

  0
LINE
  5
3F
  8
0
  6
BYBLOCK
 62
     0
 10
12.7
 20
12.7
 30
0.0
 11
-12.7
 21
-12.7
 31
0.0
  0
ENDBLK
  5
187
  8
0
  0
BLOCK
  8
0
  2
$ARROW5$
 70
     0
 10
0.0
 20
0.0
 30
0.0
  3
$ARROW5$
  1

  0
LINE
  5
43
  8
0
  6
BYBLOCK
 62
     0
 10
12.7
 20
12.7
 30
0.0
 11
-12.7
 21
-12.7
 31
0.0
  0
LINE
  5
44
  8
0
  6
BYBLOCK
 62
     0
 10
-12.7
 20
12.7
 30
0.0
 11
12.7
 21
-12.7
 31
0.0
  0
ENDBLK
  5
189
  8
0
  0
BLOCK
  8
0
  2
BORDER
 70
     0
 10
0.0
 20
0.0
 30
0.0
  3
BORDER
  1

  0
LINE
  5
48
  8
0
 62
     6
 10
0.0
 20
0.0
 30
0.0
 11
1.0
 21
0.0
 31
0.0
  0
LINE
  5
49
  8
0
 62
     6
 10
1.0
 20
0.0
 30
0.0
 11
1.0
 21
1.0
 31
0.0
  0
LINE
  5
4A
  8
0
 62
     6
 10
1.0
 20
1.0
 30
0.0
 11
0.0
 21
1.0
 31
0.0
  0
LINE
  5
4B
  8
0
 62
     6
 10
0.0
 20
1.0
 30
0.0
 11
0.0
 21
0.0
 31
0.0
  0
ENDBLK
  5
18B
  8
0
  0
BLOCK
  8
0
  2
88AA
 70
     0
 10
0.0
 20
0.0
 30
0.0
  3
88AA
  1

  0
LINE
  5
4F
  8
0
 62
     5
 10
27.8
 20
23.4
 30
0.0
 11
27.8
 21
13.25
 31
0.0
  0
LINE
  5
50
  8
0
 62
     5
 10
29.2
 20
23.4
 30
0.0
 11
29.2
 21
13.25
 31
0.0
  0
LINE
  5
51
  8
0
 62
     5
 10
30.6
 20
23.4
 30
0.0
 11
30.6
 21
13.25
 31
0.0
  0
LINE
  5
52
  8
0
 62
     5
 10
32.0
 20
23.4
 30
0.0
 11
32.0
 21
13.25
 31
0.0
  0
LINE
  5
53
  8
0
 62
     5
 10
33.4
 20
23.4
 30
0.0
 11
33.4
 21
13.25
 31
0.0
  0
POLYLINE
  5
54
  8
0
 62
     5
 66
     1
 10
0.0
 20
0.0
 30
0.0
  0
VERTEX
  5
10D
  8
0
 62
     5
 10
29.47611
 20
12.55
 30
0.0
  0
VERTEX
  5
10E
  8
0
 62
     5
 10
28.8951
 20
11.67848
 30
0.0
  0
VERTEX
  5
10F
  8
0
 62
     5
 10
37.6
 20
-11.25
 30
0.0
  0
VERTEX
  5
110
  8
0
 62
     5
 10
37.71084
 20
-11.53918
 30
0.0
  0
VERTEX
  5
111
  8
0
 62
     5
 10
37.77796
 20
-11.84153
 30
0.0
  0
VERTEX
  5
112
  8
0
 62
     5
 10
37.79987
 20
-12.15049
 30
0.0
  0
VERTEX
  5
113
  8
0
 62
     5
 10
37.7761
 20
-12.45929
 30
0.0
  0
VERTEX
  5
114
  8
0
 62
     5
 10
37.70718
 20
-12.76123
 30
0.0
  0
VERTEX
  5
115
  8
0
 62
     5
 10
37.59459
 20
-13.04977
 30
0.0
  0
VERTEX
  5
116
  8
0
 62
     5
 10
37.44079
 20
-13.31858
 30
0.0
  0
VERTEX
  5
117
  8
0
 62
     5
 10
37.24913
 20
-13.56186
 30
0.0
  0
VERTEX
  5
118
  8
0
 62
     5
 10
37.02375
 20
-13.77432
 30
0.0
  0
VERTEX
  5
119
  8
0
 62
     5
 10
36.76959
 20
-13.9513
 30
0.0
  0
VERTEX
  5
11A
  8
0
 62
     5
 10
36.49217
 20
-14.08898
 30
0.0
  0
VERTEX
  5
11B
  8
0
 62
     5
 10
36.19748
 20
-14.18436
 30
0.0
  0
VERTEX
  5
11C
  8
0
 62
     5
 10
36.19749
 20
-14.18437
 30
0.0
  0
VERTEX
  5
11D
  8
0
 62
     5
 10
30.1362
 20
-15.61254
 30
0.0
  0
VERTEX
  5
11E
  8
0
 62
     5
 10
29.82123
 20
-15.66439
 30
0.0
  0
VERTEX
  5
11F
  8
0
 62
     5
 10
29.50209
 20
-15.66791
 30
0.0
  0
VERTEX
  5
120
  8
0
 62
     5
 10
29.18606
 20
-15.62301
 30
0.0
  0
VERTEX
  5
121
  8
0
 62
     5
 10
28.88049
 20
-15.53074
 30
0.0
  0
VERTEX
  5
122
  8
0
 62
     5
 10
28.59243
 20
-15.39321
 30
0.0
  0
VERTEX
  5
123
  8
0
 62
     5
 10
28.59242
 20
-15.39321
 30
0.0
  0
VERTEX
  5
124
  8
0
 62
     5
 10
28.32855
 20
-15.21362
 30
0.0
  0
VERTEX
  5
125
  8
0
 62
     5
 10
28.09494
 20
-14.99612
 30
0.0
  0
VERTEX
  5
126
  8
0
 62
     5
 10
27.89699
 20
-14.74572
 30
0.0
  0
VERTEX
  5
127
  8
0
 62
     5
 10
27.73927
 20
-14.46822
 30
0.0
  0
VERTEX
  5
128
  8
0
 62
     5
 10
27.62543
 20
-14.17001
 30
0.0
  0
VERTEX
  5
129
  8
0
 62
     5
 10
27.62543
 20
-14.17
 30
0.0
  0
VERTEX
  5
12A
  8
0
 62
     5
 10
20.89059
 20
12.55
 30
0.0
  0
SEQEND
  5
18C
  8
0
 62
     5
  0
POLYLINE
  5
74
  8
0
 62
     5
 66
     1
 10
0.0
 20
0.0
 30
0.0
  0
VERTEX
  5
12C
  8
0
 62
     5
 10
32.0
 20
12.55
 30
0.0
  0
VERTEX
  5
12D
  8
0
 62
     5
 10
31.3
 20
11.5
 30
0.0
  0
VERTEX
  5
12E
  8
0
 62
     5
 10
40.0057
 20
-12.77461
 30
0.0
  0
VERTEX
  5
12F
  8
0
 62
     5
 10
40.11654
 20
-13.06379
 30
0.0
  0
VERTEX
  5
130
  8
0
 62
     5
 10
40.18366
 20
-13.36614
 30
0.0
  0
VERTEX
  5
131
  8
0
 62
     5
 10
40.20557
 20
-13.6751
 30
0.0
  0
VERTEX
  5
132
  8
0
 62
     5
 10
40.1818
 20
-13.9839
 30
0.0
  0
VERTEX
  5
133
  8
0
 62
     5
 10
40.11288
 20
-14.28584
 30
0.0
  0
VERTEX
  5
134
  8
0
 62
     5
 10
40.00029
 20
-14.57438
 30
0.0
  0
VERTEX
  5
135
  8
0
 62
     5
 10
39.84649
 20
-14.84319
 30
0.0
  0
VERTEX
  5
136
  8
0
 62
     5
 10
39.65483
 20
-15.08647
 30
0.0
  0
VERTEX
  5
137
  8
0
 62
     5
 10
39.42945
 20
-15.29893
 30
0.0
  0
VERTEX
  5
138
  8
0
 62
     5
 10
39.17529
 20
-15.47591
 30
0.0
  0
VERTEX
  5
139
  8
0
 62
     5
 10
38.89787
 20
-15.61359
 30
0.0
  0
VERTEX
  5
13A
  8
0
 62
     5
 10
38.60318
 20
-15.70897
 30
0.0
  0
VERTEX
  5
13B
  8
0
 62
     5
 10
38.60319
 20
-15.70898
 30
0.0
  0
VERTEX
  5
13C
  8
0
 62
     5
 10
28.6919
 20
-18.12637
 30
0.0
  0
VERTEX
  5
13D
  8
0
 62
     5
 10
28.37693
 20
-18.17822
 30
0.0
  0
VERTEX
  5
13E
  8
0
 62
     5
 10
28.05779
 20
-18.18174
 30
0.0
  0
VERTEX
  5
13F
  8
0
 62
     5
 10
27.74176
 20
-18.13684
 30
0.0
  0
VERTEX
  5
140
  8
0
 62
     5
 10
27.43619
 20
-18.04457
 30
0.0
  0
VERTEX
  5
141
  8
0
 62
     5
 10
27.14813
 20
-17.90704
 30
0.0
  0
VERTEX
  5
142
  8
0
 62
     5
 10
26.88424
 20
-17.72744
 30
0.0
  0
VERTEX
  5
143
  8
0
 62
     5
 10
26.65065
 20
-17.50996
 30
0.0
  0
VERTEX
  5
144
  8
0
 62
     5
 10
26.4527
 20
-17.25956
 30
0.0
  0
VERTEX
  5
145
  8
0
 62
     5
 10
26.29498
 20
-16.98204
 30
0.0
  0
VERTEX
  5
146
  8
0
 62
     5
 10
26.18114
 20
-16.68383
 30
0.0
  0
VERTEX
  5
147
  8
0
 62
     5
 10
18.7
 20
12.55
 30
0.0
  0
SEQEND
  5
18D
  8
0
 62
     5
  0
LINE
  5
92
  8
0
 62
     5
 10
18.7
 20
13.95
 30
0.0
 11
17.65
 21
13.95
 31
0.0
  0
LINE
  5
93
  8
0
 62
     5
 10
17.65
 20
22.7
 30
0.0
 11
18.7
 21
22.7
 31
0.0
  0
LINE
  5
94
  8
0
 62
     5
 10
18.7
 20
12.55
 30
0.0
 11
18.7
 21
24.1
 31
0.0
  0
LINE
  5
95
  8
0
 62
     5
 10
35.15
 20
12.55
 30
0.0
 11
18.7
 21
12.55
 31
0.0
  0
LINE
  5
96
  8
0
 62
     5
 10
35.15
 20
24.1
 30
0.0
 11
35.15
 21
12.55
 31
0.0
  0
LINE
  5
97
  8
0
 62
     5
 10
18.7
 20
24.1
 30
0.0
 11
35.15
 21
24.1
 31
0.0
  0
LINE
  5
98
  8
0
 62
     5
 10
-22.5
 20
-51.76
 30
0.0
 11
-22.5
 21
-121.26
 31
0.0
  0
LINE
  5
99
  8
0
 62
     5
 10
-20.5
 20
-123.26
 30
0.0
 11
20.5
 21
-123.26
 31
0.0
  0
LINE
  5
9A
  8
0
 62
     5
 10
-15.5
 20
30.74
 30
0.0
 11
-2.0
 21
30.74
 31
0.0
  0
LINE
  5
9B
  8
0
 62
     5
 10
22.5
 20
-51.76
 30
0.0
 11
22.5
 21
-121.26
 31
0.0
  0
LINE
  5
9C
  8
0
 62
     5
 10
17.5
 20
-117.26
 30
0.0
 11
17.5
 21
28.74
 31
0.0
  0
LINE
  5
9D
  8
0
 62
     5
 10
-17.5
 20
-117.26
 30
0.0
 11
-17.5
 21
28.74
 31
0.0
  0
LINE
  5
9E
  8
0
 62
     5
 10
-20.5
 20
-49.76
 30
0.0
 11
-17.5
 21
-49.76
 31
0.0
  0
LINE
  5
9F
  8
0
 62
     5
 10
-11.5
 20
-117.26
 30
0.0
 11
-11.5
 21
-23.76
 31
0.0
  0
LINE
  5
A0
  8
0
 62
     5
 10
11.5
 20
-117.26
 30
0.0
 11
11.5
 21
-23.76
 31
0.0
  0
LINE
  5
A1
  8
0
 62
     5
 10
-17.5
 20
-115.26
 30
0.0
 11
-11.5
 21
-115.26
 31
0.0
  0
LINE
  5
A2
  8
0
 62
     5
 10
5.25
 20
-108.0
 30
0.0
 11
5.25
 21
-73.0
 31
0.0
  0
LINE
  5
A3
  8
0
 62
     5
 10
-5.25
 20
-108.0
 30
0.0
 11
-5.25
 21
-73.0
 31
0.0
  0
ARC
  5
A4
  8
0
 62
     5
 10
0.0
 20
-108.00999
 30
0.0
 40
5.25001
 50
179.890961
 51
0.109024
  0
ARC
  5
A5
  8
0
 62
     5
 10
0.0
 20
-72.99001
 30
0.0
 40
5.25001
 50
359.890961
 51
180.109024
  0
LINE
  5
A6
  8
0
 62
     5
 10
11.5
 20
-115.26
 30
0.0
 11
17.5
 21
-115.26
 31
0.0
  0
LINE
  5
A7
  8
0
 62
     5
 10
17.5
 20
-49.76
 30
0.0
 11
20.5
 21
-49.76
 31
0.0
  0
ARC
  5
A8
  8
0
 62
     5
 10
0.0
 20
0.0
 30
0.0
 40
6.0
 50
109.471619
 51
70.528381
  0
LINE
  5
A9
  8
0
 62
     5
 10
2.0
 20
30.74
 30
0.0
 11
15.5
 21
30.74
 31
0.0
  0
LINE
  5
AA
  8
0
 62
     5
 10
-11.5
 20
-60.76
 30
0.0
 11
11.5
 21
-60.76
 31
0.0
  0
LINE
  5
AB
  8
0
 62
     5
 10
-17.5
 20
-42.26
 30
0.0
 11
-11.5
 21
-42.26
 31
0.0
  0
LINE
  5
AC
  8
0
 62
     5
 10
11.5
 20
-42.26
 30
0.0
 11
17.5
 21
-42.26
 31
0.0
  0
LINE
  5
AD
  8
0
 62
     5
 10
-11.5
 20
-28.76
 30
0.0
 11
11.5
 21
-28.76
 31
0.0
  0
ARC
  5
AE
  8
0
 62
     5
 10
15.5
 20
28.74
 30
0.0
 40
2.0
 50
0.0
 51
90.0
  0
ARC
  5
AF
  8
0
 62
     5
 10
-15.5
 20
28.74
 30
0.0
 40
2.0
 50
90.0
 51
180.0
  0
ARC
  5
B0
  8
0
 62
     5
 10
-20.5
 20
-51.76
 30
0.0
 40
2.0
 50
90.0
 51
180.0
  0
ARC
  5
B1
  8
0
 62
     5
 10
-20.5
 20
-121.26
 30
0.0
 40
2.0
 50
180.0
 51
270.0
  0
ARC
  5
B2
  8
0
 62
     5
 10
20.5
 20
-121.26
 30
0.0
 40
2.0
 50
270.0
 51
0.0
  0
ARC
  5
B3
  8
0
 62
     5
 10
20.5
 20
-51.76
 30
0.0
 40
2.0
 50
0.0
 51
90.0
  0
LINE
  5
B4
  8
0
 62
     5
 10
-2.0
 20
5.65685
 30
0.0
 11
-2.0
 21
30.74
 31
0.0
  0
LINE
  5
B5
  8
0
 62
     5
 10
2.0
 20
5.65685
 30
0.0
 11
2.0
 21
30.74
 31
0.0
  0
ENDBLK
  5
18F
  8
0
  0
BLOCK
  8
0
  2
88BB
 70
     0
 10
0.0
 20
0.0
 30
0.0
  3
88BB
  1

  0
LINE
  5
B9
  8
0
 62
     5
 10
8.0
 20
12.90738
 30
0.0
 11
8.0
 21
-12.77461
 31
0.0
  0
LINE
  5
BA
  8
0
 62
     5
 10
12.0
 20
12.90738
 30
0.0
 11
12.0
 21
-12.77461
 31
0.0
  0
CIRCLE
  5
BB
  8
0
 62
     5
 10
10.0
 20
18.325
 30
0.0
 40
5.775
  0
LINE
  5
BC
  8
0
 62
     5
 10
8.0
 20
-12.77461
 30
0.0
 11
12.0
 21
-12.77461
 31
0.0
  0
INSERT
  5
BD
  8
0
  2
81BB
 10
0.5
 20
0.5
 30
0.0
  0
ENDBLK
  5
191
  8
0
  0
BLOCK
  8
0
  2
81BB
 70
     0
 10
0.0
 20
0.0
 30
0.0
  3
81BB
  1

  0
ARC
  5
C1
  8
0
 62
     5
 10
15.5
 20
-42.33859
 30
0.0
 40
4.0
 50
341.22197
 51
0.0
  0
ARC
  5
C2
  8
0
 62
     5
 10
-4.5
 20
-16.83162
 30
0.0
 40
4.0
 50
322.261444
 51
0.0
  0
ARC
  5
C3
  8
0
 62
     5
 10
-8.864879999999999
 20
-114.0
 30
0.0
 40
4.0
 50
270.0
 51
341.22197
  0
LINE
  5
C4
  8
0
  6
MCDASH1
 10
-0.5
 20
5.26
 30
0.0
 11
19.5
 21
5.26
 31
0.0
  0
LINE
  5
C5
  8
0
  6
MCDASH1
 10
-0.5
 20
-6.74
 30
0.0
 11
19.5
 21
-6.74
 31
0.0
  0
LINE
  5
C6
  8
0
  6
MCDASH1
 10
-25.5
 20
-114.0
 30
0.0
 11
-12.5
 21
-114.0
 31
0.0
  0
LINE
  5
C7
  8
0
  6
MCDASH1
 10
-25.5
 20
-68.48
 30
0.0
 11
-12.5
 21
-68.48
 31
0.0
  0
LINE
  5
C8
  8
0
 62
     5
 10
-25.5
 20
-50.5
 30
0.0
 11
-12.5
 21
-50.5
 31
0.0
  0
LINE
  5
C9
  8
0
 62
     5
 10
-8.864879999999999
 20
-118.0
 30
0.0
 11
-12.5
 21
-118.0
 31
0.0
  0
LINE
  5
CA
  8
0
 62
     5
 10
-1.33675
 20
-19.27986
 30
0.0
 11
-25.5
 21
-50.5
 31
0.0
  0
LINE
  5
CB
  8
0
 62
     5
 10
19.28709
 20
-43.6262
 30
0.0
 11
-5.07779
 21
-115.28761
 31
0.0
  0
LINE
  5
CC
  8
0
 62
     5
 10
-28.5
 20
-54.5
 30
0.0
 11
-25.5
 21
-54.5
 31
0.0
  0
LINE
  5
CD
  8
0
 62
     5
 10
-28.5
 20
-54.5
 30
0.0
 11
-28.5
 21
-50.5
 31
0.0
  0
LINE
  5
CE
  8
0
 62
     5
 10
-28.5
 20
-50.5
 30
0.0
 11
-25.5
 21
-50.5
 31
0.0
  0
LINE
  5
CF
  8
0
 62
     5
 10
-12.5
 20
-124.0
 30
0.0
 11
-12.5
 21
-50.5
 31
0.0
  0
LINE
  5
D0
  8
0
 62
     5
 10
-0.5
 20
30.0
 30
0.0
 11
19.5
 21
30.0
 31
0.0
  0
LINE
  5
D1
  8
0
 62
     5
 10
-0.5
 20
-16.83162
 30
0.0
 11
-0.5
 21
30.0
 31
0.0
  0
LINE
  5
D2
  8
0
 62
     5
 10
19.5
 20
-42.33859
 30
0.0
 11
19.5
 21
30.0
 31
0.0
  0
LINE
  5
D3
  8
0
 62
     5
 10
-25.5
 20
-124.0
 30
0.0
 11
-25.5
 21
-54.5
 31
0.0
  0
LINE
  5
D4
  8
0
 62
     5
 10
-12.5
 20
-124.0
 30
0.0
 11
-25.5
 21
-124.0
 31
0.0
  0
ENDBLK
  5
193
  8
0
  0
BLOCK
  8
0
  2
88CC
 70
     0
 10
0.0
 20
0.0
 30
0.0
  3
88CC
  1

  0
LINE
  5
D8
  8
0
 62
     5
 10
18.7
 20
-3.9
 30
0.0
 11
35.15
 21
-3.9
 31
0.0
  0
LINE
  5
D9
  8
0
 62
     5
 10
35.15
 20
-3.9
 30
0.0
 11
35.15
 21
-15.45
 31
0.0
  0
LINE
  5
DA
  8
0
 62
     5
 10
35.15
 20
-15.45
 30
0.0
 11
18.7
 21
-15.45
 31
0.0
  0
LINE
  5
DB
  8
0
 62
     5
 10
18.7
 20
-15.45
 30
0.0
 11
18.7
 21
-3.9
 31
0.0
  0
LINE
  5
DC
  8
0
 62
     5
 10
17.65
 20
-5.3
 30
0.0
 11
18.7
 21
-5.3
 31
0.0
  0
LINE
  5
DD
  8
0
 62
     5
 10
18.7
 20
-14.05
 30
0.0
 11
17.65
 21
-14.05
 31
0.0
  0
LINE
  5
DE
  8
0
 62
     5
 10
33.4
 20
-4.6
 30
0.0
 11
33.4
 21
-14.75
 31
0.0
  0
LINE
  5
DF
  8
0
 62
     5
 10
32.0
 20
-4.6
 30
0.0
 11
32.0
 21
-14.75
 31
0.0
  0
LINE
  5
E0
  8
0
 62
     5
 10
30.6
 20
-4.6
 30
0.0
 11
30.6
 21
-14.75
 31
0.0
  0
LINE
  5
E1
  8
0
 62
     5
 10
29.2
 20
-4.6
 30
0.0
 11
29.2
 21
-14.75
 31
0.0
  0
LINE
  5
E2
  8
0
 62
     5
 10
27.8
 20
-4.6
 30
0.0
 11
27.8
 21
-14.75
 31
0.0
  0
INSERT
  5
E3
  8
0
  2
81CC
 10
0.0
 20
0.0
 30
0.0
  0
ENDBLK
  5
195
  8
0
  0
BLOCK
  8
0
  2
81CC
 70
     0
 10
0.0
 20
0.0
 30
0.0
  3
81CC
  1

  0
LINE
  5
E7
  8
0
  6
MCDASH1
 10
6.0
 20
0.0
 30
0.0
 11
6.0
 21
-20.0
 31
0.0
  0
LINE
  5
E8
  8
0
  6
MCDASH1
 10
-6.0
 20
0.0
 30
0.0
 11
-6.0
 21
-20.0
 31
0.0
  0
LINE
  5
E9
  8
0
 62
     5
 10
22.5
 20
28.0
 30
0.0
 11
22.5
 21
11.0
 31
0.0
  0
LINE
  5
EA
  8
0
 62
     5
 10
-22.5
 20
28.0
 30
0.0
 11
-22.5
 21
11.0
 31
0.0
  0
LINE
  5
EB
  8
0
 62
     5
 10
-22.5
 20
28.0
 30
0.0
 11
22.5
 21
28.0
 31
0.0
  0
LINE
  5
EC
  8
0
 62
     5
 10
-1.0
 20
0.0
 30
0.0
 11
-1.0
 21
-20.0
 31
0.0
  0
LINE
  5
ED
  8
0
 62
     5
 10
1.0
 20
0.0
 30
0.0
 11
1.0
 21
-20.0
 31
0.0
  0
LINE
  5
EE
  8
0
 62
     5
 10
-17.5
 20
0.0
 30
0.0
 11
17.5
 21
0.0
 31
0.0
  0
LINE
  5
EF
  8
0
 62
     5
 10
17.5
 20
11.0
 30
0.0
 11
17.5
 21
-20.0
 31
0.0
  0
LINE
  5
F0
  8
0
 62
     5
 10
11.5
 20
11.0
 30
0.0
 11
11.5
 21
0.0
 31
0.0
  0
LINE
  5
F1
  8
0
 62
     5
 10
-11.5
 20
11.0
 30
0.0
 11
-11.5
 21
0.0
 31
0.0
  0
LINE
  5
F2
  8
0
 62
     5
 10
-17.5
 20
11.0
 30
0.0
 11
-17.5
 21
-20.0
 31
0.0
  0
LINE
  5
F3
  8
0
 62
     5
 10
-22.5
 20
11.0
 30
0.0
 11
22.5
 21
11.0
 31
0.0
  0
LINE
  5
F4
  8
0
 62
     5
 10
-17.5
 20
-20.0
 30
0.0
 11
17.5
 21
-20.0
 31
0.0
  0
ENDBLK
  5
197
  8
0
  0
ENDSEC
  0
SECTION
  2
ENTITIES
  0
INSERT
  5
F6
  8
0
  2
88AA
 10
-63.75
 20
84.63
 30
0.0
  0
INSERT
  5
F7
  8
0
  2
88BB
 10
66.25
 20
84.63
 30
0.0
  0
INSERT
  5
F8
  8
0
  2
88CC
 10
-63.75
 20
-95.37000000000001
 30
0.0
  0
ENDSEC
  0
EOF
