  0
SECTION
  2
HEADER
  9
$ACADVER
  1
AC1009
  9
$DWGCODEPAGE
  3
ansi_1252
  9
$INSBASE
 10
0.0
 20
0.0
 30
0.0
  9
$EXTMIN
 10
-126.5
 20
-183.63662
 30
0.0
  9
$EXTMAX
 10
126.5
 20
183.63662
 30
0.0
  9
$LIMMIN
 10
0.0
 20
0.0
  9
$LIMMAX
 10
12.0
 20
9.0
  9
$ORTHOMODE
 70
     0
  9
$REGENMODE
 70
     1
  9
$FILLMODE
 70
     1
  9
$QTEXTMODE
 70
     0
  9
$MIRRTEXT
 70
     1
  9
$DRAGMODE
 70
     2
  9
$LTSCALE
 40
1.333021
  9
$OSMODE
 70
    37
  9
$ATTMODE
 70
     1
  9
$TEXTSIZE
 40
0.2
  9
$TRACEWID
 40
0.05
  9
$TEXTSTYLE
  7
STANDARD
  9
$CLAYER
  8
0
  9
$CELTYPE
  6
BYBLOCK
  9
$CECOLOR
 62
   256
  9
$DIMSCALE
 40
1.0
  9
$DIMASZ
 40
0.18
  9
$DIMEXO
 40
0.0625
  9
$DIMDLI
 40
0.38
  9
$DIMRND
 40
0.0
  9
$DIMDLE
 40
0.0
  9
$DIMEXE
 40
0.18
  9
$DIMTP
 40
0.0
  9
$DIMTM
 40
0.0
  9
$DIMTXT
 40
0.18
  9
$DIMCEN
 40
0.09
  9
$DIMTSZ
 40
0.0
  9
$DIMTOL
 70
     0
  9
$DIMLIM
 70
     0
  9
$DIMTIH
 70
     1
  9
$DIMTOH
 70
     1
  9
$DIMSE1
 70
     0
  9
$DIMSE2
 70
     0
  9
$DIMTAD
 70
     0
  9
$DIMZIN
 70
     0
  9
$DIMBLK
  1

  9
$DIMASO
 70
     1
  9
$DIMSHO
 70
     1
  9
$DIMPOST
  1

  9
$DIMAPOST
  1

  9
$DIMALT
 70
     0
  9
$DIMALTD
 70
     2
  9
$DIMALTF
 40
25.4
  9
$DIMLFAC
 40
1.0
  9
$DIMTOFL
 70
     0
  9
$DIMTVP
 40
0.0
  9
$DIMTIX
 70
     0
  9
$DIMSOXD
 70
     0
  9
$DIMSAH
 70
     0
  9
$DIMBLK1
  1

  9
$DIMBLK2
  1

  9
$DIMSTYLE
  2
STANDARD
  9
$DIMCLRD
 70
     0
  9
$DIMCLRE
 70
     0
  9
$DIMCLRT
 70
     0
  9
$DIMTFAC
 40
1.0
  9
$DIMGAP
 40
0.09
  9
$LUNITS
 70
     2
  9
$LUPREC
 70
     4
  9
$SKETCHINC
 40
0.1
  9
$FILLETRAD
 40
0.5
  9
$AUNITS
 70
     0
  9
$AUPREC
 70
     0
  9
$MENU
  1
.
  9
$ELEVATION
 40
0.0
  9
$PELEVATION
 40
0.0
  9
$THICKNESS
 40
0.0
  9
$LIMCHECK
 70
     0
  9
$CHAMFERA
 40
0.5
  9
$CHAMFERB
 40
0.5
  9
$SKPOLY
 70
     0
  9
$TDCREATE
 40
2453619.495673137
  9
$TDUPDATE
 40
2453619.495673148
  9
$TDINDWG
 40
0.0000000116
  9
$TDUSRTIMER
 40
0.0000000116
  9
$USRTIMER
 70
     1
  9
$ANGBASE
 50
0.0
  9
$ANGDIR
 70
     0
  9
$PDMODE
 70
     0
  9
$PDSIZE
 40
0.0
  9
$PLINEWID
 40
0.0
  9
$COORDS
 70
     1
  9
$SPLFRAME
 70
     0
  9
$SPLINETYPE
 70
     6
  9
$SPLINESEGS
 70
     8
  9
$ATTDIA
 70
     0
  9
$ATTREQ
 70
     1
  9
$HANDLING
 70
     1
  9
$HANDSEED
  5
197
  9
$SURFTAB1
 70
     6
  9
$SURFTAB2
 70
     6
  9
$SURFTYPE
 70
     6
  9
$SURFU
 70
     6
  9
$SURFV
 70
     6
  9
$UCSNAME
  2

  9
$UCSORG
 10
0.0
 20
0.0
 30
0.0
  9
$UCSXDIR
 10
1.0
 20
0.0
 30
0.0
  9
$UCSYDIR
 10
0.0
 20
1.0
 30
0.0
  9
$PUCSNAME
  2

  9
$PUCSORG
 10
0.0
 20
0.0
 30
0.0
  9
$PUCSXDIR
 10
1.0
 20
0.0
 30
0.0
  9
$PUCSYDIR
 10
0.0
 20
1.0
 30
0.0
  9
$USERI1
 70
     0
  9
$USERI2
 70
     0
  9
$USERI3
 70
     0
  9
$USERI4
 70
     0
  9
$USERI5
 70
     0
  9
$USERR1
 40
0.0
  9
$USERR2
 40
0.0
  9
$USERR3
 40
0.0
  9
$USERR4
 40
0.0
  9
$USERR5
 40
0.0
  9
$WORLDVIEW
 70
     1
  9
$SHADEDGE
 70
     3
  9
$SHADEDIF
 70
    70
  9
$TILEMODE
 70
     1
  9
$MAXACTVP
 70
    64
  9
$PLIMCHECK
 70
     0
  9
$PEXTMIN
 10
1.000000000000000E+20
 20
1.000000000000000E+20
 30
1.000000000000000E+20
  9
$PEXTMAX
 10
-1.000000000000000E+20
 20
-1.000000000000000E+20
 30
-1.000000000000000E+20
  9
$PLIMMIN
 10
0.0
 20
0.0
  9
$PLIMMAX
 10
12.0
 20
9.0
  9
$UNITMODE
 70
     0
  9
$VISRETAIN
 70
     1
  9
$PLINEGEN
 70
     0
  9
$PSLTSCALE
 70
     1
  0
ENDSEC
  0
SECTION
  2
TABLES
  0
TABLE
  2
VPORT
 70
     1
  0
VPORT
  2
*ACTIVE
 70
     0
 10
0.0
 20
0.0
 11
1.0
 21
1.0
 12
10.42990654205607
 22
4.5
 13
0.0
 23
0.0
 14
0.5
 24
0.5
 15
0.5
 25
0.5
 16
0.0
 26
0.0
 36
1.0
 17
0.0
 27
0.0
 37
0.0
 40
9.0
 41
1.972972972850329
 42
50.0
 43
0.0
 44
0.0
 50
0.0
 51
0.0
 71
     0
 72
   100
 73
     1
 74
     3
 75
     0
 76
     0
 77
     0
 78
     0
  0
ENDTAB
  0
TABLE
  2
LTYPE
 70
     9
  0
LTYPE
  2
CONTINUOUS
 70
     0
  3
Solid Line
 72
    65
 73
     0
 40
0.0
  0
LTYPE
  2
MCDASH1
 70
     0
  3
MiniCad+ Generated
 72
    65
 73
     2
 40
2.116538
 49
1.058075
 49
-1.058463
  0
LTYPE
  2
MCDASH2
 70
     0
  3
MiniCad+ Generated
 72
    65
 73
     2
 40
3.527692
 49
2.469229
 49
-1.058463
  0
LTYPE
  2
MCDASH3
 70
     0
  3
MiniCad+ Generated
 72
    65
 73
     2
 40
6.35
 49
5.291537
 49
-1.058463
  0
LTYPE
  2
MCDASH4
 70
     0
  3
MiniCad+ Generated
 72
    65
 73
     2
 40
7.760767
 49
6.702692
 49
-1.058075
  0
LTYPE
  2
MCDASH5
 70
     0
  3
MiniCad+ Generated
 72
    65
 73
     2
 40
1.058075
 49
0.352692
 49
-0.705383
  0
LTYPE
  2
MCDASH6
 70
     0
  3
MiniCad+ Generated
 72
    65
 73
     4
 40
5.291538
 49
3.175
 49
-1.058075
 49
0.352692
 49
-0.705771
  0
LTYPE
  2
MCDASH7
 70
     0
  3
MiniCad+ Generated
 72
    65
 73
     6
 40
9.525001
 49
3.175
 49
-1.058075
 49
3.175
 49
-1.058463
 49
0.352692
 49
-0.705771
  0
LTYPE
  2
MCDASH8
 70
     0
  3
MiniCad+ Generated
 72
    65
 73
     6
 40
6.350001000000001
 49
3.175
 49
-1.058075
 49
0.352692
 49
-0.705771
 49
0.352692
 49
-0.705771
  0
ENDTAB
  0
TABLE
  2
LAYER
 70
     4
  0
LAYER
  2
0
 70
     0
 62
     7
  6
CONTINUOUS
  0
LAYER
  2
PROFILI
 70
     0
 62
     7
  6
CONTINUOUS
  0
LAYER
  2
FISSAGGI
 70
     0
 62
     2
  6
CONTINUOUS
  0
LAYER
  2
PANNELLI
 70
     0
 62
     6
  6
CONTINUOUS
  0
ENDTAB
  0
TABLE
  2
STYLE
 70
     1
  0
STYLE
  2
STANDARD
 70
     0
 40
0.0
 41
1.0
 50
0.0
 71
     0
 42
0.2
  3
txt
  4

  0
ENDTAB
  0
TABLE
  2
VIEW
 70
     0
  0
ENDTAB
  0
TABLE
  2
UCS
 70
     0
  0
ENDTAB
  0
TABLE
  2
APPID
 70
     1
  0
APPID
  2
ACAD
 70
     0
  0
ENDTAB
  0
TABLE
  2
DIMSTYLE
 70
     1
  0
DIMSTYLE
  2
STANDARD
 70
     0
  3

  4

  5

  6

  7

 40
1.0
 41
0.18
 42
0.0625
 43
0.38
 44
0.18
 45
0.0
 46
0.0
 47
0.0
 48
0.0
140
0.18
141
0.09
142
0.0
143
25.4
144
1.0
145
0.0
146
1.0
147
0.09
 71
     0
 72
     0
 73
     1
 74
     1
 75
     0
 76
     0
 77
     0
 78
     0
170
     0
171
     2
172
     0
173
     0
174
     0
175
     0
176
     0
177
     0
178
     0
  0
ENDTAB
  0
ENDSEC
  0
SECTION
  2
BLOCKS
  0
BLOCK
  8
0
  2
$MODEL_SPACE
 70
     0
 10
0.0
 20
0.0
 30
0.0
  3
$MODEL_SPACE
  1

  0
ENDBLK
  5
192
  8
0
  0
BLOCK
 67
     1
  8
0
  2
$PAPER_SPACE
 70
     0
 10
0.0
 20
0.0
 30
0.0
  3
$PAPER_SPACE
  1

  0
ENDBLK
  5
190
 67
     1
  8
0
  0
BLOCK
  8
0
  2
$ARROW1$
 70
     0
 10
0.0
 20
0.0
 30
0.0
  3
$ARROW1$
  1

  0
SOLID
  5
30
  8
0
 62
     0
 10
-25.4
 20
4.318
 30
0.0
 11
-25.4
 21
-4.318
 31
0.0
 12
0.0
 22
0.0
 32
0.0
 13
0.0
 23
0.0
 33
0.0
  0
ENDBLK
  5
179
  8
0
  0
BLOCK
  8
0
  2
$ARROW2$
 70
     0
 10
0.0
 20
0.0
 30
0.0
  3
$ARROW2$
  1

  0
SOLID
  5
34
  8
0
 62
     0
 10
-25.4
 20
12.7
 30
0.0
 11
-25.4
 21
-12.7
 31
0.0
 12
0.0
 22
0.0
 32
0.0
 13
0.0
 23
0.0
 33
0.0
  0
ENDBLK
  5
17B
  8
0
  0
BLOCK
  8
0
  2
$ARROW3$
 70
     0
 10
0.0
 20
0.0
 30
0.0
  3
$ARROW3$
  1

  0
POLYLINE
  5
38
  8
0
  6
BYBLOCK
 62
     0
 66
     1
 10
0.0
 20
0.0
 30
0.0
 70
     1
 40
0.5
 41
0.5
  0
VERTEX
  5
102
  8
0
  6
BYBLOCK
 62
     0
 10
-6.35
 20
0.0
 30
0.0
 42
1.0
  0
VERTEX
  5
103
  8
0
  6
BYBLOCK
 62
     0
 10
6.35
 20
0.0
 30
0.0
 42
1.0
  0
SEQEND
  5
17C
  8
0
  6
BYBLOCK
 62
     0
  0
ENDBLK
  5
17E
  8
0
  0
BLOCK
  8
0
  2
$ARROW4$
 70
     0
 10
0.0
 20
0.0
 30
0.0
  3
$ARROW4$
  1

  0
LINE
  5
3F
  8
0
  6
BYBLOCK
 62
     0
 10
12.7
 20
12.7
 30
0.0
 11
-12.7
 21
-12.7
 31
0.0
  0
ENDBLK
  5
180
  8
0
  0
BLOCK
  8
0
  2
$ARROW5$
 70
     0
 10
0.0
 20
0.0
 30
0.0
  3
$ARROW5$
  1

  0
LINE
  5
43
  8
0
  6
BYBLOCK
 62
     0
 10
12.7
 20
12.7
 30
0.0
 11
-12.7
 21
-12.7
 31
0.0
  0
LINE
  5
44
  8
0
  6
BYBLOCK
 62
     0
 10
-12.7
 20
12.7
 30
0.0
 11
12.7
 21
-12.7
 31
0.0
  0
ENDBLK
  5
182
  8
0
  0
BLOCK
  8
0
  2
BORDER
 70
     0
 10
0.0
 20
0.0
 30
0.0
  3
BORDER
  1

  0
LINE
  5
48
  8
0
 62
     6
 10
0.0
 20
0.0
 30
0.0
 11
1.0
 21
0.0
 31
0.0
  0
LINE
  5
49
  8
0
 62
     6
 10
1.0
 20
0.0
 30
0.0
 11
1.0
 21
1.0
 31
0.0
  0
LINE
  5
4A
  8
0
 62
     6
 10
1.0
 20
1.0
 30
0.0
 11
0.0
 21
1.0
 31
0.0
  0
LINE
  5
4B
  8
0
 62
     6
 10
0.0
 20
1.0
 30
0.0
 11
0.0
 21
0.0
 31
0.0
  0
ENDBLK
  5
184
  8
0
  0
BLOCK
  8
0
  2
71AA
 70
     0
 10
0.0
 20
0.0
 30
0.0
  3
71AA
  1

  0
LINE
  5
4F
  8
0
 62
     6
 10
27.5
 20
42.5
 30
0.0
 11
27.5
 21
-42.5
 31
0.0
  0
LINE
  5
50
  8
0
 62
     6
 10
-27.5
 20
-42.5
 30
0.0
 11
-27.5
 21
42.5
 31
0.0
  0
POLYLINE
  5
51
  8
0
 62
     6
 66
     1
 10
0.0
 20
0.0
 30
0.0
  0
VERTEX
  5
105
  8
0
 62
     6
 10
-27.5
 20
-29.5
 30
0.0
  0
VERTEX
  5
106
  8
0
 62
     6
 10
-36.0
 20
-29.5
 30
0.0
  0
VERTEX
  5
107
  8
0
 62
     6
 10
-36.0
 20
29.5
 30
0.0
  0
VERTEX
  5
108
  8
0
 62
     6
 10
-27.5
 20
29.5
 30
0.0
  0
SEQEND
  5
185
  8
0
 62
     6
  0
POLYLINE
  5
57
  8
0
 62
     6
 66
     1
 10
0.0
 20
0.0
 30
0.0
  0
VERTEX
  5
10A
  8
0
 62
     6
 10
-27.5
 20
-24.5
 30
0.0
  0
VERTEX
  5
10B
  8
0
 62
     6
 10
-29.0
 20
-24.5
 30
0.0
  0
VERTEX
  5
10C
  8
0
 62
     6
 10
-29.31285
 20
-24.47538
 30
0.0
  0
VERTEX
  5
10D
  8
0
 62
     6
 10
-29.61804
 20
-24.40211
 30
0.0
  0
VERTEX
  5
10E
  8
0
 62
     6
 10
-29.90797
 20
-24.28202
 30
0.0
  0
VERTEX
  5
10F
  8
0
 62
     6
 10
-30.17557
 20
-24.11803
 30
0.0
  0
VERTEX
  5
110
  8
0
 62
     6
 10
-30.41422
 20
-23.9142
 30
0.0
  0
VERTEX
  5
111
  8
0
 62
     6
 10
-30.41421
 20
-23.91421
 30
0.0
  0
VERTEX
  5
112
  8
0
 62
     6
 10
-30.61801
 20
-23.6756
 30
0.0
  0
VERTEX
  5
113
  8
0
 62
     6
 10
-30.78199
 20
-23.40802
 30
0.0
  0
VERTEX
  5
114
  8
0
 62
     6
 10
-30.9021
 20
-23.11806
 30
0.0
  0
VERTEX
  5
115
  8
0
 62
     6
 10
-30.97537
 20
-22.81291
 30
0.0
  0
VERTEX
  5
116
  8
0
 62
     6
 10
-31.0
 20
-22.5
 30
0.0
  0
VERTEX
  5
117
  8
0
 62
     6
 10
-31.0
 20
22.5
 30
0.0
  0
VERTEX
  5
118
  8
0
 62
     6
 10
-30.97538
 20
22.81282
 30
0.0
  0
VERTEX
  5
119
  8
0
 62
     6
 10
-30.90212
 20
23.11801
 30
0.0
  0
VERTEX
  5
11A
  8
0
 62
     6
 10
-30.78203
 20
23.40794
 30
0.0
  0
VERTEX
  5
11B
  8
0
 62
     6
 10
-30.61805
 20
23.67555
 30
0.0
  0
VERTEX
  5
11C
  8
0
 62
     6
 10
-30.41422
 20
23.9142
 30
0.0
  0
VERTEX
  5
11D
  8
0
 62
     6
 10
-30.41421
 20
23.91421
 30
0.0
  0
VERTEX
  5
11E
  8
0
 62
     6
 10
-30.17562
 20
24.11799
 30
0.0
  0
VERTEX
  5
11F
  8
0
 62
     6
 10
-29.90802
 20
24.28199
 30
0.0
  0
VERTEX
  5
120
  8
0
 62
     6
 10
-29.61809
 20
24.40209
 30
0.0
  0
VERTEX
  5
121
  8
0
 62
     6
 10
-29.31291
 20
24.47537
 30
0.0
  0
VERTEX
  5
122
  8
0
 62
     6
 10
-29.00003
 20
24.5
 30
0.0
  0
VERTEX
  5
123
  8
0
 62
     6
 10
-29.0
 20
24.5
 30
0.0
  0
VERTEX
  5
124
  8
0
 62
     6
 10
-27.5
 20
24.5
 30
0.0
  0
SEQEND
  5
186
  8
0
 62
     6
  0
POLYLINE
  5
74
  8
0
 62
     6
 66
     1
 10
0.0
 20
0.0
 30
0.0
  0
VERTEX
  5
126
  8
0
 62
     6
 10
27.5
 20
-24.5
 30
0.0
  0
VERTEX
  5
127
  8
0
 62
     6
 10
29.0
 20
-24.5
 30
0.0
  0
VERTEX
  5
128
  8
0
 62
     6
 10
29.31288
 20
-24.47537
 30
0.0
  0
VERTEX
  5
129
  8
0
 62
     6
 10
29.61806
 20
-24.4021
 30
0.0
  0
VERTEX
  5
12A
  8
0
 62
     6
 10
29.908
 20
-24.282
 30
0.0
  0
VERTEX
  5
12B
  8
0
 62
     6
 10
30.1756
 20
-24.11801
 30
0.0
  0
VERTEX
  5
12C
  8
0
 62
     6
 10
30.41421
 20
-23.91421
 30
0.0
  0
VERTEX
  5
12D
  8
0
 62
     6
 10
30.61803
 20
-23.67557
 30
0.0
  0
VERTEX
  5
12E
  8
0
 62
     6
 10
30.782
 20
-23.408
 30
0.0
  0
VERTEX
  5
12F
  8
0
 62
     6
 10
30.90211
 20
-23.11804
 30
0.0
  0
VERTEX
  5
130
  8
0
 62
     6
 10
30.97538
 20
-22.81285
 30
0.0
  0
VERTEX
  5
131
  8
0
 62
     6
 10
31.0
 20
-22.5
 30
0.0
  0
VERTEX
  5
132
  8
0
 62
     6
 10
31.0
 20
22.5
 30
0.0
  0
VERTEX
  5
133
  8
0
 62
     6
 10
30.97537
 20
22.81288
 30
0.0
  0
VERTEX
  5
134
  8
0
 62
     6
 10
30.90211
 20
23.11804
 30
0.0
  0
VERTEX
  5
135
  8
0
 62
     6
 10
30.782
 20
23.408
 30
0.0
  0
VERTEX
  5
136
  8
0
 62
     6
 10
30.61801
 20
23.6756
 30
0.0
  0
VERTEX
  5
137
  8
0
 62
     6
 10
30.41421
 20
23.91421
 30
0.0
  0
VERTEX
  5
138
  8
0
 62
     6
 10
30.17557
 20
24.11803
 30
0.0
  0
VERTEX
  5
139
  8
0
 62
     6
 10
29.908
 20
24.282
 30
0.0
  0
VERTEX
  5
13A
  8
0
 62
     6
 10
29.61804
 20
24.40211
 30
0.0
  0
VERTEX
  5
13B
  8
0
 62
     6
 10
29.31288
 20
24.47537
 30
0.0
  0
VERTEX
  5
13C
  8
0
 62
     6
 10
29.0
 20
24.5
 30
0.0
  0
VERTEX
  5
13D
  8
0
 62
     6
 10
27.5
 20
24.5
 30
0.0
  0
SEQEND
  5
187
  8
0
 62
     6
  0
POLYLINE
  5
8E
  8
0
 62
     6
 66
     1
 10
0.0
 20
0.0
 30
0.0
  0
VERTEX
  5
13F
  8
0
 62
     6
 10
27.5
 20
-29.5
 30
0.0
  0
VERTEX
  5
140
  8
0
 62
     6
 10
36.0
 20
-29.5
 30
0.0
  0
VERTEX
  5
141
  8
0
 62
     6
 10
36.0
 20
29.5
 30
0.0
  0
VERTEX
  5
142
  8
0
 62
     6
 10
27.5
 20
29.5
 30
0.0
  0
SEQEND
  5
188
  8
0
 62
     6
  0
ARC
  5
94
  8
0
 62
     6
 10
0.0
 20
0.0
 30
0.0
 40
12.6
 50
281.444153
 51
78.555847
  0
LINE
  5
95
  8
0
 62
     6
 10
2.5
 20
-32.0
 30
0.0
 11
2.5
 21
-9.169219999999999
 31
0.0
  0
LINE
  5
96
  8
0
 62
     6
 10
-2.5
 20
-32.0
 30
0.0
 11
-2.5
 21
-9.169219999999999
 31
0.0
  0
LINE
  5
97
  8
0
 62
     6
 10
-1.5
 20
-33.0
 30
0.0
 11
1.5
 21
-33.0
 31
0.0
  0
ARC
  5
98
  8
0
 62
     6
 10
-1.5
 20
-32.0
 30
0.0
 40
1.0
 50
180.0
 51
270.0
  0
ARC
  5
99
  8
0
 62
     6
 10
1.5
 20
-32.0
 30
0.0
 40
1.0
 50
270.0
 51
0.0
  0
ARC
  5
9A
  8
0
 62
     6
 10
1.5
 20
32.0
 30
0.0
 40
1.0
 50
0.0
 51
90.0
  0
ARC
  5
9B
  8
0
 62
     6
 10
-1.5
 20
32.0
 30
0.0
 40
1.0
 50
90.0
 51
180.0
  0
LINE
  5
9C
  8
0
 62
     6
 10
-1.5
 20
33.0
 30
0.0
 11
1.5
 21
33.0
 31
0.0
  0
LINE
  5
9D
  8
0
 62
     6
 10
-2.5
 20
32.0
 30
0.0
 11
-2.5
 21
9.169219999999999
 31
0.0
  0
LINE
  5
9E
  8
0
 62
     6
 10
2.5
 20
32.0
 30
0.0
 11
2.5
 21
9.169219999999999
 31
0.0
  0
LINE
  5
9F
  8
0
 62
     6
 10
-24.5
 20
-45.5
 30
0.0
 11
24.5
 21
-45.5
 31
0.0
  0
LINE
  5
A0
  8
0
 62
     6
 10
-24.5
 20
45.5
 30
0.0
 11
24.5
 21
45.5
 31
0.0
  0
ARC
  5
A1
  8
0
 62
     6
 10
24.5
 20
-42.5
 30
0.0
 40
3.0
 50
270.0
 51
0.0
  0
ARC
  5
A2
  8
0
 62
     6
 10
-24.5
 20
-42.5
 30
0.0
 40
3.0
 50
180.0
 51
270.0
  0
ARC
  5
A3
  8
0
 62
     6
 10
-24.5
 20
42.5
 30
0.0
 40
3.0
 50
90.0
 51
180.0
  0
ARC
  5
A4
  8
0
 62
     6
 10
24.5
 20
42.5
 30
0.0
 40
3.0
 50
0.0
 51
90.0
  0
CIRCLE
  5
A5
  8
0
 62
     6
 10
0.0
 20
0.0
 30
0.0
 40
6.0
  0
CIRCLE
  5
A6
  8
0
 62
     6
 10
0.0
 20
0.0
 30
0.0
 40
9.50393
  0
ARC
  5
A7
  8
0
 62
     6
 10
0.0
 20
0.0
 30
0.0
 40
12.6
 50
101.444153
 51
258.555847
  0
LINE
  5
A8
  8
0
 62
     6
 10
20.5
 20
45.5
 30
0.0
 11
20.5
 21
-45.5
 31
0.0
  0
LINE
  5
A9
  8
0
 62
     6
 10
-20.5
 20
45.5
 30
0.0
 11
-20.5
 21
-45.5
 31
0.0
  0
ENDBLK
  5
18A
  8
0
  0
BLOCK
  8
0
  2
71CC
 70
     0
 10
0.0
 20
0.0
 30
0.0
  3
71CC
  1

  0
LINE
  5
AD
  8
0
 62
     6
 10
23.0
 20
-33.5
 30
0.0
 11
27.0
 21
0.0
 31
0.0
  0
LINE
  5
AE
  8
0
 62
     6
 10
12.0
 20
-44.5
 30
0.0
 11
2.0
 21
-45.5
 31
0.0
  0
ARC
  5
AF
  8
0
 62
     6
 10
12.0
 20
-33.5
 30
0.0
 40
11.0
 50
270.0
 51
0.0
  0
LINE
  5
B0
  8
0
 62
     6
 10
2.0
 20
-45.5
 30
0.0
 11
2.0
 21
-38.69615
 31
0.0
  0
ARC
  5
B1
  8
0
 62
     6
 10
5.0
 20
-33.5
 30
0.0
 40
6.0
 50
240.0
 51
270.0
  0
LINE
  5
B2
  8
0
 62
     6
 10
0.0
 20
0.0
 30
0.0
 11
0.0
 21
-30.18338
 31
0.0
  0
LINE
  5
B3
  8
0
 62
     6
 10
10.30933
 20
-39.5
 30
0.0
 11
5.0
 21
-39.5
 31
0.0
  0
LINE
  5
B4
  8
0
 62
     6
 10
10.59997
 20
-5.84977
 30
0.0
 11
10.59997
 21
0.0
 31
0.0
  0
LINE
  5
B5
  8
0
 62
     6
 10
8.9093
 20
-11.34977
 30
0.0
 11
10.59997
 21
-5.84977
 31
0.0
  0
LINE
  5
B6
  8
0
 62
     6
 10
12.0
 20
-6.0
 30
0.0
 11
12.0
 21
0.0
 31
0.0
  0
LINE
  5
B7
  8
0
 62
     6
 10
10.30933
 20
-11.5
 30
0.0
 11
12.0
 21
-6.0
 31
0.0
  0
LINE
  5
B8
  8
0
 62
     6
 10
0.0
 20
-30.18338
 30
0.0
 11
8.9093
 21
-25.03959
 31
0.0
  0
LINE
  5
B9
  8
0
 62
     6
 10
8.9093
 20
-11.34977
 30
0.0
 11
8.9093
 21
-25.03959
 31
0.0
  0
LINE
  5
BA
  8
0
 62
     6
 10
10.30933
 20
-11.5
 30
0.0
 11
10.30933
 21
-39.5
 31
0.0
  0
LINE
  5
BB
  8
0
 62
     6
 10
10.30933
 20
11.5
 30
0.0
 11
10.30933
 21
39.5
 31
0.0
  0
LINE
  5
BC
  8
0
 62
     6
 10
8.9093
 20
11.34977
 30
0.0
 11
8.9093
 21
25.03959
 31
0.0
  0
LINE
  5
BD
  8
0
 62
     6
 10
0.0
 20
30.18338
 30
0.0
 11
8.9093
 21
25.03959
 31
0.0
  0
LINE
  5
BE
  8
0
 62
     6
 10
10.30933
 20
11.5
 30
0.0
 11
12.0
 21
6.0
 31
0.0
  0
LINE
  5
BF
  8
0
 62
     6
 10
12.0
 20
6.0
 30
0.0
 11
12.0
 21
0.0
 31
0.0
  0
LINE
  5
C0
  8
0
 62
     6
 10
8.9093
 20
11.34977
 30
0.0
 11
10.59997
 21
5.84977
 31
0.0
  0
LINE
  5
C1
  8
0
 62
     6
 10
10.59997
 20
5.84977
 30
0.0
 11
10.59997
 21
0.0
 31
0.0
  0
LINE
  5
C2
  8
0
 62
     6
 10
127.0
 20
4.0
 30
0.0
 11
127.0
 21
-4.0
 31
0.0
  0
LINE
  5
C3
  8
0
 62
     6
 10
125.0
 20
6.0
 30
0.0
 11
26.16418
 21
6.0
 31
0.0
  0
LINE
  5
C4
  8
0
 62
     6
 10
125.0
 20
-6.0
 30
0.0
 11
26.16418
 21
-6.0
 31
0.0
  0
LINE
  5
C5
  8
0
 62
     6
 10
125.0
 20
6.0
 30
0.0
 11
125.0
 21
-6.0
 31
0.0
  0
LINE
  5
C6
  8
0
 62
     6
 10
125.0
 20
6.0
 30
0.0
 11
127.0
 21
4.0
 31
0.0
  0
LINE
  5
C7
  8
0
 62
     6
 10
127.0
 20
-4.0
 30
0.0
 11
125.0
 21
-6.0
 31
0.0
  0
CIRCLE
  5
C8
  8
0
 62
     6
 10
117.0
 20
0.0
 30
0.0
 40
2.0
  0
LINE
  5
C9
  8
0
 62
     6
 10
10.30933
 20
39.5
 30
0.0
 11
5.0
 21
39.5
 31
0.0
  0
LINE
  5
CA
  8
0
 62
     6
 10
0.0
 20
0.0
 30
0.0
 11
0.0
 21
30.18338
 31
0.0
  0
ARC
  5
CB
  8
0
 62
     6
 10
5.0
 20
33.5
 30
0.0
 40
6.0
 50
90.0
 51
120.0
  0
LINE
  5
CC
  8
0
 62
     6
 10
2.0
 20
45.5
 30
0.0
 11
2.0
 21
38.69615
 31
0.0
  0
ARC
  5
CD
  8
0
 62
     6
 10
12.0
 20
33.5
 30
0.0
 40
11.0
 50
0.0
 51
90.0
  0
LINE
  5
CE
  8
0
 62
     6
 10
12.0
 20
44.5
 30
0.0
 11
2.0
 21
45.5
 31
0.0
  0
LINE
  5
CF
  8
0
 62
     6
 10
23.0
 20
33.5
 30
0.0
 11
27.0
 21
0.0
 31
0.0
  0
ENDBLK
  5
18C
  8
0
  0
BLOCK
  8
0
  2
71BB
 70
     0
 10
0.0
 20
0.0
 30
0.0
  3
71BB
  1

  0
LINE
  5
D3
  8
0
 62
     6
 10
-36.0
 20
5.0
 30
0.0
 11
36.0
 21
5.0
 31
0.0
  0
LINE
  5
D4
  8
0
 62
     6
 10
-36.0
 20
5.0
 30
0.0
 11
-36.0
 21
-12.0
 31
0.0
  0
LINE
  5
D5
  8
0
 62
     6
 10
-27.5
 20
-12.0
 30
0.0
 11
-36.0
 21
-12.0
 31
0.0
  0
LINE
  5
D6
  8
0
 62
     6
 10
36.0
 20
5.0
 30
0.0
 11
36.0
 21
-12.0
 31
0.0
  0
LINE
  5
D7
  8
0
 62
     6
 10
27.5
 20
-12.0
 30
0.0
 11
36.0
 21
-12.0
 31
0.0
  0
LINE
  5
D8
  8
0
 62
     6
 10
13.1
 20
-8.0
 30
0.0
 11
10.00393
 21
-11.0
 31
0.0
  0
LINE
  5
D9
  8
0
 62
     6
 10
-12.1
 20
-8.0
 30
0.0
 11
-9.00393
 21
-11.0
 31
0.0
  0
CIRCLE
  5
DA
  8
0
 62
     6
 10
0.5
 20
-102.83582
 30
0.0
 40
2.0
  0
LINE
  5
DB
  8
0
 62
     6
 10
-3.5
 20
-112.83582
 30
0.0
 11
-5.5
 21
-110.83582
 31
0.0
  0
LINE
  5
DC
  8
0
 62
     6
 10
6.5
 20
-110.83582
 30
0.0
 11
4.5
 21
-112.83582
 31
0.0
  0
LINE
  5
DD
  8
0
 62
     6
 10
6.5
 20
-110.83582
 30
0.0
 11
-5.5
 21
-110.83582
 31
0.0
  0
LINE
  5
DE
  8
0
 62
     6
 10
-5.5
 20
-110.83582
 30
0.0
 11
-5.5
 21
-12.0
 31
0.0
  0
LINE
  5
DF
  8
0
 62
     6
 10
6.5
 20
-110.83582
 30
0.0
 11
6.5
 21
-12.0
 31
0.0
  0
LINE
  5
E0
  8
0
 62
     6
 10
4.5
 20
-112.83582
 30
0.0
 11
-3.5
 21
-112.83582
 31
0.0
  0
LINE
  5
E1
  8
0
 62
     6
 10
-20.5
 20
-22.0
 30
0.0
 11
-27.5
 21
-22.0
 31
0.0
  0
LINE
  5
E2
  8
0
 62
     6
 10
10.00393
 20
-12.0
 30
0.0
 11
10.00393
 21
-11.0
 31
0.0
  0
LINE
  5
E3
  8
0
 62
     6
 10
-9.00393
 20
-12.0
 30
0.0
 11
-9.00393
 21
-11.0
 31
0.0
  0
LINE
  5
E4
  8
0
 62
     6
 10
10.00393
 20
-12.0
 30
0.0
 11
-9.00393
 21
-12.0
 31
0.0
  0
LINE
  5
E5
  8
0
 62
     6
 10
20.5
 20
-8.0
 30
0.0
 11
-20.5
 21
-8.0
 31
0.0
  0
LINE
  5
E6
  8
0
 62
     6
 10
10.00393
 20
-11.0
 30
0.0
 11
-9.00393
 21
-11.0
 31
0.0
  0
LINE
  5
E7
  8
0
 62
     6
 10
20.5
 20
-8.0
 30
0.0
 11
20.5
 21
-22.0
 31
0.0
  0
LINE
  5
E8
  8
0
 62
     6
 10
-20.5
 20
-8.0
 30
0.0
 11
-20.5
 21
-22.0
 31
0.0
  0
LINE
  5
E9
  8
0
 62
     6
 10
27.5
 20
0.0
 30
0.0
 11
27.5
 21
-22.0
 31
0.0
  0
LINE
  5
EA
  8
0
 62
     6
 10
-27.5
 20
-22.0
 30
0.0
 11
-27.5
 21
0.0
 31
0.0
  0
LINE
  5
EB
  8
0
 62
     6
 10
27.5
 20
-22.0
 30
0.0
 11
20.5
 21
-22.0
 31
0.0
  0
LINE
  5
EC
  8
0
 62
     6
 10
27.5
 20
0.0
 30
0.0
 11
-27.5
 21
0.0
 31
0.0
  0
ENDBLK
  5
18E
  8
0
  0
ENDSEC
  0
SECTION
  2
ENTITIES
  0
INSERT
  5
EE
  8
0
  2
71AA
 10
-90.5
 20
83.66791000000001
 30
0.0
  0
INSERT
  5
EF
  8
0
  2
71CC
 10
-0.5
 20
83.66791000000001
 30
0.0
  0
INSERT
  5
F0
  8
0
  2
71BB
 10
-90.5
 20
-16.33209
 30
0.0
  0
ENDSEC
  0
EOF
