  0
SECTION
  2
HEADER
  9
$ACADVER
  1
AC1014
  9
$ACADMAINTVER
 70
     9
  9
$DWGCODEPAGE
  3
ANSI_1252
  9
$INSBASE
 10
0.0
 20
0.0
 30
0.0
  9
$EXTMIN
 10
-26.75163256586718
 20
-12.50244812073566
 30
-0.0015258207003583
  9
$EXTMAX
 10
26.75163281499599
 20
12.50244848238918
 30
0.0000000349246037
  9
$LIMMIN
 10
0.0
 20
0.0
  9
$LIMMAX
 10
12.0
 20
9.0
  9
$ORTHOMODE
 70
     0
  9
$REGENMODE
 70
     1
  9
$FILLMODE
 70
     1
  9
$QTEXTMODE
 70
     0
  9
$MIRRTEXT
 70
     1
  9
$DRAGMODE
 70
     2
  9
$LTSCALE
 40
0.281884
  9
$OSMODE
 70
    37
  9
$ATTMODE
 70
     1
  9
$TEXTSIZE
 40
0.2
  9
$TRACEWID
 40
0.05
  9
$TEXTSTYLE
  7
STANDARD
  9
$CLAYER
  8
0
  9
$CELTYPE
  6
CONTINUOUS
  9
$CECOLOR
 62
   256
  9
$CELTSCALE
 40
1.0
  9
$DELOBJ
 70
     1
  9
$DISPSILH
 70
     0
  9
$DIMSCALE
 40
1.0
  9
$DIMASZ
 40
0.18
  9
$DIMEXO
 40
0.0625
  9
$DIMDLI
 40
0.38
  9
$DIMRND
 40
0.0
  9
$DIMDLE
 40
0.0
  9
$DIMEXE
 40
0.18
  9
$DIMTP
 40
0.0
  9
$DIMTM
 40
0.0
  9
$DIMTXT
 40
0.18
  9
$DIMCEN
 40
0.09
  9
$DIMTSZ
 40
0.0
  9
$DIMTOL
 70
     0
  9
$DIMLIM
 70
     0
  9
$DIMTIH
 70
     1
  9
$DIMTOH
 70
     1
  9
$DIMSE1
 70
     0
  9
$DIMSE2
 70
     0
  9
$DIMTAD
 70
     0
  9
$DIMZIN
 70
     0
  9
$DIMBLK
  1

  9
$DIMASO
 70
     1
  9
$DIMSHO
 70
     1
  9
$DIMPOST
  1

  9
$DIMAPOST
  1

  9
$DIMALT
 70
     0
  9
$DIMALTD
 70
     2
  9
$DIMALTF
 40
25.4
  9
$DIMLFAC
 40
1.0
  9
$DIMTOFL
 70
     0
  9
$DIMTVP
 40
0.0
  9
$DIMTIX
 70
     0
  9
$DIMSOXD
 70
     0
  9
$DIMSAH
 70
     0
  9
$DIMBLK1
  1

  9
$DIMBLK2
  1

  9
$DIMSTYLE
  2
STANDARD
  9
$DIMCLRD
 70
     0
  9
$DIMCLRE
 70
     0
  9
$DIMCLRT
 70
     0
  9
$DIMTFAC
 40
1.0
  9
$DIMGAP
 40
0.09
  9
$DIMJUST
 70
     0
  9
$DIMSD1
 70
     0
  9
$DIMSD2
 70
     0
  9
$DIMTOLJ
 70
     1
  9
$DIMTZIN
 70
     0
  9
$DIMALTZ
 70
     0
  9
$DIMALTTZ
 70
     0
  9
$DIMFIT
 70
     5
  9
$DIMUPT
 70
     0
  9
$DIMUNIT
 70
     2
  9
$DIMDEC
 70
     4
  9
$DIMTDEC
 70
     4
  9
$DIMALTU
 70
     2
  9
$DIMALTTD
 70
     2
  9
$DIMTXSTY
  7
STANDARD
  9
$DIMAUNIT
 70
     0
  9
$LUNITS
 70
     2
  9
$LUPREC
 70
     4
  9
$SKETCHINC
 40
0.1
  9
$FILLETRAD
 40
0.5
  9
$AUNITS
 70
     0
  9
$AUPREC
 70
     0
  9
$MENU
  1
.
  9
$ELEVATION
 40
0.0
  9
$PELEVATION
 40
0.0
  9
$THICKNESS
 40
0.0
  9
$LIMCHECK
 70
     0
  9
$CHAMFERA
 40
0.5
  9
$CHAMFERB
 40
0.5
  9
$CHAMFERC
 40
0.0
  9
$CHAMFERD
 40
0.0
  9
$SKPOLY
 70
     0
  9
$TDCREATE
 40
2453592.828411921
  9
$TDUPDATE
 40
2453594.771260972
  9
$TDINDWG
 40
0.0001074537
  9
$TDUSRTIMER
 40
0.0001074537
  9
$USRTIMER
 70
     1
  9
$ANGBASE
 50
0.0
  9
$ANGDIR
 70
     0
  9
$PDMODE
 70
     0
  9
$PDSIZE
 40
0.0
  9
$PLINEWID
 40
0.0
  9
$COORDS
 70
     1
  9
$SPLFRAME
 70
     0
  9
$SPLINETYPE
 70
     6
  9
$SPLINESEGS
 70
     8
  9
$ATTDIA
 70
     0
  9
$ATTREQ
 70
     1
  9
$HANDLING
 70
     1
  9
$HANDSEED
  5
DC
  9
$SURFTAB1
 70
     6
  9
$SURFTAB2
 70
     6
  9
$SURFTYPE
 70
     6
  9
$SURFU
 70
     6
  9
$SURFV
 70
     6
  9
$UCSNAME
  2

  9
$UCSORG
 10
0.0
 20
0.0
 30
0.0
  9
$UCSXDIR
 10
1.0
 20
0.0
 30
0.0
  9
$UCSYDIR
 10
0.0
 20
1.0
 30
0.0
  9
$PUCSNAME
  2

  9
$PUCSORG
 10
0.0
 20
0.0
 30
0.0
  9
$PUCSXDIR
 10
1.0
 20
0.0
 30
0.0
  9
$PUCSYDIR
 10
0.0
 20
1.0
 30
0.0
  9
$USERI1
 70
     0
  9
$USERI2
 70
     0
  9
$USERI3
 70
     0
  9
$USERI4
 70
     0
  9
$USERI5
 70
     0
  9
$USERR1
 40
0.0
  9
$USERR2
 40
0.0
  9
$USERR3
 40
0.0
  9
$USERR4
 40
0.0
  9
$USERR5
 40
0.0
  9
$WORLDVIEW
 70
     0
  9
$SHADEDGE
 70
     3
  9
$SHADEDIF
 70
    70
  9
$TILEMODE
 70
     1
  9
$MAXACTVP
 70
    48
  9
$PINSBASE
 10
0.0
 20
0.0
 30
0.0
  9
$PLIMCHECK
 70
     0
  9
$PEXTMIN
 10
1.000000000000000E+20
 20
1.000000000000000E+20
 30
1.000000000000000E+20
  9
$PEXTMAX
 10
-1.000000000000000E+20
 20
-1.000000000000000E+20
 30
-1.000000000000000E+20
  9
$PLIMMIN
 10
0.0
 20
0.0
  9
$PLIMMAX
 10
12.0
 20
9.0
  9
$UNITMODE
 70
     0
  9
$VISRETAIN
 70
     1
  9
$PLINEGEN
 70
     0
  9
$PSLTSCALE
 70
     1
  9
$TREEDEPTH
 70
  3020
  9
$PICKSTYLE
 70
     1
  9
$CMLSTYLE
  2
STANDARD
  9
$CMLJUST
 70
     0
  9
$CMLSCALE
 40
1.0
  9
$PROXYGRAPHICS
 70
     1
  9
$MEASUREMENT
 70
     0
  0
ENDSEC
  0
SECTION
  2
CLASSES
  0
CLASS
  1
DICTIONARYVAR
  2
AcDbDictionaryVar
  3
ObjectDBX Classes
 90
        0
280
     0
281
     0
  0
CLASS
  1
LWPOLYLINE
  2
AcDbPolyline
  3
AutoCAD 2000
 90
        0
280
     0
281
     1
  0
CLASS
  1
XRECORD
  2
AcDbXrecord
  3
AutoCAD 2000
 90
        0
280
     0
281
     0
  0
CLASS
  1
HATCH
  2
AcDbHatch
  3
AutoCAD 2000
 90
        0
280
     0
281
     1
  0
CLASS
  1
ACDBPLACEHOLDER
  2
AcDbPlaceHolder
  3
ObjectDBX Classes
 90
        0
280
     0
281
     0
  0
CLASS
  1
LAYOUT
  2
AcDbLayout
  3
ObjectDBX Classes
 90
        0
280
     0
281
     0
  0
ENDSEC
  0
SECTION
  2
TABLES
  0
TABLE
  2
VPORT
  5
85
330
0
100
AcDbSymbolTable
 70
     2
  0
VPORT
  5
B7
102
{ACAD_XDICTIONARY
360
DA
102
}
330
85
100
AcDbSymbolTableRecord
100
AcDbViewportTableRecord
  2
*ACTIVE
 70
     0
 10
0.0
 20
0.0
 11
1.0
 21
1.0
 12
0.0000001245644015
 22
0.0000001808267598
 13
0.0
 23
0.0
 14
0.5
 24
0.5
 15
0.5
 25
0.5
 16
0.0
 26
0.0
 36
1.0
 17
0.0
 27
0.0
 37
0.0
 40
30.79618323788434
 41
1.748582230623819
 42
50.0
 43
0.0
 44
0.0
 50
0.0
 51
0.0
 71
     0
 72
   100
 73
     1
 74
     3
 75
     0
 76
     0
 77
     0
 78
     0
  0
ENDTAB
  0
TABLE
  2
LTYPE
  5
82
330
0
100
AcDbSymbolTable
 70
     9
  0
LTYPE
  5
8E
330
82
100
AcDbSymbolTableRecord
100
AcDbLinetypeTableRecord
  2
BYBLOCK
 70
     0
  3

 72
    65
 73
     0
 40
0.0
  0
LTYPE
  5
8F
330
82
100
AcDbSymbolTableRecord
100
AcDbLinetypeTableRecord
  2
BYLAYER
 70
     0
  3

 72
    65
 73
     0
 40
0.0
  0
LTYPE
  5
90
330
82
100
AcDbSymbolTableRecord
100
AcDbLinetypeTableRecord
  2
CONTINUOUS
 70
     0
  3
Solid Line
 72
    65
 73
     0
 40
0.0
  0
LTYPE
  5
A1
330
82
100
AcDbSymbolTableRecord
100
AcDbLinetypeTableRecord
  2
MCDASH1
 70
     0
  3
MiniCad+ Generated
 72
    65
 73
     2
 40
13.303452
 49
8.868839
 74
     0
 49
-4.434613
 74
     0
  0
LTYPE
  5
A2
330
82
100
AcDbSymbolTableRecord
100
AcDbLinetypeTableRecord
  2
MCDASH2
 70
     0
  3
MiniCad+ Generated
 72
    65
 73
     2
 40
3.527692
 49
2.469229
 74
     0
 49
-1.058463
 74
     0
  0
LTYPE
  5
A3
330
82
100
AcDbSymbolTableRecord
100
AcDbLinetypeTableRecord
  2
MCDASH3
 70
     0
  3
MiniCad+ Generated
 72
    65
 73
     2
 40
6.35
 49
5.291537
 74
     0
 49
-1.058463
 74
     0
  0
LTYPE
  5
A4
330
82
100
AcDbSymbolTableRecord
100
AcDbLinetypeTableRecord
  2
MCDASH4
 70
     0
  3
MiniCad+ Generated
 72
    65
 73
     2
 40
7.760767
 49
6.702692
 74
     0
 49
-1.058075
 74
     0
  0
LTYPE
  5
A5
330
82
100
AcDbSymbolTableRecord
100
AcDbLinetypeTableRecord
  2
MCDASH5
 70
     0
  3
MiniCad+ Generated
 72
    65
 73
     2
 40
1.058075
 49
0.352692
 74
     0
 49
-0.705383
 74
     0
  0
LTYPE
  5
A6
330
82
100
AcDbSymbolTableRecord
100
AcDbLinetypeTableRecord
  2
MCDASH6
 70
     0
  3
MiniCad+ Generated
 72
    65
 73
     4
 40
5.291538
 49
3.175
 74
     0
 49
-1.058075
 74
     0
 49
0.352692
 74
     0
 49
-0.705771
 74
     0
  0
LTYPE
  5
A7
330
82
100
AcDbSymbolTableRecord
100
AcDbLinetypeTableRecord
  2
MCDASH7
 70
     0
  3
MiniCad+ Generated
 72
    65
 73
     6
 40
9.525001
 49
3.175
 74
     0
 49
-1.058075
 74
     0
 49
3.175
 74
     0
 49
-1.058463
 74
     0
 49
0.352692
 74
     0
 49
-0.705771
 74
     0
  0
LTYPE
  5
A8
330
82
100
AcDbSymbolTableRecord
100
AcDbLinetypeTableRecord
  2
MCDASH8
 70
     0
  3
MiniCad+ Generated
 72
    65
 73
     6
 40
6.350001000000001
 49
3.175
 74
     0
 49
-1.058075
 74
     0
 49
0.352692
 74
     0
 49
-0.705771
 74
     0
 49
0.352692
 74
     0
 49
-0.705771
 74
     0
  0
ENDTAB
  0
TABLE
  2
LAYER
  5
7F
330
0
100
AcDbSymbolTable
 70
     4
  0
LAYER
  5
8B
330
7F
100
AcDbSymbolTableRecord
100
AcDbLayerTableRecord
  2
0
 70
     0
 62
     7
  6
CONTINUOUS
  0
LAYER
  5
AC
330
7F
100
AcDbSymbolTableRecord
100
AcDbLayerTableRecord
  2
PROFILI
 70
     0
 62
     7
  6
CONTINUOUS
  0
LAYER
  5
AD
330
7F
100
AcDbSymbolTableRecord
100
AcDbLayerTableRecord
  2
FISSAGGI
 70
     0
 62
     2
  6
CONTINUOUS
  0
LAYER
  5
AE
330
7F
100
AcDbSymbolTableRecord
100
AcDbLayerTableRecord
  2
PANNELLI
 70
     0
 62
     6
  6
CONTINUOUS
  0
ENDTAB
  0
TABLE
  2
STYLE
  5
80
330
0
100
AcDbSymbolTable
 70
     1
  0
STYLE
  5
8C
330
80
100
AcDbSymbolTableRecord
100
AcDbTextStyleTableRecord
  2
STANDARD
 70
     0
 40
0.0
 41
1.0
 50
0.0
 71
     0
 42
0.2
  3
txt
  4

  0
ENDTAB
  0
TABLE
  2
VIEW
  5
83
330
0
100
AcDbSymbolTable
 70
     0
  0
ENDTAB
  0
TABLE
  2
UCS
  5
84
330
0
100
AcDbSymbolTable
 70
     0
  0
ENDTAB
  0
TABLE
  2
APPID
  5
86
330
0
100
AcDbSymbolTable
 70
     1
  0
APPID
  5
8D
330
86
100
AcDbSymbolTableRecord
100
AcDbRegAppTableRecord
  2
ACAD
 70
     0
  0
ENDTAB
  0
TABLE
  2
DIMSTYLE
  5
87
330
0
100
AcDbSymbolTable
 70
     1
  0
DIMSTYLE
105
AA
330
87
100
AcDbSymbolTableRecord
100
AcDbDimStyleTableRecord
  2
STANDARD
 70
     0
  3

  4

  5

  6

  7

 40
1.0
 41
0.18
 42
0.0625
 43
0.38
 44
0.18
 45
0.0
 46
0.0
 47
0.0
 48
0.0
140
0.18
141
0.09
142
0.0
143
25.4
144
1.0
145
0.0
146
1.0
147
0.09
 71
     0
 72
     0
 73
     1
 74
     1
 75
     0
 76
     0
 77
     0
 78
     0
170
     0
171
     2
172
     0
173
     0
174
     0
175
     0
176
     0
177
     0
178
     0
270
     2
271
     4
272
     4
273
     2
274
     2
340
8C
275
     0
280
     0
281
     0
282
     0
283
     1
284
     0
285
     0
286
     0
287
     5
288
     0
  0
ENDTAB
  0
TABLE
  2
BLOCK_RECORD
  5
7E
330
0
100
AcDbSymbolTable
 70
     8
  0
BLOCK_RECORD
  5
94
330
7E
100
AcDbSymbolTableRecord
100
AcDbBlockTableRecord
  2
*MODEL_SPACE
  0
BLOCK_RECORD
  5
91
330
7E
100
AcDbSymbolTableRecord
100
AcDbBlockTableRecord
  2
*PAPER_SPACE
  0
BLOCK_RECORD
  5
99
330
7E
100
AcDbSymbolTableRecord
100
AcDbBlockTableRecord
  2
$ARROW1$
  0
BLOCK_RECORD
  5
9A
330
7E
100
AcDbSymbolTableRecord
100
AcDbBlockTableRecord
  2
$ARROW2$
  0
BLOCK_RECORD
  5
9B
330
7E
100
AcDbSymbolTableRecord
100
AcDbBlockTableRecord
  2
$ARROW3$
  0
BLOCK_RECORD
  5
9C
330
7E
100
AcDbSymbolTableRecord
100
AcDbBlockTableRecord
  2
$ARROW4$
  0
BLOCK_RECORD
  5
9D
330
7E
100
AcDbSymbolTableRecord
100
AcDbBlockTableRecord
  2
$ARROW5$
  0
BLOCK_RECORD
  5
9E
330
7E
100
AcDbSymbolTableRecord
100
AcDbBlockTableRecord
  2
BORDER
  0
BLOCK_RECORD
  5
9F
330
7E
100
AcDbSymbolTableRecord
100
AcDbBlockTableRecord
  2
21AA
  0
BLOCK_RECORD
  5
A0
330
7E
100
AcDbSymbolTableRecord
100
AcDbBlockTableRecord
  2
21BB
  0
ENDTAB
  0
ENDSEC
  0
SECTION
  2
BLOCKS
  0
BLOCK
  5
B1
330
94
100
AcDbEntity
  8
0
100
AcDbBlockBegin
  2
*MODEL_SPACE
 70
     0
 71
     0
 10
0.0
 20
0.0
 30
0.0
  3
*MODEL_SPACE
  1

  0
ENDBLK
  5
B2
330
94
100
AcDbEntity
  8
0
100
AcDbBlockEnd
  0
BLOCK
  5
AF
330
91
100
AcDbEntity
 67
     1
  8
0
100
AcDbBlockBegin
  2
*PAPER_SPACE
 70
     0
 71
     0
 10
0.0
 20
0.0
 30
0.0
  3
*PAPER_SPACE
  1

  0
ENDBLK
  5
B0
330
91
100
AcDbEntity
 67
     1
  8
0
100
AcDbBlockEnd
  0
BLOCK
  5
2E
330
99
100
AcDbEntity
  8
0
100
AcDbBlockBegin
  2
$ARROW1$
 70
     0
 71
     0
 10
0.0
 20
0.0
 30
0.0
  3
$ARROW1$
  1

  0
SOLID
  5
30
330
99
100
AcDbEntity
  8
0
 62
     0
100
AcDbTrace
 10
-25.4
 20
4.318
 30
0.0
 11
-25.4
 21
-4.318
 31
0.0
 12
0.0
 22
0.0
 32
0.0
 13
0.0
 23
0.0
 33
0.0
  0
ENDBLK
  5
31
330
99
100
AcDbEntity
  8
0
100
AcDbBlockEnd
  0
BLOCK
  5
32
330
9A
100
AcDbEntity
  8
0
100
AcDbBlockBegin
  2
$ARROW2$
 70
     0
 71
     0
 10
0.0
 20
0.0
 30
0.0
  3
$ARROW2$
  1

  0
SOLID
  5
34
330
9A
100
AcDbEntity
  8
0
 62
     0
100
AcDbTrace
 10
-25.4
 20
12.7
 30
0.0
 11
-25.4
 21
-12.7
 31
0.0
 12
0.0
 22
0.0
 32
0.0
 13
0.0
 23
0.0
 33
0.0
  0
ENDBLK
  5
35
330
9A
100
AcDbEntity
  8
0
100
AcDbBlockEnd
  0
BLOCK
  5
36
330
9B
100
AcDbEntity
  8
0
100
AcDbBlockBegin
  2
$ARROW3$
 70
     0
 71
     0
 10
0.0
 20
0.0
 30
0.0
  3
$ARROW3$
  1

  0
LWPOLYLINE
  5
38
330
9B
100
AcDbEntity
  8
0
  6
BYBLOCK
 62
     0
100
AcDbPolyline
 90
        2
 70
     1
 43
0.5
 10
-6.35
 20
0.0
 42
1.0
 10
6.35
 20
0.0
 42
1.0
  0
ENDBLK
  5
3C
330
9B
100
AcDbEntity
  8
0
100
AcDbBlockEnd
  0
BLOCK
  5
3D
330
9C
100
AcDbEntity
  8
0
100
AcDbBlockBegin
  2
$ARROW4$
 70
     0
 71
     0
 10
0.0
 20
0.0
 30
0.0
  3
$ARROW4$
  1

  0
LINE
  5
3F
330
9C
100
AcDbEntity
  8
0
  6
BYBLOCK
 62
     0
100
AcDbLine
 10
12.7
 20
12.7
 30
0.0
 11
-12.7
 21
-12.7
 31
0.0
  0
ENDBLK
  5
40
330
9C
100
AcDbEntity
  8
0
100
AcDbBlockEnd
  0
BLOCK
  5
41
330
9D
100
AcDbEntity
  8
0
100
AcDbBlockBegin
  2
$ARROW5$
 70
     0
 71
     0
 10
0.0
 20
0.0
 30
0.0
  3
$ARROW5$
  1

  0
LINE
  5
43
330
9D
100
AcDbEntity
  8
0
  6
BYBLOCK
 62
     0
100
AcDbLine
 10
12.7
 20
12.7
 30
0.0
 11
-12.7
 21
-12.7
 31
0.0
  0
LINE
  5
44
330
9D
100
AcDbEntity
  8
0
  6
BYBLOCK
 62
     0
100
AcDbLine
 10
-12.7
 20
12.7
 30
0.0
 11
12.7
 21
-12.7
 31
0.0
  0
ENDBLK
  5
45
330
9D
100
AcDbEntity
  8
0
100
AcDbBlockEnd
  0
BLOCK
  5
46
330
9E
100
AcDbEntity
  8
0
100
AcDbBlockBegin
  2
BORDER
 70
     0
 71
     0
 10
0.0
 20
0.0
 30
0.0
  3
BORDER
  1

  0
LINE
  5
48
330
9E
100
AcDbEntity
  8
0
 62
     6
100
AcDbLine
 10
0.0
 20
0.0
 30
0.0
 11
1.0
 21
0.0
 31
0.0
  0
LINE
  5
49
330
9E
100
AcDbEntity
  8
0
 62
     6
100
AcDbLine
 10
1.0
 20
0.0
 30
0.0
 11
1.0
 21
1.0
 31
0.0
  0
LINE
  5
4A
330
9E
100
AcDbEntity
  8
0
 62
     6
100
AcDbLine
 10
1.0
 20
1.0
 30
0.0
 11
0.0
 21
1.0
 31
0.0
  0
LINE
  5
4B
330
9E
100
AcDbEntity
  8
0
 62
     6
100
AcDbLine
 10
0.0
 20
1.0
 30
0.0
 11
0.0
 21
0.0
 31
0.0
  0
ENDBLK
  5
4C
330
9E
100
AcDbEntity
  8
0
100
AcDbBlockEnd
  0
BLOCK
  5
4D
330
9F
100
AcDbEntity
  8
0
100
AcDbBlockBegin
  2
21AA
 70
     0
 71
     0
 10
0.0
 20
0.0
 30
0.0
  3
21AA
  1

  0
LINE
  5
4F
330
9F
100
AcDbEntity
  8
0
 62
     1
100
AcDbLine
 10
4.356071
 20
4.82438
 30
0.0
 11
8.807523
 21
7.394427
 31
0.0
  0
LINE
  5
50
330
9F
100
AcDbEntity
  8
0
 62
     1
100
AcDbLine
 10
6.356071
 20
1.360278
 30
0.0
 11
10.807523
 21
3.930325
 31
0.0
  0
LINE
  5
51
330
9F
100
AcDbEntity
  8
0
 62
     1
100
AcDbLine
 10
6.356071
 20
-1.360278
 30
0.0
 11
10.807523
 21
-3.930325
 31
0.0
  0
LINE
  5
52
330
9F
100
AcDbEntity
  8
0
 62
     1
100
AcDbLine
 10
4.356071
 20
-4.82438
 30
0.0
 11
8.807523
 21
-7.394427
 31
0.0
  0
LINE
  5
53
330
9F
100
AcDbEntity
  8
0
 62
     1
100
AcDbLine
 10
2.0
 20
-6.184658
 30
0.0
 11
2.0
 21
-11.324752
 31
0.0
  0
LINE
  5
54
330
9F
100
AcDbEntity
  8
0
 62
     1
100
AcDbLine
 10
-2.0
 20
-6.184658
 30
0.0
 11
-2.0
 21
-11.324752
 31
0.0
  0
LINE
  5
55
330
9F
100
AcDbEntity
  8
0
 62
     1
100
AcDbLine
 10
-4.356071
 20
-4.82438
 30
0.0
 11
-8.807523
 21
-7.394427
 31
0.0
  0
LINE
  5
56
330
9F
100
AcDbEntity
  8
0
 62
     1
100
AcDbLine
 10
-6.356071
 20
-1.360278
 30
0.0
 11
-10.807523
 21
-3.930325
 31
0.0
  0
LINE
  5
57
330
9F
100
AcDbEntity
  8
0
 62
     1
100
AcDbLine
 10
-6.356071
 20
1.360278
 30
0.0
 11
-10.807523
 21
3.930325
 31
0.0
  0
LINE
  5
58
330
9F
100
AcDbEntity
  8
0
 62
     1
100
AcDbLine
 10
-4.356071
 20
4.82438
 30
0.0
 11
-8.807523
 21
7.394427
 31
0.0
  0
LINE
  5
59
330
9F
100
AcDbEntity
  8
0
 62
     1
100
AcDbLine
 10
-2.0
 20
6.184658
 30
0.0
 11
-2.0
 21
11.324752
 31
0.0
  0
LINE
  5
5A
330
9F
100
AcDbEntity
  8
0
 62
     1
100
AcDbLine
 10
2.0
 20
6.184658
 30
0.0
 11
2.0
 21
11.324752
 31
0.0
  0
CIRCLE
  5
5B
330
9F
100
AcDbEntity
  8
0
 62
     1
100
AcDbCircle
 10
0.0
 20
0.0
 30
0.0
 40
11.5
  0
CIRCLE
  5
5C
330
9F
100
AcDbEntity
  8
0
 62
     1
100
AcDbCircle
 10
0.0
 20
0.0
 30
0.0
 40
4.75
  0
CIRCLE
  5
5D
330
9F
100
AcDbEntity
  8
0
 62
     1
100
AcDbCircle
 10
0.0
 20
0.0
 30
0.0
 40
6.5
  0
CIRCLE
  5
5E
330
9F
100
AcDbEntity
  8
0
 62
     1
100
AcDbCircle
 10
0.0
 20
0.0
 30
0.0
 40
12.5
  0
ENDBLK
  5
5F
330
9F
100
AcDbEntity
  8
0
100
AcDbBlockEnd
  0
BLOCK
  5
60
330
A0
100
AcDbEntity
  8
0
100
AcDbBlockBegin
  2
21BB
 70
     0
 71
     0
 10
0.0
 20
0.0
 30
0.0
  3
21BB
  1

  0
LINE
  5
62
330
A0
100
AcDbEntity
  8
0
  6
MCDASH1
100
AcDbLine
 10
0.0
 20
-4.75
 30
0.0
 11
11.0
 21
-4.75
 31
0.0
  0
ARC
  5
63
330
A0
100
AcDbEntity
  8
0
 62
     1
100
AcDbCircle
 10
5.5
 20
3.125
 30
0.0
 40
15.625
100
AcDbArc
 50
249.390305
 51
290.609695
  0
ARC
  5
64
330
A0
100
AcDbEntity
  8
0
 62
     1
100
AcDbCircle
 10
5.5
 20
-3.125
 30
0.0
 40
15.625
100
AcDbArc
 50
69.390305
 51
110.609695
  0
LINE
  5
65
330
A0
100
AcDbEntity
  8
0
  6
MCDASH1
100
AcDbLine
 10
0.0
 20
4.75
 30
0.0
 11
11.0
 21
4.75
 31
0.0
  0
LINE
  5
66
330
A0
100
AcDbEntity
  8
0
 62
     1
100
AcDbLine
 10
0.0
 20
-11.5
 30
0.0
 11
0.0
 21
11.5
 31
0.0
  0
LINE
  5
67
330
A0
100
AcDbEntity
  8
0
 62
     1
100
AcDbLine
 10
11.0
 20
-11.5
 30
0.0
 11
11.0
 21
11.5
 31
0.0
  0
ENDBLK
  5
68
330
A0
100
AcDbEntity
  8
0
100
AcDbBlockEnd
  0
ENDSEC
  0
SECTION
  2
ENTITIES
  0
INSERT
  5
69
330
94
100
AcDbEntity
  8
0
100
AcDbBlockReference
  2
21AA
 10
-14.25
 20
0.0
 30
0.0
  0
INSERT
  5
6A
330
94
100
AcDbEntity
  8
0
100
AcDbBlockReference
  2
21BB
 10
15.75
 20
0.0
 30
0.0
  0
ENDSEC
  0
SECTION
  2
OBJECTS
  0
DICTIONARY
  5
89
330
0
100
AcDbDictionary
  3
ACAD_GROUP
350
8A
  3
ACAD_LAYOUT
350
B8
  3
ACAD_MLINESTYLE
350
97
  3
ACDBHEADERROUNDTRIPXREC
350
BB
  3
ACDBVARIABLEDICTIONARY
350
B3
  0
DICTIONARY
  5
DA
330
B7
100
AcDbDictionary
280
     1
  3
ACAD_XREC_ROUNDTRIP
360
DB
  0
DICTIONARY
  5
8A
102
{ACAD_REACTORS
330
89
102
}
330
89
100
AcDbDictionary
  0
DICTIONARY
  5
B8
102
{ACAD_REACTORS
330
89
102
}
330
89
100
AcDbDictionary
  0
DICTIONARY
  5
97
102
{ACAD_REACTORS
330
89
102
}
330
89
100
AcDbDictionary
  3
STANDARD
350
98
  0
DICTIONARY
  5
BB
102
{ACAD_REACTORS
330
89
102
}
330
89
100
AcDbDictionary
  3
CEPSNTYPE
350
C3
  3
DIMSTYLEDATA
350
D9
  3
FINGERPRINTGUID
350
C4
  3
HYPERLINKBASE
350
BE
  3
INSUNITS
350
C2
  3
LAYOUTDICT
350
C0
  3
LWETCUNION
350
C1
  3
PSVPSCALE
350
C6
  3
PUCSBASE
350
C9
  3
PUCSORGBACK
350
CF
  3
PUCSORGBOTTOM
350
CB
  3
PUCSORGFRONT
350
CE
  3
PUCSORGLEFT
350
CC
  3
PUCSORGRIGHT
350
CD
  3
PUCSORGTOP
350
CA
  3
PUCSORTHOREF
350
C7
  3
PUCSORTHOVIEW
350
C8
  3
STYLESHEET
350
BF
  3
TSTACKALIGN
350
BC
  3
TSTACKSIZE
350
BD
  3
UCSBASE
350
D2
  3
UCSORGBACK
350
D8
  3
UCSORGBOTTOM
350
D4
  3
UCSORGFRONT
350
D7
  3
UCSORGLEFT
350
D5
  3
UCSORGRIGHT
350
D6
  3
UCSORGTOP
350
D3
  3
UCSORTHOREF
350
D0
  3
UCSORTHOVIEW
350
D1
  3
VERSIONGUID
350
C5
  0
DICTIONARY
  5
B3
102
{ACAD_REACTORS
330
89
102
}
330
89
100
AcDbDictionary
  3
DIMADEC
350
B4
  0
XRECORD
  5
DB
102
{ACAD_REACTORS
330
DA
102
}
330
DA
100
AcDbXrecord
102
UCS
 74
     0
 71
     1
 10
0.0
 20
0.0
 30
0.0
 10
1.0
 20
0.0
 30
0.0
 10
0.0
 20
1.0
 30
0.0
146
0.0
 79
     0
102
VIEW
281
     0
  0
MLINESTYLE
  5
98
102
{ACAD_REACTORS
330
97
102
}
330
97
100
AcDbMlineStyle
  2
STANDARD
 70
     0
  3

 62
   256
 51
90.0
 52
90.0
 71
     2
 49
0.5
 62
   256
  6
BYLAYER
 49
-0.5
 62
   256
  6
BYLAYER
  0
XRECORD
  5
C3
102
{ACAD_REACTORS
330
BB
102
}
330
BB
100
AcDbXrecord
 90
        0
  0
XRECORD
  5
D9
102
{ACAD_REACTORS
330
BB
102
}
330
BB
100
AcDbXrecord
1000
DSTYLE
1002
{
1070
   279
 70
     2
1070
   340
340
8C
1002
}
  0
XRECORD
  5
C4
102
{ACAD_REACTORS
330
BB
102
}
330
BB
100
AcDbXrecord
  1
{FAEB1C30-E019-11D5-929B-00C0DF256EC4}
  0
XRECORD
  5
BE
102
{ACAD_REACTORS
330
BB
102
}
330
BB
100
AcDbXrecord
  1

  0
XRECORD
  5
C2
102
{ACAD_REACTORS
330
BB
102
}
330
BB
100
AcDbXrecord
 90
        0
  0
XRECORD
  5
C0
102
{ACAD_REACTORS
330
BB
102
}
330
BB
100
AcDbXrecord
340
B8
  0
XRECORD
  5
C1
102
{ACAD_REACTORS
330
BB
102
}
330
BB
100
AcDbXrecord
 90
    10781
  0
XRECORD
  5
C6
102
{ACAD_REACTORS
330
BB
102
}
330
BB
100
AcDbXrecord
 40
0.0
  0
XRECORD
  5
C9
102
{ACAD_REACTORS
330
BB
102
}
330
BB
100
AcDbXrecord
340
0
  0
XRECORD
  5
CF
102
{ACAD_REACTORS
330
BB
102
}
330
BB
100
AcDbXrecord
 10
0.0
 20
0.0
 30
0.0
  0
XRECORD
  5
CB
102
{ACAD_REACTORS
330
BB
102
}
330
BB
100
AcDbXrecord
 10
0.0
 20
0.0
 30
0.0
  0
XRECORD
  5
CE
102
{ACAD_REACTORS
330
BB
102
}
330
BB
100
AcDbXrecord
 10
0.0
 20
0.0
 30
0.0
  0
XRECORD
  5
CC
102
{ACAD_REACTORS
330
BB
102
}
330
BB
100
AcDbXrecord
 10
0.0
 20
0.0
 30
0.0
  0
XRECORD
  5
CD
102
{ACAD_REACTORS
330
BB
102
}
330
BB
100
AcDbXrecord
 10
0.0
 20
0.0
 30
0.0
  0
XRECORD
  5
CA
102
{ACAD_REACTORS
330
BB
102
}
330
BB
100
AcDbXrecord
 10
0.0
 20
0.0
 30
0.0
  0
XRECORD
  5
C7
102
{ACAD_REACTORS
330
BB
102
}
330
BB
100
AcDbXrecord
340
0
  0
XRECORD
  5
C8
102
{ACAD_REACTORS
330
BB
102
}
330
BB
100
AcDbXrecord
 70
     0
  0
XRECORD
  5
BF
102
{ACAD_REACTORS
330
BB
102
}
330
BB
100
AcDbXrecord
  1

  0
XRECORD
  5
BC
102
{ACAD_REACTORS
330
BB
102
}
330
BB
100
AcDbXrecord
 90
        1
  0
XRECORD
  5
BD
102
{ACAD_REACTORS
330
BB
102
}
330
BB
100
AcDbXrecord
 90
       70
  0
XRECORD
  5
D2
102
{ACAD_REACTORS
330
BB
102
}
330
BB
100
AcDbXrecord
340
0
  0
XRECORD
  5
D8
102
{ACAD_REACTORS
330
BB
102
}
330
BB
100
AcDbXrecord
 10
0.0
 20
0.0
 30
0.0
  0
XRECORD
  5
D4
102
{ACAD_REACTORS
330
BB
102
}
330
BB
100
AcDbXrecord
 10
0.0
 20
0.0
 30
0.0
  0
XRECORD
  5
D7
102
{ACAD_REACTORS
330
BB
102
}
330
BB
100
AcDbXrecord
 10
0.0
 20
0.0
 30
0.0
  0
XRECORD
  5
D5
102
{ACAD_REACTORS
330
BB
102
}
330
BB
100
AcDbXrecord
 10
0.0
 20
0.0
 30
0.0
  0
XRECORD
  5
D6
102
{ACAD_REACTORS
330
BB
102
}
330
BB
100
AcDbXrecord
 10
0.0
 20
0.0
 30
0.0
  0
XRECORD
  5
D3
102
{ACAD_REACTORS
330
BB
102
}
330
BB
100
AcDbXrecord
 10
0.0
 20
0.0
 30
0.0
  0
XRECORD
  5
D0
102
{ACAD_REACTORS
330
BB
102
}
330
BB
100
AcDbXrecord
340
0
  0
XRECORD
  5
D1
102
{ACAD_REACTORS
330
BB
102
}
330
BB
100
AcDbXrecord
 70
     0
  0
XRECORD
  5
C5
102
{ACAD_REACTORS
330
BB
102
}
330
BB
100
AcDbXrecord
  1
{FAEB1C32-E019-11D5-929B-00C0DF256EC4}
  0
DICTIONARYVAR
  5
B4
102
{ACAD_REACTORS
330
B3
102
}
330
B3
100
DictionaryVariables
280
     0
  1
0
  0
ENDSEC
  0
EOF
