999
DXF file: W:\Tecnico\Pubblico\Pubblico di Antonio\Per_Camparini\Disegni1873\catena1873-k473gsd.dxf
999
Pro/ENGINEER 2002030 by Parametric Technology Corporation
0
SECTION
2
HEADER
9
$ACADVER
1
AC1014
9
$EXTMAX
10
420.0000000000
20
297.0000000000
9
$EXTMIN
10
0.0000000000
20
0.0000000000
9
$LIMMIN
10
0.0000000000
20
0.0000000000
9
$LIMMAX
10
420.0000000000
20
297.0000000000
9
$VIEWCTR
10
210.0000000000
20
148.5000000000
9
$VIEWSIZE
40
297.0000000000
9
$CLAYER
8
0
9
$LTSCALE
40
23.1000000000
9
$CELTYPE
6
BYLAYER
9
$DIMSCALE
40
1
9
$DIMASZ
40
3.5000000000
9
$DIMEXO
40
2.6250000000
9
$DIMDLI
40
15.9600000000
9
$DIMEXE
40
7.5600000000
9
$DIMCEN
40
3.7800000000
9
$DIMLFAC
40
1.0000000000
9
$DIMTXT
40
3.5000000000
9
$DIMTOL
70
1
9
$DIMLIM
70
0
9
$DIMTFAC
40
1.0000000000
9
$DIMTP
40
0.0010000000
9
$DIMTM
40
0.0010000000
9
$HANDSEED
5
5A5
0
ENDSEC
0
SECTION
2
CLASSES
0
ENDSEC
0
SECTION
2
TABLES
0
TABLE
2
VPORT
5
8
100
AcDbSymbolTable
70
2
0
VPORT
5
1F4
100
AcDbSymbolTableRecord
100
AcDbViewportTableRecord
2
*ACTIVE
70
0
10
0.0
20
0.0
11
1.0
21
1.0
12
210.0000000000
22
148.5000000000
13
0.0
23
0.0
14
1.0
24
1.0
15
0.0
25
0.0
16
0.0
26
0.0
36
1.0
17
0.0
27
0.0
37
0.0
40
297.0000000000
41
1.4141414141
42
50.0
43
0.0
44
0.0
50
0.0
51
0.0
71
0
72
100
73
1
74
1
75
0
76
0
77
0
78
0
0
ENDTAB
0
TABLE
2
LTYPE
5
5
100
AcDbSymbolTable
70
6
0
LTYPE
5
14
100
AcDbSymbolTableRecord
100
AcDbLinetypeTableRecord
2
BYBLOCK
70
0
3

72
65
73
0
40
0.0
0
LTYPE
5
15
100
AcDbSymbolTableRecord
100
AcDbLinetypeTableRecord
2
BYLAYER
70
0
3

72
65
73
0
40
0.0
0
LTYPE
5
16
100
AcDbSymbolTableRecord
100
AcDbLinetypeTableRecord
2
CONTINUOUS
70
64
3
Solid line
72
65
73
0
40
0
0
LTYPE
5
1F5
100
AcDbSymbolTableRecord
100
AcDbLinetypeTableRecord
2
CENTER
70
64
3
____ _ ____ _ ____ _ ____ _ ____ _ ____ _ ____
72
65
73
4
40
0.6
49
0.375
74
0
49
-0.075
74
0
49
0.075
74
0
49
-0.075
74
0
0
LTYPE
5
1F6
100
AcDbSymbolTableRecord
100
AcDbLinetypeTableRecord
2
HIDDEN
70
64
3
- - - - - - - - - - - - - - - - - - - -
72
65
73
2
40
0.2
49
0.1
74
0
49
-0.1
74
0
0
LTYPE
5
1F7
100
AcDbSymbolTableRecord
100
AcDbLinetypeTableRecord
2
PHANTOM
70
64
3
_____ _ _ _____ _ _ _____ _ _ _____
72
65
73
6
40
0.8
49
0.45
74
0
49
-0.05
74
0
49
0.1
74
0
49
-0.05
74
0
49
0.1
74
0
49
-0.05
74
0
0
LTYPE
5
1F8
100
AcDbSymbolTableRecord
100
AcDbLinetypeTableRecord
2
DOT
70
64
3
. . . . . . . . . . . . . . . . . . . .
72
65
73
2
40
0.2
49
0.1
74
0
49
-0.1
74
0
0
LTYPE
5
1F9
100
AcDbSymbolTableRecord
100
AcDbLinetypeTableRecord
2
DASHED
70
64
3
- - - - - - - - - - - - - - - - - - - -
72
65
73
2
40
0.2
49
0.1
74
0
49
-0.1
74
0
0
ENDTAB
0
TABLE
2
LAYER
5
2
100
AcDbSymbolTable
70
36
0
LAYER
5
10
100
AcDbSymbolTableRecord
100
AcDbLayerTableRecord
2
0
70
0
62
7
6
CONTINUOUS
0
LAYER
5
1FA
100
AcDbSymbolTableRecord
100
AcDbLayerTableRecord
2
DEFAULT_1
70
0
62
7
6
CENTER
0
LAYER
5
1FB
100
AcDbSymbolTableRecord
100
AcDbLayerTableRecord
2
DEFAULT_2
70
0
62
8
6
HIDDEN
0
LAYER
5
1FC
100
AcDbSymbolTableRecord
100
AcDbLayerTableRecord
2
DEFAULT_3
70
0
62
7
6
PHANTOM
0
ENDTAB
0
TABLE
2
STYLE
5
3
100
AcDbSymbolTable
70
1
0
STYLE
5
11
100
AcDbSymbolTableRecord
100
AcDbTextStyleTableRecord
2
STANDARD
70
0
40
0.0
41
0.7143000000
50
0.0
71
0
42
0.0
3
txt
4

0
ENDTAB
0
TABLE
2
VIEW
5
6
100
AcDbSymbolTable
70
0
0
ENDTAB
0
TABLE
2
UCS
5
7
100
AcDbSymbolTable
70
0
0
ENDTAB
0
TABLE
2
APPID
5
9
100
AcDbSymbolTable
70
1
0
APPID
5
1FD
100
AcDbSymbolTableRecord
100
AcDbRegAppTableRecord
2
ACAD
70
0
0
ENDTAB
0
TABLE
2
DIMSTYLE
5
A
100
AcDbSymbolTable
70
1
0
DIMSTYLE
105
1FE
100
AcDbSymbolTableRecord
100
AcDbDimStyleTableRecord
2
STANDARD
70
0
3

4

5

6

7

40
1.0
41
3.5000000000
42
0.0625
43
0.38
44
0.18
45
0.0
46
0.0
47
0.0010000000
48
0.0010000000
140
3.5000000000
141
0.09
142
0.0
143
25.4
144
1.0000000000
145
0.0
146
1.0000000000
147
0.09
71
1
72
0
73
0
74
0
75
0
76
0
77
1
78
8
170
0
171
2
172
0
173
0
174
0
175
0
176
0
177
0
178
5
270
2
271
3
272
3
273
2
274
2
340
11
275
0
280
0
281
0
282
0
283
1
284
8
285
0
286
0
287
3
288
0
0
ENDTAB
0
TABLE
2
BLOCK_RECORD
5
1
100
AcDbSymbolTable
70
0
0
BLOCK_RECORD
5
1B
100
AcDbSymbolTableRecord
100
AcDbBlockTableRecord
2
*MODEL_SPACE
0
BLOCK_RECORD
5
1C
100
AcDbSymbolTableRecord
100
AcDbBlockTableRecord
2
*PAPER_SPACE
0
ENDTAB
0
ENDSEC
0
SECTION
2
BLOCKS
0
BLOCK
5
1E
100
AcDbEntity
8
0
100
AcDbBlockBegin
2
*MODEL_SPACE
70
0
10
0.0
20
0.0
30
0.0
3
*MODEL_SPACE
1

0
ENDBLK
5
1F
100
AcDbEntity
8
0
100
AcDbBlockEnd
0
BLOCK
5
20
100
AcDbEntity
8
0
100
AcDbBlockBegin
2
*PAPER_SPACE
70
0
10
0.0
20
0.0
30
0.0
3
*PAPER_SPACE
1

0
ENDBLK
5
21
100
AcDbEntity
8
0
100
AcDbBlockEnd
0
ENDSEC
0
SECTION
2
ENTITIES
0
LINE
5
1FF
100
AcDbEntity
8
0
100
AcDbLine
62
7
6
CONTINUOUS
10
0.0000000000
20
0.0000000000
11
0.0000000000
21
297.0000000000
0
LINE
5
200
100
AcDbEntity
8
0
100
AcDbLine
62
7
6
CONTINUOUS
10
0.0000000000
20
0.0000000000
11
420.0000000000
21
0.0000000000
0
LINE
5
201
100
AcDbEntity
8
0
100
AcDbLine
62
7
6
CONTINUOUS
10
0.0000000000
20
297.0000000000
11
420.0000000000
21
297.0000000000
0
LINE
5
202
100
AcDbEntity
8
0
100
AcDbLine
62
7
6
CONTINUOUS
10
420.0000000000
20
0.0000000000
11
420.0000000000
21
297.0000000000
0
LINE
5
203
100
AcDbEntity
8
0
100
AcDbLine
62
7
6
CONTINUOUS
10
57.4979018049
20
194.3812747372
11
57.4979018049
21
209.6459480972
0
LINE
5
204
100
AcDbEntity
8
0
100
AcDbLine
6
CONTINUOUS
10
58.4782918049
20
209.3124050005
11
58.4782918049
21
197.4204837372
0
LINE
5
205
100
AcDbEntity
8
0
100
AcDbLine
62
7
6
CONTINUOUS
10
63.3577763499
20
214.0374657356
11
63.5027905549
21
197.4204837372
0
LINE
5
206
100
AcDbEntity
8
0
100
AcDbLine
6
CONTINUOUS
10
60.3370839361
20
194.1900044219
11
60.3364264522
21
196.4400937372
0
POLYLINE
5
207
100
AcDbEntity
8
0
100
AcDb2dPolyline
6
CONTINUOUS
66
1
70
0
0
VERTEX
5
208
100
AcDbEntity
8
0
100
AcDbVertex
6
CONTINUOUS
100
AcDb2dVertex
10
60.3706415697
20
193.4008847372
0
VERTEX
5
209
100
AcDbEntity
8
0
100
AcDbVertex
6
CONTINUOUS
100
AcDb2dVertex
10
60.3639667775
20
193.4197212838
0
VERTEX
5
20A
100
AcDbEntity
8
0
100
AcDbVertex
6
CONTINUOUS
100
AcDb2dVertex
10
60.3575484055
20
193.4755079126
0
VERTEX
5
20B
100
AcDbEntity
8
0
100
AcDbVertex
6
CONTINUOUS
100
AcDb2dVertex
10
60.3516331083
20
193.5661020676
0
VERTEX
5
20C
100
AcDbEntity
8
0
100
AcDbVertex
6
CONTINUOUS
100
AcDb2dVertex
10
60.3464482215
20
193.6880234516
0
VERTEX
5
20D
100
AcDbEntity
8
0
100
AcDbVertex
6
CONTINUOUS
100
AcDb2dVertex
10
60.3421930193
20
193.8365878368
0
VERTEX
5
20E
100
AcDbEntity
8
0
100
AcDbVertex
6
CONTINUOUS
100
AcDb2dVertex
10
60.3390310739
20
194.0060861830
0
VERTEX
5
20F
100
AcDbEntity
8
0
100
AcDbVertex
6
CONTINUOUS
100
AcDb2dVertex
10
60.3370839361
20
194.1900044219
0
SEQEND
5
210
100
AcDbEntity
8
0
0
LINE
5
211
100
AcDbEntity
8
0
100
AcDbLine
62
7
6
CONTINUOUS
10
63.7977698049
20
197.4204837372
11
63.7977698049
21
233.4204837372
0
POLYLINE
5
212
100
AcDbEntity
8
0
100
AcDb2dPolyline
6
CONTINUOUS
66
1
70
0
0
VERTEX
5
213
100
AcDbEntity
8
0
100
AcDbVertex
6
CONTINUOUS
100
AcDb2dVertex
10
60.3706415697
20
197.4204837372
0
VERTEX
5
214
100
AcDbEntity
8
0
100
AcDbVertex
6
CONTINUOUS
100
AcDb2dVertex
10
60.3639665317
20
197.4016458183
0
VERTEX
5
215
100
AcDbEntity
8
0
100
AcDbVertex
6
CONTINUOUS
100
AcDb2dVertex
10
60.3575480119
20
197.3458559924
0
VERTEX
5
216
100
AcDbEntity
8
0
100
AcDbVertex
6
CONTINUOUS
100
AcDb2dVertex
10
60.3516326706
20
197.2552582311
0
VERTEX
5
217
100
AcDbEntity
8
0
100
AcDbVertex
6
CONTINUOUS
100
AcDb2dVertex
10
60.3464478310
20
197.1333341555
0
VERTEX
5
218
100
AcDbEntity
8
0
100
AcDbVertex
6
CONTINUOUS
100
AcDb2dVertex
10
60.3421927437
20
196.9847692392
0
VERTEX
5
219
100
AcDbEntity
8
0
100
AcDbVertex
6
CONTINUOUS
100
AcDb2dVertex
10
60.3390309281
20
196.8152727486
0
VERTEX
5
21A
100
AcDbEntity
8
0
100
AcDbVertex
6
CONTINUOUS
100
AcDb2dVertex
10
60.3370838896
20
196.6313583387
0
VERTEX
5
21B
100
AcDbEntity
8
0
100
AcDbVertex
6
CONTINUOUS
100
AcDb2dVertex
10
60.3364264522
20
196.4400937372
0
SEQEND
5
21C
100
AcDbEntity
8
0
0
POLYLINE
5
21D
100
AcDbEntity
8
0
100
AcDb2dPolyline
6
CONTINUOUS
66
1
70
0
0
VERTEX
5
21E
100
AcDbEntity
8
0
100
AcDbVertex
6
CONTINUOUS
100
AcDb2dVertex
10
89.1154793049
20
169.5479960372
0
VERTEX
5
21F
100
AcDbEntity
8
0
100
AcDbVertex
6
CONTINUOUS
100
AcDb2dVertex
10
89.1343172238
20
169.5189002185
0
VERTEX
5
220
100
AcDbEntity
8
0
100
AcDbVertex
6
CONTINUOUS
100
AcDb2dVertex
10
89.1901070500
20
169.4909225357
0
VERTEX
5
221
100
AcDbEntity
8
0
100
AcDbVertex
6
CONTINUOUS
100
AcDb2dVertex
10
89.2807048117
20
169.4651381556
0
VERTEX
5
222
100
AcDbEntity
8
0
100
AcDbVertex
6
CONTINUOUS
100
AcDb2dVertex
10
89.4026288877
20
169.4425379575
0
VERTEX
5
223
100
AcDbEntity
8
0
100
AcDbVertex
6
CONTINUOUS
100
AcDb2dVertex
10
89.5511938041
20
169.4239904542
0
VERTEX
5
224
100
AcDbEntity
8
0
100
AcDbVertex
6
CONTINUOUS
100
AcDb2dVertex
10
89.7206902946
20
169.4102084159
0
VERTEX
5
225
100
AcDbEntity
8
0
100
AcDbVertex
6
CONTINUOUS
100
AcDb2dVertex
10
89.9046047041
20
169.4017214786
0
VERTEX
5
226
100
AcDbEntity
8
0
100
AcDbVertex
6
CONTINUOUS
100
AcDb2dVertex
10
90.0958693049
20
169.3988557906
0
SEQEND
5
227
100
AcDbEntity
8
0
0
POLYLINE
5
228
100
AcDbEntity
8
0
100
AcDb2dPolyline
6
CONTINUOUS
66
1
70
0
0
VERTEX
5
229
100
AcDbEntity
8
0
100
AcDbVertex
6
CONTINUOUS
100
AcDb2dVertex
10
89.1154793049
20
171.0632344856
0
VERTEX
5
22A
100
AcDbEntity
8
0
100
AcDbVertex
6
CONTINUOUS
100
AcDb2dVertex
10
89.1274008442
20
171.0400470724
0
VERTEX
5
22B
100
AcDbEntity
8
0
100
AcDbVertex
6
CONTINUOUS
100
AcDb2dVertex
10
89.1630113287
20
171.0173596238
0
VERTEX
5
22C
100
AcDbEntity
8
0
100
AcDbVertex
6
CONTINUOUS
100
AcDb2dVertex
10
89.2216897578
20
170.9957193450
0
VERTEX
5
22D
100
AcDbEntity
8
0
100
AcDbVertex
6
CONTINUOUS
100
AcDb2dVertex
10
89.3020341589
20
170.9757152278
0
VERTEX
5
22E
100
AcDbEntity
8
0
100
AcDbVertex
6
CONTINUOUS
100
AcDb2dVertex
10
89.4019069805
20
170.9578863393
0
VERTEX
5
22F
100
AcDbEntity
8
0
100
AcDbVertex
6
CONTINUOUS
100
AcDb2dVertex
10
89.5189119138
20
170.9426547761
0
VERTEX
5
230
100
AcDbEntity
8
0
100
AcDbVertex
6
CONTINUOUS
100
AcDb2dVertex
10
89.6501970489
20
170.9303948961
0
VERTEX
5
231
100
AcDbEntity
8
0
100
AcDbVertex
6
CONTINUOUS
100
AcDb2dVertex
10
89.7925014513
20
170.9214139966
0
VERTEX
5
232
100
AcDbEntity
8
0
100
AcDbVertex
6
CONTINUOUS
100
AcDb2dVertex
10
89.9422892710
20
170.9159355446
0
VERTEX
5
233
100
AcDbEntity
8
0
100
AcDbVertex
6
CONTINUOUS
100
AcDb2dVertex
10
90.0958693049
20
170.9140942390
0
SEQEND
5
234
100
AcDbEntity
8
0
0
POLYLINE
5
235
100
AcDbEntity
8
0
100
AcDb2dPolyline
6
CONTINUOUS
66
1
70
0
0
VERTEX
5
236
100
AcDbEntity
8
0
100
AcDbVertex
6
CONTINUOUS
100
AcDb2dVertex
10
144.8996703049
20
169.3988557906
0
VERTEX
5
237
100
AcDbEntity
8
0
100
AcDbVertex
6
CONTINUOUS
100
AcDb2dVertex
10
145.0909349057
20
169.4017214786
0
VERTEX
5
238
100
AcDbEntity
8
0
100
AcDbVertex
6
CONTINUOUS
100
AcDb2dVertex
10
145.2748493151
20
169.4102084159
0
VERTEX
5
239
100
AcDbEntity
8
0
100
AcDbVertex
6
CONTINUOUS
100
AcDb2dVertex
10
145.4443458056
20
169.4239904542
0
VERTEX
5
23A
100
AcDbEntity
8
0
100
AcDbVertex
6
CONTINUOUS
100
AcDb2dVertex
10
145.5929107221
20
169.4425379575
0
VERTEX
5
23B
100
AcDbEntity
8
0
100
AcDbVertex
6
CONTINUOUS
100
AcDb2dVertex
10
145.7148347981
20
169.4651381556
0
VERTEX
5
23C
100
AcDbEntity
8
0
100
AcDbVertex
6
CONTINUOUS
100
AcDb2dVertex
10
145.8054325598
20
169.4909225357
0
VERTEX
5
23D
100
AcDbEntity
8
0
100
AcDbVertex
6
CONTINUOUS
100
AcDb2dVertex
10
145.8612223859
20
169.5189002185
0
VERTEX
5
23E
100
AcDbEntity
8
0
100
AcDbVertex
6
CONTINUOUS
100
AcDb2dVertex
10
145.8800603049
20
169.5479960372
0
SEQEND
5
23F
100
AcDbEntity
8
0
0
LINE
5
240
100
AcDbEntity
8
0
100
AcDbLine
62
7
6
CONTINUOUS
10
144.8996703049
20
168.5676060372
11
129.0870105449
21
168.5676060372
0
LINE
5
241
100
AcDbEntity
8
0
100
AcDbLine
62
7
6
CONTINUOUS
10
105.9085290649
20
168.5676060372
11
90.0958693049
21
168.5676060372
0
LINE
5
242
100
AcDbEntity
8
0
100
AcDbLine
6
CONTINUOUS
10
144.8996703049
20
169.3988557906
11
129.0797563382
21
169.3988557906
0
LINE
5
243
100
AcDbEntity
8
0
100
AcDbLine
6
CONTINUOUS
10
105.9157832716
20
169.3988557906
11
90.0958693049
21
169.3988557906
0
LINE
5
244
100
AcDbEntity
8
0
100
AcDbLine
62
7
6
CONTINUOUS
10
89.1154793049
20
169.5479960372
11
89.1154793049
21
171.6362267372
0
LINE
5
245
100
AcDbEntity
8
0
100
AcDbLine
6
CONTINUOUS
10
90.0958693049
20
168.5676060372
11
90.0958693049
21
172.6166167372
0
POLYLINE
5
246
100
AcDbEntity
8
0
100
AcDb2dPolyline
6
CONTINUOUS
66
1
70
0
0
VERTEX
5
247
100
AcDbEntity
8
0
100
AcDbVertex
6
CONTINUOUS
100
AcDb2dVertex
10
100.6448657049
20
171.9122771312
0
VERTEX
5
248
100
AcDbEntity
8
0
100
AcDbVertex
6
CONTINUOUS
100
AcDb2dVertex
10
100.8361273488
20
171.9285907367
0
VERTEX
5
249
100
AcDbEntity
8
0
100
AcDbVertex
6
CONTINUOUS
100
AcDb2dVertex
10
101.0200397719
20
171.9769048786
0
VERTEX
5
24A
100
AcDbEntity
8
0
100
AcDbVertex
6
CONTINUOUS
100
AcDb2dVertex
10
101.1895353050
20
172.0553632002
0
VERTEX
5
24B
100
AcDbEntity
8
0
100
AcDbVertex
6
CONTINUOUS
100
AcDb2dVertex
10
101.3381004762
20
172.1609510723
0
VERTEX
5
24C
100
AcDbEntity
8
0
100
AcDbVertex
6
CONTINUOUS
100
AcDb2dVertex
10
101.4600258672
20
172.2896113397
0
VERTEX
5
24D
100
AcDbEntity
8
0
100
AcDbVertex
6
CONTINUOUS
100
AcDb2dVertex
10
101.5506254844
20
172.4364000441
0
VERTEX
5
24E
100
AcDbEntity
8
0
100
AcDbVertex
6
CONTINUOUS
100
AcDb2dVertex
10
101.6064170342
20
172.5956764986
0
SEQEND
5
24F
100
AcDbEntity
8
0
0
POLYLINE
5
250
100
AcDbEntity
8
0
100
AcDb2dPolyline
6
CONTINUOUS
66
1
70
0
0
VERTEX
5
251
100
AcDbEntity
8
0
100
AcDbVertex
6
CONTINUOUS
100
AcDb2dVertex
10
100.6448657049
20
172.4852693828
0
VERTEX
5
252
100
AcDbEntity
8
0
100
AcDbVertex
6
CONTINUOUS
100
AcDb2dVertex
10
100.8361303057
20
172.5015834992
0
VERTEX
5
253
100
AcDbEntity
8
0
100
AcDbVertex
6
CONTINUOUS
100
AcDb2dVertex
10
101.0200447151
20
172.5498989059
0
VERTEX
5
254
100
AcDbEntity
8
0
100
AcDbVertex
6
CONTINUOUS
100
AcDb2dVertex
10
101.1895412056
20
172.6283588690
0
VERTEX
5
255
100
AcDbEntity
8
0
100
AcDbVertex
6
CONTINUOUS
100
AcDb2dVertex
10
101.3381061221
20
172.7339482162
0
VERTEX
5
256
100
AcDbEntity
8
0
100
AcDbVertex
6
CONTINUOUS
100
AcDb2dVertex
10
101.4600301981
20
172.8626092080
0
VERTEX
5
257
100
AcDbEntity
8
0
100
AcDbVertex
6
CONTINUOUS
100
AcDb2dVertex
10
101.5506279598
20
173.0093974746
0
SEQEND
5
258
100
AcDbEntity
8
0
0
LINE
5
259
100
AcDbEntity
8
0
100
AcDbLine
6
CONTINUOUS
10
90.0958693049
20
170.9140942390
11
100.6448657049
21
170.9140942390
0
LINE
5
25A
100
AcDbEntity
8
0
100
AcDbLine
6
CONTINUOUS
10
134.3506736365
20
170.9140942390
11
144.8996703049
21
170.9140942390
0
LINE
5
25B
100
AcDbEntity
8
0
100
AcDbLine
6
CONTINUOUS
10
90.0958693049
20
171.9122771312
11
100.6448657049
21
171.9122771312
0
LINE
5
25C
100
AcDbEntity
8
0
100
AcDbLine
6
CONTINUOUS
10
134.3506739049
20
171.9122771312
11
144.8996703049
21
171.9122771312
0
LINE
5
25D
100
AcDbEntity
8
0
100
AcDbLine
6
CONTINUOUS
10
144.8996703049
20
172.4852693828
11
134.3506739049
21
172.4852693828
0
LINE
5
25E
100
AcDbEntity
8
0
100
AcDbLine
6
CONTINUOUS
10
100.6448657049
20
172.4852693828
11
90.0958693049
21
172.4852693828
0
LINE
5
25F
100
AcDbEntity
8
0
100
AcDbLine
62
7
6
CONTINUOUS
10
144.8996703049
20
172.6166167372
11
134.3506739049
21
172.6166167372
0
LINE
5
260
100
AcDbEntity
8
0
100
AcDbLine
62
7
6
CONTINUOUS
10
100.6448657049
20
172.6166167372
11
90.0958693049
21
172.6166167372
0
POLYLINE
5
261
100
AcDbEntity
8
0
100
AcDb2dPolyline
6
CONTINUOUS
66
1
70
0
0
VERTEX
5
262
100
AcDbEntity
8
0
100
AcDbVertex
6
CONTINUOUS
100
AcDb2dVertex
10
134.3506739049
20
171.9122771312
0
VERTEX
5
263
100
AcDbEntity
8
0
100
AcDbVertex
6
CONTINUOUS
100
AcDb2dVertex
10
134.1594093041
20
171.9285912476
0
VERTEX
5
264
100
AcDbEntity
8
0
100
AcDbVertex
6
CONTINUOUS
100
AcDb2dVertex
10
133.9754948946
20
171.9769066543
0
VERTEX
5
265
100
AcDbEntity
8
0
100
AcDbVertex
6
CONTINUOUS
100
AcDb2dVertex
10
133.8059984041
20
172.0553666174
0
VERTEX
5
266
100
AcDbEntity
8
0
100
AcDbVertex
6
CONTINUOUS
100
AcDb2dVertex
10
133.6574334877
20
172.1609559646
0
VERTEX
5
267
100
AcDbEntity
8
0
100
AcDbVertex
6
CONTINUOUS
100
AcDb2dVertex
10
133.5355094117
20
172.2896169564
0
VERTEX
5
268
100
AcDbEntity
8
0
100
AcDbVertex
6
CONTINUOUS
100
AcDb2dVertex
10
133.4449116500
20
172.4364052230
0
VERTEX
5
269
100
AcDbEntity
8
0
100
AcDbVertex
6
CONTINUOUS
100
AcDb2dVertex
10
133.3891218238
20
172.5956797737
0
SEQEND
5
26A
100
AcDbEntity
8
0
0
POLYLINE
5
26B
100
AcDbEntity
8
0
100
AcDb2dPolyline
6
CONTINUOUS
66
1
70
0
0
VERTEX
5
26C
100
AcDbEntity
8
0
100
AcDbVertex
6
CONTINUOUS
100
AcDb2dVertex
10
134.3506739049
20
172.4852693828
0
VERTEX
5
26D
100
AcDbEntity
8
0
100
AcDbVertex
6
CONTINUOUS
100
AcDb2dVertex
10
134.1594097881
20
172.5015834159
0
VERTEX
5
26E
100
AcDbEntity
8
0
100
AcDbVertex
6
CONTINUOUS
100
AcDb2dVertex
10
133.9754957046
20
172.5498986156
0
VERTEX
5
26F
100
AcDbEntity
8
0
100
AcDbVertex
6
CONTINUOUS
100
AcDb2dVertex
10
133.8059993725
20
172.6283583089
0
VERTEX
5
270
100
AcDbEntity
8
0
100
AcDbVertex
6
CONTINUOUS
100
AcDb2dVertex
10
133.6574344155
20
172.7339474129
0
VERTEX
5
271
100
AcDbEntity
8
0
100
AcDbVertex
6
CONTINUOUS
100
AcDb2dVertex
10
133.5355101243
20
172.8626082846
0
VERTEX
5
272
100
AcDbEntity
8
0
100
AcDbVertex
6
CONTINUOUS
100
AcDb2dVertex
10
133.4449120578
20
173.0093966223
0
SEQEND
5
273
100
AcDbEntity
8
0
0
POLYLINE
5
274
100
AcDbEntity
8
0
100
AcDb2dPolyline
6
CONTINUOUS
66
1
70
0
0
VERTEX
5
275
100
AcDbEntity
8
0
100
AcDbVertex
6
CONTINUOUS
100
AcDb2dVertex
10
89.1154793049
20
171.6362267372
0
VERTEX
5
276
100
AcDbEntity
8
0
100
AcDbVertex
6
CONTINUOUS
100
AcDb2dVertex
10
89.1273224299
20
171.7677984943
0
VERTEX
5
277
100
AcDbEntity
8
0
100
AcDbVertex
6
CONTINUOUS
100
AcDb2dVertex
10
89.1627930160
20
171.8968028172
0
VERTEX
5
278
100
AcDbEntity
8
0
100
AcDbVertex
6
CONTINUOUS
100
AcDb2dVertex
10
89.2214418449
20
172.0201614673
0
VERTEX
5
279
100
AcDbEntity
8
0
100
AcDbVertex
6
CONTINUOUS
100
AcDb2dVertex
10
89.3019040532
20
172.1343108650
0
VERTEX
5
27A
100
AcDbEntity
8
0
100
AcDbVertex
6
CONTINUOUS
100
AcDb2dVertex
10
89.4019642242
20
172.2360143815
0
VERTEX
5
27B
100
AcDbEntity
8
0
100
AcDbVertex
6
CONTINUOUS
100
AcDb2dVertex
10
89.5192163414
20
172.3228685171
0
VERTEX
5
27C
100
AcDbEntity
8
0
100
AcDbVertex
6
CONTINUOUS
100
AcDb2dVertex
10
89.6508022410
20
172.3927383997
0
VERTEX
5
27D
100
AcDbEntity
8
0
100
AcDbVertex
6
CONTINUOUS
100
AcDb2dVertex
10
89.7932685528
20
172.4438145050
0
SEQEND
5
27E
100
AcDbEntity
8
0
0
POLYLINE
5
27F
100
AcDbEntity
8
0
100
AcDb2dPolyline
6
CONTINUOUS
66
1
70
0
0
VERTEX
5
280
100
AcDbEntity
8
0
100
AcDbVertex
6
CONTINUOUS
100
AcDb2dVertex
10
89.1154793049
20
171.0632344856
0
VERTEX
5
281
100
AcDbEntity
8
0
100
AcDbVertex
6
CONTINUOUS
100
AcDb2dVertex
10
89.1275495326
20
171.1960540177
0
VERTEX
5
282
100
AcDbEntity
8
0
100
AcDbVertex
6
CONTINUOUS
100
AcDb2dVertex
10
89.1634630069
20
171.3256030920
0
SEQEND
5
283
100
AcDbEntity
8
0
0
POLYLINE
5
284
100
AcDbEntity
8
0
100
AcDb2dPolyline
6
CONTINUOUS
66
1
70
0
0
VERTEX
5
285
100
AcDbEntity
8
0
100
AcDbVertex
6
CONTINUOUS
100
AcDb2dVertex
10
89.7932685528
20
172.4438145050
0
VERTEX
5
286
100
AcDbEntity
8
0
100
AcDbVertex
6
CONTINUOUS
100
AcDb2dVertex
10
89.9428402874
20
172.4748625365
0
VERTEX
5
287
100
AcDbEntity
8
0
100
AcDbVertex
6
CONTINUOUS
100
AcDb2dVertex
10
90.0958693049
20
172.4852693828
0
SEQEND
5
288
100
AcDbEntity
8
0
0
LINE
5
289
100
AcDbEntity
8
0
100
AcDbLine
6
CONTINUOUS
10
100.6448657049
20
172.6166167372
11
100.6448657049
21
170.9140942390
0
LINE
5
28A
100
AcDbEntity
8
0
100
AcDbLine
62
7
6
CONTINUOUS
10
101.6252557049
20
172.7200914966
11
101.6252557049
21
192.6155509524
0
LINE
5
28B
100
AcDbEntity
8
0
100
AcDbLine
62
7
6
CONTINUOUS
10
101.6252557049
20
192.9379955846
11
101.6252557049
21
193.4008847372
0
LINE
5
28C
100
AcDbEntity
8
0
100
AcDbLine
6
CONTINUOUS
10
101.8213337049
20
172.6902634435
11
101.8213263972
21
192.5857481779
0
LINE
5
28D
100
AcDbEntity
8
0
100
AcDbLine
62
7
6
CONTINUOUS
10
106.1252458049
20
193.4008847372
11
106.1252458049
21
196.4400937372
0
LINE
5
28E
100
AcDbEntity
8
0
100
AcDbLine
62
7
6
CONTINUOUS
10
105.9085290649
20
168.5676060372
11
106.1125241969
21
191.9431328494
0
LINE
5
28F
100
AcDbEntity
8
0
100
AcDbLine
6
CONTINUOUS
10
101.6064170342
20
172.5956764986
11
101.6252557049
21
172.7613197768
0
POLYLINE
5
290
100
AcDbEntity
8
0
100
AcDb2dPolyline
6
CONTINUOUS
66
1
70
0
0
VERTEX
5
291
100
AcDbEntity
8
0
100
AcDbVertex
6
CONTINUOUS
100
AcDb2dVertex
10
89.1634630069
20
171.3256030920
0
VERTEX
5
292
100
AcDbEntity
8
0
100
AcDbVertex
6
CONTINUOUS
100
AcDb2dVertex
10
89.2223354186
20
171.4486917806
0
VERTEX
5
293
100
AcDbEntity
8
0
100
AcDbVertex
6
CONTINUOUS
100
AcDb2dVertex
10
89.3027171338
20
171.5622892312
0
VERTEX
5
294
100
AcDbEntity
8
0
100
AcDbVertex
6
CONTINUOUS
100
AcDb2dVertex
10
89.4026288877
20
171.6635982978
0
VERTEX
5
295
100
AcDbEntity
8
0
100
AcDbVertex
6
CONTINUOUS
100
AcDb2dVertex
10
89.5196105214
20
171.7501244148
0
VERTEX
5
296
100
AcDbEntity
8
0
100
AcDbVertex
6
CONTINUOUS
100
AcDb2dVertex
10
89.6507815588
20
171.8197370221
0
VERTEX
5
297
100
AcDbEntity
8
0
100
AcDbVertex
6
CONTINUOUS
100
AcDb2dVertex
10
89.7929121338
20
171.8707220263
0
VERTEX
5
298
100
AcDbEntity
8
0
100
AcDbVertex
6
CONTINUOUS
100
AcDb2dVertex
10
89.9425025197
20
171.9018240073
0
VERTEX
5
299
100
AcDbEntity
8
0
100
AcDbVertex
6
CONTINUOUS
100
AcDb2dVertex
10
90.0958693049
20
171.9122771312
0
SEQEND
5
29A
100
AcDbEntity
8
0
0
POLYLINE
5
29B
100
AcDbEntity
8
0
100
AcDb2dPolyline
6
CONTINUOUS
66
1
70
0
0
VERTEX
5
29C
100
AcDbEntity
8
0
100
AcDbVertex
6
CONTINUOUS
100
AcDb2dVertex
10
101.5506279598
20
173.0093974746
0
VERTEX
5
29D
100
AcDbEntity
8
0
100
AcDbVertex
6
CONTINUOUS
100
AcDb2dVertex
10
101.6064177859
20
173.1686720253
0
VERTEX
5
29E
100
AcDbEntity
8
0
100
AcDbVertex
6
CONTINUOUS
100
AcDb2dVertex
10
101.6252557049
20
173.3343120284
0
SEQEND
5
29F
100
AcDbEntity
8
0
0
LINE
5
2A0
100
AcDbEntity
8
0
100
AcDbLine
62
7
6
CONTINUOUS
10
176.5172478049
20
193.4008847372
11
134.3506739049
21
193.4008847372
0
LINE
5
2A1
100
AcDbEntity
8
0
100
AcDbLine
62
7
6
CONTINUOUS
10
100.6448657049
20
193.4008847372
11
58.4782918049
21
193.4008847372
0
LINE
5
2A2
100
AcDbEntity
8
0
100
AcDbLine
62
7
6
CONTINUOUS
10
101.6581171408
20
193.4008847372
11
133.3374385900
21
193.4008847372
0
LINE
5
2A3
100
AcDbEntity
8
0
100
AcDbLine
6
CONTINUOUS
10
177.4976378049
20
194.3812747372
11
134.3164589053
21
194.3812747372
0
LINE
5
2A4
100
AcDbEntity
8
0
100
AcDbLine
6
CONTINUOUS
10
100.6790807094
20
194.3812747372
11
57.4979018049
21
194.3812747372
0
LINE
5
2A5
100
AcDbEntity
8
0
100
AcDbLine
6
CONTINUOUS
10
57.4979018049
20
196.4400937372
11
177.4976378049
21
196.4400937372
0
POLYLINE
5
2A6
100
AcDbEntity
8
0
100
AcDb2dPolyline
6
CONTINUOUS
66
1
70
0
0
VERTEX
5
2A7
100
AcDbEntity
8
0
100
AcDbVertex
6
CONTINUOUS
100
AcDb2dVertex
10
58.4782918049
20
198.6255999900
0
VERTEX
5
2A8
100
AcDbEntity
8
0
100
AcDbVertex
6
CONTINUOUS
100
AcDb2dVertex
10
58.2870366624
20
198.6221997266
0
VERTEX
5
2A9
100
AcDbEntity
8
0
100
AcDbVertex
6
CONTINUOUS
100
AcDb2dVertex
10
58.1031286546
20
198.6121294423
0
VERTEX
5
2AA
100
AcDbEntity
8
0
100
AcDbVertex
6
CONTINUOUS
100
AcDb2dVertex
10
57.9336353272
20
198.5957759207
0
VERTEX
5
2AB
100
AcDbEntity
8
0
100
AcDbVertex
6
CONTINUOUS
100
AcDb2dVertex
10
57.7850696673
20
198.5737672958
0
VERTEX
5
2AC
100
AcDbEntity
8
0
100
AcDbVertex
6
CONTINUOUS
100
AcDb2dVertex
10
57.6631413884
20
198.5469489874
0
VERTEX
5
2AD
100
AcDbEntity
8
0
100
AcDbVertex
6
CONTINUOUS
100
AcDb2dVertex
10
57.5725376250
20
198.5163513420
0
VERTEX
5
2AE
100
AcDbEntity
8
0
100
AcDbVertex
6
CONTINUOUS
100
AcDb2dVertex
10
57.5167421814
20
198.4831499813
0
VERTEX
5
2AF
100
AcDbEntity
8
0
100
AcDbVertex
6
CONTINUOUS
100
AcDb2dVertex
10
57.4979018049
20
198.4486208302
0
SEQEND
5
2B0
100
AcDbEntity
8
0
0
LINE
5
2B1
100
AcDbEntity
8
0
100
AcDbLine
62
7
6
CONTINUOUS
10
58.4782918049
20
197.4204837372
11
176.5172478049
21
197.4204837372
0
LINE
5
2B2
100
AcDbEntity
8
0
100
AcDbLine
6
CONTINUOUS
10
58.4782918049
20
198.6255999900
11
63.4922736647
21
198.6255999900
0
LINE
5
2B3
100
AcDbEntity
8
0
100
AcDbLine
6
CONTINUOUS
10
171.5032659451
20
198.6255999900
11
176.5172478049
21
198.6255999900
0
POLYLINE
5
2B4
100
AcDbEntity
8
0
100
AcDb2dPolyline
6
CONTINUOUS
66
1
70
0
0
VERTEX
5
2B5
100
AcDbEntity
8
0
100
AcDbVertex
6
CONTINUOUS
100
AcDb2dVertex
10
176.5172478049
20
198.6255999900
0
VERTEX
5
2B6
100
AcDbEntity
8
0
100
AcDbVertex
6
CONTINUOUS
100
AcDb2dVertex
10
176.7085124057
20
198.6221993849
0
VERTEX
5
2B7
100
AcDbEntity
8
0
100
AcDbVertex
6
CONTINUOUS
100
AcDb2dVertex
10
176.8924268151
20
198.6121282532
0
VERTEX
5
2B8
100
AcDbEntity
8
0
100
AcDbVertex
6
CONTINUOUS
100
AcDb2dVertex
10
177.0619233056
20
198.5957736227
0
VERTEX
5
2B9
100
AcDbEntity
8
0
100
AcDbVertex
6
CONTINUOUS
100
AcDb2dVertex
10
177.2104882221
20
198.5737639927
0
VERTEX
5
2BA
100
AcDbEntity
8
0
100
AcDbVertex
6
CONTINUOUS
100
AcDb2dVertex
10
177.3324122981
20
198.5469451810
0
VERTEX
5
2BB
100
AcDbEntity
8
0
100
AcDbVertex
6
CONTINUOUS
100
AcDb2dVertex
10
177.4230100598
20
198.5163478194
0
VERTEX
5
2BC
100
AcDbEntity
8
0
100
AcDbVertex
6
CONTINUOUS
100
AcDb2dVertex
10
177.4787998859
20
198.4831477474
0
VERTEX
5
2BD
100
AcDbEntity
8
0
100
AcDbVertex
6
CONTINUOUS
100
AcDb2dVertex
10
177.4976378049
20
198.4486208252
0
SEQEND
5
2BE
100
AcDbEntity
8
0
0
LINE
5
2BF
100
AcDbEntity
8
0
100
AcDbLine
62
7
6
CONTINUOUS
10
171.5427144352
20
203.1459492172
11
171.1977698049
21
203.1459492172
0
LINE
5
2C0
100
AcDbEntity
8
0
100
AcDbLine
62
7
6
CONTINUOUS
10
63.7977698049
20
203.1459492172
11
63.4528251746
21
203.1459492172
0
LINE
5
2C1
100
AcDbEntity
8
0
100
AcDbLine
6
CONTINUOUS
10
63.4484617407
20
203.6459492172
11
63.7977698049
21
203.6459492172
0
LINE
5
2C2
100
AcDbEntity
8
0
100
AcDbLine
6
CONTINUOUS
10
171.1977698049
20
203.6459492172
11
171.5470778691
21
203.6459492172
0
LINE
5
2C3
100
AcDbEntity
8
0
100
AcDbLine
62
7
6
CONTINUOUS
10
171.6038024999
20
210.1459480972
11
171.1977698049
21
210.1459480972
0
LINE
5
2C4
100
AcDbEntity
8
0
100
AcDbLine
62
7
6
CONTINUOUS
10
63.3917371098
20
210.1459480972
11
63.7977698049
21
210.1459480972
0
POLYLINE
5
2C5
100
AcDbEntity
8
0
100
AcDb2dPolyline
6
CONTINUOUS
66
1
70
0
0
VERTEX
5
2C6
100
AcDbEntity
8
0
100
AcDbVertex
6
CONTINUOUS
100
AcDb2dVertex
10
133.4449120578
20
173.0093966223
0
VERTEX
5
2C7
100
AcDbEntity
8
0
100
AcDbVertex
6
CONTINUOUS
100
AcDb2dVertex
10
133.3891219477
20
173.1686714860
0
VERTEX
5
2C8
100
AcDbEntity
8
0
100
AcDbVertex
6
CONTINUOUS
100
AcDb2dVertex
10
133.3702839049
20
173.3343120284
0
SEQEND
5
2C9
100
AcDbEntity
8
0
0
LINE
5
2CA
100
AcDbEntity
8
0
100
AcDbLine
62
7
6
CONTINUOUS
10
129.0870105449
20
168.5676060372
11
128.8830154129
21
191.9431328494
0
LINE
5
2CB
100
AcDbEntity
8
0
100
AcDbLine
62
7
6
CONTINUOUS
10
128.8702938049
20
193.4008847372
11
128.8702938049
21
196.4400937372
0
LINE
5
2CC
100
AcDbEntity
8
0
100
AcDbLine
62
7
6
CONTINUOUS
10
61.1586363461
20
213.0331112194
11
63.3665412096
21
213.0331112194
0
LINE
5
2CD
100
AcDbEntity
8
0
100
AcDbLine
62
7
6
CONTINUOUS
10
172.5953527855
20
214.0373758357
11
171.6376495107
21
214.0373758357
0
LINE
5
2CE
100
AcDbEntity
8
0
100
AcDbLine
62
7
6
CONTINUOUS
10
62.3998500249
20
214.0373758357
11
63.3578900632
21
214.0373758357
0
LINE
5
2CF
100
AcDbEntity
8
0
100
AcDbLine
62
7
6
CONTINUOUS
10
173.8337800212
20
213.0331129989
11
171.6290311433
21
213.0368642868
0
LINE
5
2D0
100
AcDbEntity
8
0
100
AcDbLine
6
CONTINUOUS
10
133.3891218238
20
172.5956797737
11
133.3702839049
21
172.7613197768
0
LINE
5
2D1
100
AcDbEntity
8
0
100
AcDbLine
6
CONTINUOUS
10
133.1742131966
20
192.5857481415
11
133.1742059049
21
172.6902634435
0
LINE
5
2D2
100
AcDbEntity
8
0
100
AcDbLine
62
7
6
CONTINUOUS
10
133.3702839049
20
193.4008847372
11
133.3702839049
21
192.9379949157
0
LINE
5
2D3
100
AcDbEntity
8
0
100
AcDbLine
62
7
6
CONTINUOUS
10
133.3702839049
20
192.6155505355
11
133.3702839049
21
172.7200914958
0
LINE
5
2D4
100
AcDbEntity
8
0
100
AcDbLine
6
CONTINUOUS
10
134.3506739049
20
170.9140942390
11
134.3506739049
21
172.6166167372
0
POLYLINE
5
2D5
100
AcDbEntity
8
0
100
AcDb2dPolyline
6
CONTINUOUS
66
1
70
0
0
VERTEX
5
2D6
100
AcDbEntity
8
0
100
AcDbVertex
6
CONTINUOUS
100
AcDb2dVertex
10
145.8800603049
20
171.6362267372
0
VERTEX
5
2D7
100
AcDbEntity
8
0
100
AcDbVertex
6
CONTINUOUS
100
AcDb2dVertex
10
145.8679900771
20
171.7690462693
0
VERTEX
5
2D8
100
AcDbEntity
8
0
100
AcDbVertex
6
CONTINUOUS
100
AcDb2dVertex
10
145.8320766029
20
171.8985953436
0
VERTEX
5
2D9
100
AcDbEntity
8
0
100
AcDbVertex
6
CONTINUOUS
100
AcDb2dVertex
10
145.7732041911
20
172.0216840322
0
VERTEX
5
2DA
100
AcDbEntity
8
0
100
AcDbVertex
6
CONTINUOUS
100
AcDb2dVertex
10
145.6928224760
20
172.1352814828
0
VERTEX
5
2DB
100
AcDbEntity
8
0
100
AcDbVertex
6
CONTINUOUS
100
AcDb2dVertex
10
145.5929107221
20
172.2365905494
0
VERTEX
5
2DC
100
AcDbEntity
8
0
100
AcDbVertex
6
CONTINUOUS
100
AcDb2dVertex
10
145.4759290884
20
172.3231166664
0
VERTEX
5
2DD
100
AcDbEntity
8
0
100
AcDbVertex
6
CONTINUOUS
100
AcDb2dVertex
10
145.3447580509
20
172.3927292737
0
VERTEX
5
2DE
100
AcDbEntity
8
0
100
AcDbVertex
6
CONTINUOUS
100
AcDb2dVertex
10
145.2026274760
20
172.4437142779
0
VERTEX
5
2DF
100
AcDbEntity
8
0
100
AcDbVertex
6
CONTINUOUS
100
AcDb2dVertex
10
145.0530370901
20
172.4748162589
0
VERTEX
5
2E0
100
AcDbEntity
8
0
100
AcDbVertex
6
CONTINUOUS
100
AcDb2dVertex
10
144.8996703049
20
172.4852693828
0
SEQEND
5
2E1
100
AcDbEntity
8
0
0
POLYLINE
5
2E2
100
AcDbEntity
8
0
100
AcDb2dPolyline
6
CONTINUOUS
66
1
70
0
0
VERTEX
5
2E3
100
AcDbEntity
8
0
100
AcDbVertex
6
CONTINUOUS
100
AcDb2dVertex
10
145.8800603049
20
171.0632344856
0
VERTEX
5
2E4
100
AcDbEntity
8
0
100
AcDbVertex
6
CONTINUOUS
100
AcDb2dVertex
10
145.8681387656
20
171.1952384423
0
VERTEX
5
2E5
100
AcDbEntity
8
0
100
AcDbVertex
6
CONTINUOUS
100
AcDb2dVertex
10
145.8325282811
20
171.3243961430
0
VERTEX
5
2E6
100
AcDbEntity
8
0
100
AcDbVertex
6
CONTINUOUS
100
AcDb2dVertex
10
145.7738498520
20
171.4475923965
0
VERTEX
5
2E7
100
AcDbEntity
8
0
100
AcDbVertex
6
CONTINUOUS
100
AcDb2dVertex
10
145.6935054509
20
171.5614741215
0
VERTEX
5
2E8
100
AcDbEntity
8
0
100
AcDbVertex
6
CONTINUOUS
100
AcDb2dVertex
10
145.5936326293
20
171.6629724562
0
VERTEX
5
2E9
100
AcDbEntity
8
0
100
AcDbVertex
6
CONTINUOUS
100
AcDb2dVertex
10
145.4766276960
20
171.7496844406
0
VERTEX
5
2EA
100
AcDbEntity
8
0
100
AcDbVertex
6
CONTINUOUS
100
AcDb2dVertex
10
145.3453425608
20
171.8194788868
0
VERTEX
5
2EB
100
AcDbEntity
8
0
100
AcDbVertex
6
CONTINUOUS
100
AcDb2dVertex
10
145.2030381584
20
171.8706063783
0
VERTEX
5
2EC
100
AcDbEntity
8
0
100
AcDbVertex
6
CONTINUOUS
100
AcDb2dVertex
10
145.0532503387
20
171.9017947362
0
VERTEX
5
2ED
100
AcDbEntity
8
0
100
AcDbVertex
6
CONTINUOUS
100
AcDb2dVertex
10
144.8996703049
20
171.9122771312
0
SEQEND
5
2EE
100
AcDbEntity
8
0
0
LINE
5
2EF
100
AcDbEntity
8
0
100
AcDbLine
6
CONTINUOUS
10
144.8996703049
20
168.5676060372
11
144.8996703049
21
172.6166167372
0
LINE
5
2F0
100
AcDbEntity
8
0
100
AcDbLine
62
7
6
CONTINUOUS
10
145.8800603049
20
171.6362267372
11
145.8800603049
21
169.5479960372
0
LINE
5
2F1
100
AcDbEntity
8
0
100
AcDbLine
6
CONTINUOUS
10
63.7977698049
20
230.4204837372
11
171.1977698049
21
230.4204837372
0
LINE
5
2F2
100
AcDbEntity
8
0
100
AcDbLine
62
7
6
CONTINUOUS
10
63.7977698049
20
233.4204837372
11
171.1977698049
21
233.4204837372
0
POLYLINE
5
2F3
100
AcDbEntity
8
0
100
AcDb2dPolyline
6
CONTINUOUS
66
1
70
0
0
VERTEX
5
2F4
100
AcDbEntity
8
0
100
AcDbVertex
6
CONTINUOUS
100
AcDb2dVertex
10
145.8800603049
20
171.0632344856
0
VERTEX
5
2F5
100
AcDbEntity
8
0
100
AcDbVertex
6
CONTINUOUS
100
AcDb2dVertex
10
145.8679900771
20
171.0399038109
0
VERTEX
5
2F6
100
AcDbEntity
8
0
100
AcDbVertex
6
CONTINUOUS
100
AcDb2dVertex
10
145.8320766029
20
171.0171476148
0
VERTEX
5
2F7
100
AcDbEntity
8
0
100
AcDbVertex
6
CONTINUOUS
100
AcDb2dVertex
10
145.7732041911
20
170.9955262305
0
VERTEX
5
2F8
100
AcDbEntity
8
0
100
AcDbVertex
6
CONTINUOUS
100
AcDb2dVertex
10
145.6928224760
20
170.9755720481
0
VERTEX
5
2F9
100
AcDbEntity
8
0
100
AcDbVertex
6
CONTINUOUS
100
AcDb2dVertex
10
145.5929107221
20
170.9577764059
0
VERTEX
5
2FA
100
AcDbEntity
8
0
100
AcDbVertex
6
CONTINUOUS
100
AcDb2dVertex
10
145.4759290884
20
170.9425774916
0
VERTEX
5
2FB
100
AcDbEntity
8
0
100
AcDbVertex
6
CONTINUOUS
100
AcDb2dVertex
10
145.3447580509
20
170.9303495529
0
VERTEX
5
2FC
100
AcDbEntity
8
0
100
AcDbVertex
6
CONTINUOUS
100
AcDb2dVertex
10
145.2026274760
20
170.9213936822
0
VERTEX
5
2FD
100
AcDbEntity
8
0
100
AcDbVertex
6
CONTINUOUS
100
AcDb2dVertex
10
145.0530370901
20
170.9159304029
0
VERTEX
5
2FE
100
AcDbEntity
8
0
100
AcDbVertex
6
CONTINUOUS
100
AcDb2dVertex
10
144.8996703049
20
170.9140942390
0
SEQEND
5
2FF
100
AcDbEntity
8
0
0
LINE
5
300
100
AcDbEntity
8
0
100
AcDbLine
62
7
6
CONTINUOUS
10
171.1977698049
20
197.4204837372
11
171.1977698049
21
233.4204837372
0
LINE
5
301
100
AcDbEntity
8
0
100
AcDbLine
62
7
6
CONTINUOUS
10
171.4927490549
20
197.4204837372
11
171.6377632689
21
214.0374667759
0
POLYLINE
5
302
100
AcDbEntity
8
0
100
AcDb2dPolyline
6
CONTINUOUS
66
1
70
0
0
VERTEX
5
303
100
AcDbEntity
8
0
100
AcDbVertex
6
CONTINUOUS
100
AcDb2dVertex
10
174.6248980400
20
197.4204837372
0
VERTEX
5
304
100
AcDbEntity
8
0
100
AcDbVertex
6
CONTINUOUS
100
AcDb2dVertex
10
174.6315728323
20
197.4016471906
0
VERTEX
5
305
100
AcDbEntity
8
0
100
AcDbVertex
6
CONTINUOUS
100
AcDb2dVertex
10
174.6379912043
20
197.3458605618
0
VERTEX
5
306
100
AcDbEntity
8
0
100
AcDbVertex
6
CONTINUOUS
100
AcDb2dVertex
10
174.6439065014
20
197.2552664067
0
VERTEX
5
307
100
AcDbEntity
8
0
100
AcDbVertex
6
CONTINUOUS
100
AcDb2dVertex
10
174.6490913883
20
197.1333450228
0
VERTEX
5
308
100
AcDbEntity
8
0
100
AcDbVertex
6
CONTINUOUS
100
AcDb2dVertex
10
174.6533465904
20
196.9847806376
0
VERTEX
5
309
100
AcDbEntity
8
0
100
AcDbVertex
6
CONTINUOUS
100
AcDb2dVertex
10
174.6565085358
20
196.8152822913
0
VERTEX
5
30A
100
AcDbEntity
8
0
100
AcDbVertex
6
CONTINUOUS
100
AcDb2dVertex
10
174.6584556737
20
196.6313640524
0
SEQEND
5
30B
100
AcDbEntity
8
0
0
LINE
5
30C
100
AcDbEntity
8
0
100
AcDbLine
6
CONTINUOUS
10
174.6584556737
20
196.6313640524
11
174.6591131576
21
194.3812747372
0
LINE
5
30D
100
AcDbEntity
8
0
100
AcDbLine
6
CONTINUOUS
10
176.5172478049
20
197.4204837372
11
176.5172478049
21
209.3124050005
0
POLYLINE
5
30E
100
AcDbEntity
8
0
100
AcDb2dPolyline
6
CONTINUOUS
66
1
70
0
0
VERTEX
5
30F
100
AcDbEntity
8
0
100
AcDbVertex
6
CONTINUOUS
100
AcDb2dVertex
10
174.6248980400
20
193.4008847372
0
VERTEX
5
310
100
AcDbEntity
8
0
100
AcDbVertex
6
CONTINUOUS
100
AcDb2dVertex
10
174.6315730781
20
193.4197226561
0
VERTEX
5
311
100
AcDbEntity
8
0
100
AcDbVertex
6
CONTINUOUS
100
AcDb2dVertex
10
174.6379915979
20
193.4755124820
0
VERTEX
5
312
100
AcDbEntity
8
0
100
AcDbVertex
6
CONTINUOUS
100
AcDb2dVertex
10
174.6439069391
20
193.5661102433
0
VERTEX
5
313
100
AcDbEntity
8
0
100
AcDbVertex
6
CONTINUOUS
100
AcDb2dVertex
10
174.6490917788
20
193.6880343189
0
VERTEX
5
314
100
AcDbEntity
8
0
100
AcDbVertex
6
CONTINUOUS
100
AcDb2dVertex
10
174.6533468661
20
193.8365992352
0
VERTEX
5
315
100
AcDbEntity
8
0
100
AcDbVertex
6
CONTINUOUS
100
AcDb2dVertex
10
174.6565086817
20
194.0060957258
0
VERTEX
5
316
100
AcDbEntity
8
0
100
AcDbVertex
6
CONTINUOUS
100
AcDb2dVertex
10
174.6584557202
20
194.1900101357
0
VERTEX
5
317
100
AcDbEntity
8
0
100
AcDbVertex
6
CONTINUOUS
100
AcDb2dVertex
10
174.6591131576
20
194.3812747372
0
SEQEND
5
318
100
AcDbEntity
8
0
0
LINE
5
319
100
AcDbEntity
8
0
100
AcDbLine
62
7
6
CONTINUOUS
10
177.4976378049
20
194.3812747372
11
177.4979018049
21
209.6459480972
0
LINE
5
31A
100
AcDbEntity
8
0
100
AcDbLine
62
7
6
CONTINUOUS
10
322.7571913662
20
168.5676060372
11
296.5935640291
21
168.5676060372
0
LINE
5
31B
100
AcDbEntity
8
0
100
AcDbLine
6
CONTINUOUS
10
322.7571913662
20
169.5479960372
11
296.5935640291
21
169.5479960372
0
LINE
5
31C
100
AcDbEntity
8
0
100
AcDbLine
6
CONTINUOUS
10
321.9979571772
20
171.6362267372
11
297.3527982181
21
171.6362267372
0
LINE
5
31D
100
AcDbEntity
8
0
100
AcDbLine
6
CONTINUOUS
10
295.6245842878
20
169.3988557906
11
296.5935640291
21
169.5479960372
0
LINE
5
31E
100
AcDbEntity
8
0
100
AcDbLine
6
CONTINUOUS
10
296.3603465260
20
171.0632344856
11
295.3913667847
21
170.9140942390
0
LINE
5
31F
100
AcDbEntity
8
0
100
AcDbLine
62
7
6
CONTINUOUS
10
321.9979571772
20
172.6166167372
11
297.3527982181
21
172.6166167372
0
LINE
5
320
100
AcDbEntity
8
0
100
AcDbLine
6
CONTINUOUS
10
297.3527982181
20
173.5970067372
11
321.9979571772
21
173.5970067372
0
LINE
5
321
100
AcDbEntity
8
0
100
AcDbLine
6
CONTINUOUS
10
322.7571913662
20
169.5479960372
11
323.7261711075
21
169.3988557906
0
LINE
5
322
100
AcDbEntity
8
0
100
AcDbLine
6
CONTINUOUS
10
322.9904088693
20
171.0632344856
11
323.9593886106
21
170.9140942390
0
LINE
5
323
100
AcDbEntity
8
0
100
AcDbLine
6
CONTINUOUS
10
295.3117841453
20
172.7200914928
11
295.1179881970
21
172.6902634435
0
LINE
5
324
100
AcDbEntity
8
0
100
AcDbLine
6
CONTINUOUS
10
324.0389712500
20
172.7200914928
11
324.2327671982
21
172.6902634435
0
LINE
5
325
100
AcDbEntity
8
0
100
AcDbLine
6
CONTINUOUS
10
296.3603465260
20
171.0632344856
11
295.3799565260
21
172.7613197768
0
LINE
5
326
100
AcDbEntity
8
0
100
AcDbLine
6
CONTINUOUS
10
297.3527982181
20
171.6362267372
11
296.3724082181
21
173.3343120284
0
LINE
5
327
100
AcDbEntity
8
0
100
AcDbLine
62
7
6
CONTINUOUS
10
291.9303186976
20
193.4008847372
11
291.9303186976
21
196.4400937372
0
LINE
5
328
100
AcDbEntity
8
0
100
AcDbLine
6
CONTINUOUS
10
322.9904088693
20
171.0632344856
11
321.9979571772
21
171.6362267372
0
LINE
5
329
100
AcDbEntity
8
0
100
AcDbLine
62
7
6
CONTINUOUS
10
323.4806038693
20
171.9122771312
11
322.4881521772
21
172.4852693828
0
LINE
5
32A
100
AcDbEntity
8
0
100
AcDbLine
6
CONTINUOUS
10
322.9783471772
20
173.3343120284
11
323.9707988693
21
172.7613197768
0
LINE
5
32B
100
AcDbEntity
8
0
100
AcDbLine
62
7
6
CONTINUOUS
10
291.9465464347
20
193.2954514365
11
295.6245842878
21
169.3988557906
0
LINE
5
32C
100
AcDbEntity
8
0
100
AcDbLine
6
CONTINUOUS
10
292.2495780825
20
192.6155505355
11
295.3117841448
21
172.7200914958
0
LINE
5
32D
100
AcDbEntity
8
0
100
AcDbLine
6
CONTINUOUS
10
296.3603465260
20
171.0632344856
11
296.5935640291
21
169.5479960372
0
LINE
5
32E
100
AcDbEntity
8
0
100
AcDbLine
6
CONTINUOUS
10
293.1026853790
20
193.4008847372
11
293.1026853790
21
192.4204947372
0
LINE
5
32F
100
AcDbEntity
8
0
100
AcDbLine
6
CONTINUOUS
10
293.5292995036
20
196.4400937372
11
293.5292995036
21
194.3812747372
0
LINE
5
330
100
AcDbEntity
8
0
100
AcDbLine
62
7
6
CONTINUOUS
10
294.0253776976
20
230.4204837372
11
294.0253776976
21
197.4204837372
0
LINE
5
331
100
AcDbEntity
8
0
100
AcDbLine
6
CONTINUOUS
10
296.4686778223
20
193.4008847372
11
296.4686778223
21
197.4204837372
0
LINE
5
332
100
AcDbEntity
8
0
100
AcDbLine
6
CONTINUOUS
10
296.5935640291
20
168.5676060372
11
296.5935640291
21
169.5479960372
0
LINE
5
333
100
AcDbEntity
8
0
100
AcDbLine
6
CONTINUOUS
10
297.3527982181
20
171.6362267372
11
297.3527982181
21
173.5970067372
0
LINE
5
334
100
AcDbEntity
8
0
100
AcDbLine
6
CONTINUOUS
10
297.4893722678
20
197.4204837372
11
297.4893722639
21
196.4400937438
0
LINE
5
335
100
AcDbEntity
8
0
100
AcDbLine
62
7
6
CONTINUOUS
10
298.0253776976
20
227.9204837372
11
298.0253776976
21
216.7204837372
0
LINE
5
336
100
AcDbEntity
8
0
100
AcDbLine
62
7
6
CONTINUOUS
10
298.9357977193
20
198.6255999900
11
301.5800712107
21
213.0331131854
0
LINE
5
337
100
AcDbEntity
8
0
100
AcDbLine
6
CONTINUOUS
10
299.9000813535
20
198.4486208252
11
301.8614771069
21
209.1354258357
0
POLYLINE
5
338
100
AcDbEntity
8
0
100
AcDb2dPolyline
6
CONTINUOUS
66
1
70
0
0
VERTEX
5
339
100
AcDbEntity
8
0
100
AcDbVertex
6
CONTINUOUS
100
AcDb2dVertex
10
324.8416631188
20
193.4008847372
0
VERTEX
5
33A
100
AcDbEntity
8
0
100
AcDbVertex
6
CONTINUOUS
100
AcDb2dVertex
10
325.0328043112
20
193.4197212838
0
VERTEX
5
33B
100
AcDbEntity
8
0
100
AcDbVertex
6
CONTINUOUS
100
AcDb2dVertex
10
325.2166025548
20
193.4755079126
0
VERTEX
5
33C
100
AcDbEntity
8
0
100
AcDbVertex
6
CONTINUOUS
100
AcDb2dVertex
10
325.3859945889
20
193.5661020676
0
VERTEX
5
33D
100
AcDbEntity
8
0
100
AcDbVertex
6
CONTINUOUS
100
AcDb2dVertex
10
325.5344703712
20
193.6880234516
0
VERTEX
5
33E
100
AcDbEntity
8
0
100
AcDbVertex
6
CONTINUOUS
100
AcDb2dVertex
10
325.6563234239
20
193.8365878368
0
VERTEX
5
33F
100
AcDbEntity
8
0
100
AcDbVertex
6
CONTINUOUS
100
AcDb2dVertex
10
325.7468696574
20
194.0060861830
0
VERTEX
5
340
100
AcDbEntity
8
0
100
AcDbVertex
6
CONTINUOUS
100
AcDb2dVertex
10
325.8026283127
20
194.1900044219
0
VERTEX
5
341
100
AcDbEntity
8
0
100
AcDbVertex
6
CONTINUOUS
100
AcDb2dVertex
10
325.8214558920
20
194.3812747372
0
SEQEND
5
342
100
AcDbEntity
8
0
0
LINE
5
343
100
AcDbEntity
8
0
100
AcDbLine
6
CONTINUOUS
10
326.2480700163
20
192.4204947372
11
293.1026853790
21
192.4204947372
0
LINE
5
344
100
AcDbEntity
8
0
100
AcDbLine
62
7
6
CONTINUOUS
10
326.2480700163
20
193.4008847372
11
293.1026853790
21
193.4008847372
0
LINE
5
345
100
AcDbEntity
8
0
100
AcDbLine
62
7
6
CONTINUOUS
10
291.9329109428
20
193.4008847372
11
292.0874618146
21
193.4008847372
0
LINE
5
346
100
AcDbEntity
8
0
100
AcDbLine
62
7
6
CONTINUOUS
10
327.2632935807
20
193.4008847372
11
327.4178579044
21
193.4008847372
0
POLYLINE
5
347
100
AcDbEntity
8
0
100
AcDb2dPolyline
6
CONTINUOUS
66
1
70
0
0
VERTEX
5
348
100
AcDbEntity
8
0
100
AcDbVertex
6
CONTINUOUS
100
AcDb2dVertex
10
294.5090922765
20
193.4008847372
0
VERTEX
5
349
100
AcDbEntity
8
0
100
AcDbVertex
6
CONTINUOUS
100
AcDb2dVertex
10
294.3179441893
20
193.4197226561
0
VERTEX
5
34A
100
AcDbEntity
8
0
100
AcDbVertex
6
CONTINUOUS
100
AcDb2dVertex
10
294.1341418158
20
193.4755124820
0
VERTEX
5
34B
100
AcDbEntity
8
0
100
AcDbVertex
6
CONTINUOUS
100
AcDb2dVertex
10
293.9647485783
20
193.5661102433
0
VERTEX
5
34C
100
AcDbEntity
8
0
100
AcDbVertex
6
CONTINUOUS
100
AcDb2dVertex
10
293.8162741636
20
193.6880343189
0
VERTEX
5
34D
100
AcDbEntity
8
0
100
AcDbVertex
6
CONTINUOUS
100
AcDb2dVertex
10
293.6944243601
20
193.8365992352
0
VERTEX
5
34E
100
AcDbEntity
8
0
100
AcDbVertex
6
CONTINUOUS
100
AcDb2dVertex
10
293.6038817878
20
194.0060957258
0
VERTEX
5
34F
100
AcDbEntity
8
0
100
AcDbVertex
6
CONTINUOUS
100
AcDb2dVertex
10
293.5481259470
20
194.1900101357
0
VERTEX
5
350
100
AcDbEntity
8
0
100
AcDbVertex
6
CONTINUOUS
100
AcDb2dVertex
10
293.5292995036
20
194.3812747372
0
SEQEND
5
351
100
AcDbEntity
8
0
0
LINE
5
352
100
AcDbEntity
8
0
100
AcDbLine
6
CONTINUOUS
10
303.1851958976
20
202.1263557372
11
303.1851958976
21
211.0343920075
0
LINE
5
353
100
AcDbEntity
8
0
100
AcDbLine
62
7
6
CONTINUOUS
10
303.6753908976
20
210.6263370372
11
303.6753908976
21
202.1263557372
0
LINE
5
354
100
AcDbEntity
8
0
100
AcDbLine
6
CONTINUOUS
10
304.1753776976
20
203.1459492172
11
304.1753776976
21
209.6459480972
0
LINE
5
355
100
AcDbEntity
8
0
100
AcDbLine
6
CONTINUOUS
10
304.7538198976
20
210.6263370372
11
304.7538198976
21
211.7178402614
0
LINE
5
356
100
AcDbEntity
8
0
100
AcDbLine
62
7
6
CONTINUOUS
10
305.0479368976
20
211.5939233813
11
305.0479368976
21
210.9204540372
0
LINE
5
357
100
AcDbEntity
8
0
100
AcDbLine
6
CONTINUOUS
10
292.2495739697
20
192.6155772569
11
292.0557802195
21
192.5857481415
0
LINE
5
358
100
AcDbEntity
8
0
100
AcDbLine
6
CONTINUOUS
10
327.2302524217
20
194.3812747372
11
292.1205029737
21
194.3812747372
0
LINE
5
359
100
AcDbEntity
8
0
100
AcDbLine
6
CONTINUOUS
10
327.1011813986
20
192.6155772774
11
327.2949751814
21
192.5857481780
0
LINE
5
35A
100
AcDbEntity
8
0
100
AcDbLine
6
CONTINUOUS
10
305.6361621776
20
203.1459492172
11
305.6361621776
21
203.6459492172
0
LINE
5
35B
100
AcDbEntity
8
0
100
AcDbLine
6
CONTINUOUS
10
306.1753776976
20
205.6459487372
11
306.1753776976
21
204.1851647372
0
LINE
5
35C
100
AcDbEntity
8
0
100
AcDbLine
62
7
6
CONTINUOUS
10
306.6753842976
20
202.1263557372
11
306.6753776976
21
205.6459487372
0
LINE
5
35D
100
AcDbEntity
8
0
100
AcDbLine
6
CONTINUOUS
10
307.1655792976
20
202.1263557372
11
307.1655792976
21
206.2439937372
0
LINE
5
35E
100
AcDbEntity
8
0
100
AcDbLine
6
CONTINUOUS
10
307.1753776974
20
206.2439937372
11
307.1753776973
21
206.6459487371
0
LINE
5
35F
100
AcDbEntity
8
0
100
AcDbLine
62
7
6
CONTINUOUS
10
314.3382788031
20
211.7063891017
11
315.7578137058
21
213.7336950435
0
LINE
5
360
100
AcDbEntity
8
0
100
AcDbLine
62
7
6
CONTINUOUS
10
306.6853776976
20
203.9971247372
11
306.6473336443
21
203.9590806838
0
LINE
5
361
100
AcDbEntity
8
0
100
AcDbLine
6
CONTINUOUS
10
320.4149576760
20
198.6255999900
11
319.4506740475
21
198.4486208302
0
LINE
5
362
100
AcDbEntity
8
0
100
AcDbLine
6
CONTINUOUS
10
291.9303186976
20
196.4400937372
11
297.4893722678
21
196.4400937372
0
LINE
5
363
100
AcDbEntity
8
0
100
AcDbLine
6
CONTINUOUS
10
321.8613831275
20
196.4400937372
11
327.4204366976
21
196.4400937372
0
LINE
5
364
100
AcDbEntity
8
0
100
AcDbLine
62
7
6
CONTINUOUS
10
292.9107086976
20
197.4204837372
11
297.4893722678
21
197.4204837372
0
LINE
5
365
100
AcDbEntity
8
0
100
AcDbLine
62
7
6
CONTINUOUS
10
321.8613831275
20
197.4204837372
11
326.4400466976
21
197.4204837372
0
LINE
5
366
100
AcDbEntity
8
0
100
AcDbLine
6
CONTINUOUS
10
298.9357977193
20
198.6255999900
11
299.9000813535
21
198.4486208252
0
POLYLINE
5
367
100
AcDbEntity
8
0
100
AcDb2dPolyline
6
CONTINUOUS
66
1
70
0
0
VERTEX
5
368
100
AcDbEntity
8
0
100
AcDbVertex
6
CONTINUOUS
100
AcDb2dVertex
10
294.5090922765
20
197.4204837372
0
VERTEX
5
369
100
AcDbEntity
8
0
100
AcDbVertex
6
CONTINUOUS
100
AcDb2dVertex
10
294.3179510841
20
197.4016471906
0
VERTEX
5
36A
100
AcDbEntity
8
0
100
AcDbVertex
6
CONTINUOUS
100
AcDb2dVertex
10
294.1341528405
20
197.3458605618
0
VERTEX
5
36B
100
AcDbEntity
8
0
100
AcDbVertex
6
CONTINUOUS
100
AcDb2dVertex
10
293.9647608064
20
197.2552664067
0
VERTEX
5
36C
100
AcDbEntity
8
0
100
AcDbVertex
6
CONTINUOUS
100
AcDb2dVertex
10
293.8162850241
20
197.1333450228
0
VERTEX
5
36D
100
AcDbEntity
8
0
100
AcDbVertex
6
CONTINUOUS
100
AcDb2dVertex
10
293.6944319714
20
196.9847806376
0
VERTEX
5
36E
100
AcDbEntity
8
0
100
AcDbVertex
6
CONTINUOUS
100
AcDb2dVertex
10
293.6038857379
20
196.8152822913
0
VERTEX
5
36F
100
AcDbEntity
8
0
100
AcDbVertex
6
CONTINUOUS
100
AcDb2dVertex
10
293.5481270826
20
196.6313640524
0
VERTEX
5
370
100
AcDbEntity
8
0
100
AcDbVertex
6
CONTINUOUS
100
AcDb2dVertex
10
293.5292995033
20
196.4400937372
0
SEQEND
5
371
100
AcDbEntity
8
0
0
POLYLINE
5
372
100
AcDbEntity
8
0
100
AcDb2dPolyline
6
CONTINUOUS
66
1
70
0
0
VERTEX
5
373
100
AcDbEntity
8
0
100
AcDbVertex
6
CONTINUOUS
100
AcDb2dVertex
10
324.8416631188
20
197.4204837372
0
VERTEX
5
374
100
AcDbEntity
8
0
100
AcDbVertex
6
CONTINUOUS
100
AcDb2dVertex
10
325.0328112060
20
197.4016458183
0
VERTEX
5
375
100
AcDbEntity
8
0
100
AcDbVertex
6
CONTINUOUS
100
AcDb2dVertex
10
325.2166135795
20
197.3458559924
0
VERTEX
5
376
100
AcDbEntity
8
0
100
AcDbVertex
6
CONTINUOUS
100
AcDb2dVertex
10
325.3860068170
20
197.2552582311
0
VERTEX
5
377
100
AcDbEntity
8
0
100
AcDbVertex
6
CONTINUOUS
100
AcDb2dVertex
10
325.5344812317
20
197.1333341555
0
VERTEX
5
378
100
AcDbEntity
8
0
100
AcDbVertex
6
CONTINUOUS
100
AcDb2dVertex
10
325.6563310352
20
196.9847692392
0
VERTEX
5
379
100
AcDbEntity
8
0
100
AcDbVertex
6
CONTINUOUS
100
AcDb2dVertex
10
325.7468736075
20
196.8152727486
0
VERTEX
5
37A
100
AcDbEntity
8
0
100
AcDbVertex
6
CONTINUOUS
100
AcDb2dVertex
10
325.8026294483
20
196.6313583387
0
VERTEX
5
37B
100
AcDbEntity
8
0
100
AcDbVertex
6
CONTINUOUS
100
AcDb2dVertex
10
325.8214558917
20
196.4400937372
0
SEQEND
5
37C
100
AcDbEntity
8
0
0
LINE
5
37D
100
AcDbEntity
8
0
100
AcDbLine
6
CONTINUOUS
10
312.1753776976
20
206.2439937372
11
312.1753776976
21
206.6459487372
0
LINE
5
37E
100
AcDbEntity
8
0
100
AcDbLine
6
CONTINUOUS
10
312.1851760976
20
202.1263557372
11
312.1851760976
21
206.2439937372
0
POLYLINE
5
37F
100
AcDbEntity
8
0
100
AcDb2dPolyline
6
CONTINUOUS
66
1
70
0
0
VERTEX
5
380
100
AcDbEntity
8
0
100
AcDbVertex
6
CONTINUOUS
100
AcDb2dVertex
10
314.3028184976
20
210.9204540372
0
VERTEX
5
381
100
AcDbEntity
8
0
100
AcDbVertex
6
CONTINUOUS
100
AcDb2dVertex
10
314.3084698733
20
210.9426822325
0
VERTEX
5
382
100
AcDbEntity
8
0
100
AcDbVertex
6
CONTINUOUS
100
AcDb2dVertex
10
314.3252068212
20
210.9640562107
0
VERTEX
5
383
100
AcDbEntity
8
0
100
AcDbVertex
6
CONTINUOUS
100
AcDb2dVertex
10
314.3523861497
20
210.9837545819
0
VERTEX
5
384
100
AcDbEntity
8
0
100
AcDbVertex
6
CONTINUOUS
100
AcDb2dVertex
10
314.3889633725
20
211.0010203486
0
VERTEX
5
385
100
AcDbEntity
8
0
100
AcDbVertex
6
CONTINUOUS
100
AcDb2dVertex
10
314.4335328474
20
211.0151899972
0
VERTEX
5
386
100
AcDbEntity
8
0
100
AcDbVertex
6
CONTINUOUS
100
AcDb2dVertex
10
314.4843817946
20
211.0257189959
0
VERTEX
5
387
100
AcDbEntity
8
0
100
AcDbVertex
6
CONTINUOUS
100
AcDb2dVertex
10
314.5395561174
20
211.0322027213
0
VERTEX
5
388
100
AcDbEntity
8
0
100
AcDbVertex
6
CONTINUOUS
100
AcDb2dVertex
10
314.5969354976
20
211.0343920075
0
SEQEND
5
389
100
AcDbEntity
8
0
0
LINE
5
38A
100
AcDbEntity
8
0
100
AcDbLine
6
CONTINUOUS
10
312.6753710976
20
202.1263557372
11
312.1851760976
21
202.1263557379
0
LINE
5
38B
100
AcDbEntity
8
0
100
AcDbLine
6
CONTINUOUS
10
303.6753908976
20
202.1263557372
11
303.1851959040
21
202.1263557379
0
LINE
5
38C
100
AcDbEntity
8
0
100
AcDbLine
6
CONTINUOUS
10
306.6753842976
20
202.1263557372
11
307.1655792976
21
202.1263557372
0
LINE
5
38D
100
AcDbEntity
8
0
100
AcDbLine
6
CONTINUOUS
10
315.6753644976
20
202.1263557372
11
316.1655594976
21
202.1263557372
0
LINE
5
38E
100
AcDbEntity
8
0
100
AcDbLine
62
7
6
CONTINUOUS
10
315.1753776976
20
203.1459492172
11
313.7145932176
21
203.1459492172
0
LINE
5
38F
100
AcDbEntity
8
0
100
AcDbLine
62
7
6
CONTINUOUS
10
305.6361621776
20
203.1459492172
11
304.1753776976
21
203.1459492172
0
LINE
5
390
100
AcDbEntity
8
0
100
AcDbLine
6
CONTINUOUS
10
313.1020234357
20
203.3459492172
11
312.6753710976
21
203.3459492172
0
LINE
5
391
100
AcDbEntity
8
0
100
AcDbLine
6
CONTINUOUS
10
306.6753842976
20
203.3459492172
11
306.2490946438
21
203.3459492172
0
LINE
5
392
100
AcDbEntity
8
0
100
AcDbLine
62
7
6
CONTINUOUS
10
306.3392690920
20
203.4204837372
11
306.6753842976
21
203.4204837372
0
LINE
5
393
100
AcDbEntity
8
0
100
AcDbLine
62
7
6
CONTINUOUS
10
312.6753710976
20
203.4204837372
11
313.0147235183
21
203.4204837372
0
LINE
5
394
100
AcDbEntity
8
0
100
AcDbLine
6
CONTINUOUS
10
315.6753776976
20
203.6459492172
11
313.7145932176
21
203.6459492172
0
LINE
5
395
100
AcDbEntity
8
0
100
AcDbLine
6
CONTINUOUS
10
303.6753776976
20
203.6459492172
11
305.6361621776
21
203.6459492172
0
LINE
5
396
100
AcDbEntity
8
0
100
AcDbLine
62
7
6
CONTINUOUS
10
305.0124765922
20
211.7063891017
11
303.5929416895
21
213.7336950435
0
LINE
5
397
100
AcDbEntity
8
0
100
AcDbLine
62
7
6
CONTINUOUS
10
312.6753710976
20
205.7537987372
11
312.6753710976
21
202.1263557372
0
LINE
5
398
100
AcDbEntity
8
0
100
AcDbLine
6
CONTINUOUS
10
313.1753776976
20
204.1851647372
11
313.1753776976
21
205.6459487372
0
LINE
5
399
100
AcDbEntity
8
0
100
AcDbLine
6
CONTINUOUS
10
313.7145932176
20
203.1459492172
11
313.7145932176
21
203.6459492172
0
LINE
5
39A
100
AcDbEntity
8
0
100
AcDbLine
62
7
6
CONTINUOUS
10
314.3028184976
20
211.5939233813
11
314.3028184976
21
210.9204540372
0
LINE
5
39B
100
AcDbEntity
8
0
100
AcDbLine
6
CONTINUOUS
10
314.5969354976
20
210.6263370372
11
314.5969354976
21
211.7179858150
0
LINE
5
39C
100
AcDbEntity
8
0
100
AcDbLine
6
CONTINUOUS
10
306.6753776976
20
204.1851647372
11
306.1753776976
21
204.1851647372
0
LINE
5
39D
100
AcDbEntity
8
0
100
AcDbLine
6
CONTINUOUS
10
312.6753776976
20
204.1851647372
11
313.1753776976
21
204.1851647372
0
LINE
5
39E
100
AcDbEntity
8
0
100
AcDbLine
6
CONTINUOUS
10
306.6753776976
20
205.6459487372
11
306.1753776976
21
205.6459487372
0
LINE
5
39F
100
AcDbEntity
8
0
100
AcDbLine
6
CONTINUOUS
10
312.6753776976
20
205.6459487372
11
313.1753776976
21
205.6459487367
0
LINE
5
3A0
100
AcDbEntity
8
0
100
AcDbLine
6
CONTINUOUS
10
312.6753710976
20
205.7537987372
11
306.6753842976
21
205.7537987372
0
LINE
5
3A1
100
AcDbEntity
8
0
100
AcDbLine
62
7
6
CONTINUOUS
10
312.7034209208
20
203.9590815140
11
312.6653776976
21
203.9971247372
0
LINE
5
3A2
100
AcDbEntity
8
0
100
AcDbLine
6
CONTINUOUS
10
315.1753776976
20
203.1459492172
11
315.1753776976
21
209.6459480972
0
LINE
5
3A3
100
AcDbEntity
8
0
100
AcDbLine
62
7
6
CONTINUOUS
10
315.6753644976
20
210.6263370372
11
315.6753644976
21
202.1263557372
0
LINE
5
3A4
100
AcDbEntity
8
0
100
AcDbLine
6
CONTINUOUS
10
316.1655594976
20
202.1263557372
11
316.1655594976
21
211.0343920075
0
LINE
5
3A5
100
AcDbEntity
8
0
100
AcDbLine
6
CONTINUOUS
10
318.4535619227
20
209.3124050005
11
317.4892782884
21
209.1354258357
0
LINE
5
3A6
100
AcDbEntity
8
0
100
AcDbLine
6
CONTINUOUS
10
312.1753776976
20
206.6459487372
11
307.1753776976
21
206.6459487372
0
LINE
5
3A7
100
AcDbEntity
8
0
100
AcDbLine
6
CONTINUOUS
10
300.8971934726
20
209.3124050005
11
301.8614771061
21
209.1354258314
0
LINE
5
3A8
100
AcDbEntity
8
0
100
AcDbLine
6
CONTINUOUS
10
301.8614771069
20
209.1354258357
11
303.6753908976
21
209.1354258357
0
LINE
5
3A9
100
AcDbEntity
8
0
100
AcDbLine
6
CONTINUOUS
10
315.6753644976
20
209.1354258357
11
317.4892782884
21
209.1354258357
0
LINE
5
3AA
100
AcDbEntity
8
0
100
AcDbLine
6
CONTINUOUS
10
304.1753776976
20
209.6459480972
11
315.1753776976
21
209.6459480972
0
LINE
5
3AB
100
AcDbEntity
8
0
100
AcDbLine
62
7
6
CONTINUOUS
10
303.6753776976
20
210.1459480972
11
315.6753776976
21
210.1459480972
0
LINE
5
3AC
100
AcDbEntity
8
0
100
AcDbLine
62
7
6
CONTINUOUS
10
315.6837558905
20
210.6263370372
11
314.5969354976
21
210.6263370372
0
LINE
5
3AD
100
AcDbEntity
8
0
100
AcDbLine
62
7
6
CONTINUOUS
10
304.7538198976
20
210.6263370372
11
303.6669995048
21
210.6263370372
0
LINE
5
3AE
100
AcDbEntity
8
0
100
AcDbLine
6
CONTINUOUS
10
316.1655594976
20
211.0343920075
11
314.5969354976
21
211.0343920075
0
LINE
5
3AF
100
AcDbEntity
8
0
100
AcDbLine
6
CONTINUOUS
10
304.7538198976
20
211.0343920075
11
303.1851958976
21
211.0343920075
0
LINE
5
3B0
100
AcDbEntity
8
0
100
AcDbLine
6
CONTINUOUS
10
317.4892782884
20
209.1354258357
11
319.4506740418
21
198.4486208252
0
LINE
5
3B1
100
AcDbEntity
8
0
100
AcDbLine
62
7
6
CONTINUOUS
10
317.7706845454
20
213.0331112194
11
320.4149576760
21
198.6255999900
0
LINE
5
3B2
100
AcDbEntity
8
0
100
AcDbLine
62
7
6
CONTINUOUS
10
321.3253776976
20
216.7204837372
11
321.3253776976
21
227.9204837372
0
LINE
5
3B3
100
AcDbEntity
8
0
100
AcDbLine
6
CONTINUOUS
10
321.8613831275
20
197.4204837372
11
321.8613831275
21
196.4400937372
0
LINE
5
3B4
100
AcDbEntity
8
0
100
AcDbLine
6
CONTINUOUS
10
321.9979571772
20
171.6362267372
11
321.9979571772
21
173.5970067372
0
LINE
5
3B5
100
AcDbEntity
8
0
100
AcDbLine
62
7
6
CONTINUOUS
10
314.3382788031
20
211.7204837372
11
305.0124765922
21
211.7204837372
0
LINE
5
3B6
100
AcDbEntity
8
0
100
AcDbLine
6
CONTINUOUS
10
322.7571913662
20
168.5676060372
11
322.7571913662
21
169.5479960372
0
LINE
5
3B7
100
AcDbEntity
8
0
100
AcDbLine
6
CONTINUOUS
10
322.8820775730
20
193.4008847372
11
322.8820775730
21
197.4204837372
0
LINE
5
3B8
100
AcDbEntity
8
0
100
AcDbLine
62
7
6
CONTINUOUS
10
316.5653323321
20
214.0373758289
11
316.5653857249
21
214.0373758357
0
LINE
5
3B9
100
AcDbEntity
8
0
100
AcDbLine
62
7
6
CONTINUOUS
10
302.7854195498
20
214.0373758357
11
302.7855730210
21
214.0373758357
0
LINE
5
3BA
100
AcDbEntity
8
0
100
AcDbLine
62
7
6
CONTINUOUS
10
299.5253776976
20
215.2204837372
11
319.8253776976
21
215.2204837372
0
LINE
5
3BB
100
AcDbEntity
8
0
100
AcDbLine
62
7
6
CONTINUOUS
10
325.3253776976
20
197.4204837372
11
325.3253776976
21
230.4204837372
0
LINE
5
3BC
100
AcDbEntity
8
0
100
AcDbLine
6
CONTINUOUS
10
325.8214558917
20
194.3812747372
11
325.8214558917
21
196.4400937372
0
LINE
5
3BD
100
AcDbEntity
8
0
100
AcDbLine
6
CONTINUOUS
10
326.2480700163
20
193.4008847372
11
326.2480700163
21
192.4204947372
0
LINE
5
3BE
100
AcDbEntity
8
0
100
AcDbLine
6
CONTINUOUS
10
295.3799565260
20
172.7613197768
11
296.3724082181
21
173.3343120284
0
LINE
5
3BF
100
AcDbEntity
8
0
100
AcDbLine
62
7
6
CONTINUOUS
10
327.4204366976
20
193.4008847372
11
327.4204366976
21
196.4400937372
0
LINE
5
3C0
100
AcDbEntity
8
0
100
AcDbLine
6
CONTINUOUS
10
322.7571913662
20
169.5479960372
11
322.9904088693
21
171.0632344856
0
LINE
5
3C1
100
AcDbEntity
8
0
100
AcDbLine
6
CONTINUOUS
10
324.0389712506
20
172.7200914966
11
327.1011773468
21
192.6155509524
0
LINE
5
3C2
100
AcDbEntity
8
0
100
AcDbLine
62
7
6
CONTINUOUS
10
323.7261711075
20
169.3988557906
11
327.4204366976
21
193.4008847372
0
LINE
5
3C3
100
AcDbEntity
8
0
100
AcDbLine
62
7
6
CONTINUOUS
10
296.8626032181
20
172.4852693828
11
295.8701515260
21
171.9122771312
0
LINE
5
3C4
100
AcDbEntity
8
0
100
AcDbLine
6
CONTINUOUS
10
297.3527982181
20
171.6362267372
11
296.3603465260
21
171.0632344856
0
LINE
5
3C5
100
AcDbEntity
8
0
100
AcDbLine
6
CONTINUOUS
10
321.9979571772
20
171.6362267372
11
322.9783471772
21
173.3343120284
0
LINE
5
3C6
100
AcDbEntity
8
0
100
AcDbLine
6
CONTINUOUS
10
322.9904088693
20
171.0632344856
11
323.9707988693
21
172.7613197768
0
LINE
5
3C7
100
AcDbEntity
8
0
100
AcDbLine
62
7
6
CONTINUOUS
10
319.8253776976
20
229.4204837372
11
299.5253776976
21
229.4204837372
0
LINE
5
3C8
100
AcDbEntity
8
0
100
AcDbLine
62
7
6
CONTINUOUS
10
322.3253776976
20
233.4204837372
11
297.0253776976
21
233.4204837372
0
LINE
5
3C9
100
AcDbEntity
8
0
100
AcDbLine
62
7
6
CONTINUOUS
10
57.4979018049
20
102.2506463777
11
57.4979018049
21
94.7525716278
0
LINE
5
3CA
100
AcDbEntity
8
0
100
AcDbLine
62
7
6
CONTINUOUS
10
57.4979018049
20
94.5439465024
11
57.4979018049
21
83.5439465024
0
LINE
5
3CB
100
AcDbEntity
8
0
100
AcDbLine
62
7
6
CONTINUOUS
10
57.4979018049
20
83.3356809309
11
57.4979018049
21
75.8372466270
0
LINE
5
3CC
100
AcDbEntity
8
0
100
AcDbLine
62
7
6
CONTINUOUS
10
57.8577000503
20
82.6968895065
11
57.8577000503
21
84.1223887024
0
LINE
5
3CD
100
AcDbEntity
8
0
100
AcDbLine
62
7
6
CONTINUOUS
10
57.8577000503
20
93.9655043024
11
57.8577000503
21
95.3910034982
0
LINE
5
3CE
100
AcDbEntity
8
0
100
AcDbLine
6
CONTINUOUS
10
57.8806658958
20
82.5537647024
11
57.8806658958
21
84.1223887024
0
LINE
5
3CF
100
AcDbEntity
8
0
100
AcDbLine
6
CONTINUOUS
10
57.8806658958
20
93.9655043024
11
57.8806658958
21
95.5341283024
0
LINE
5
3D0
100
AcDbEntity
8
0
100
AcDbLine
6
CONTINUOUS
10
57.9979018049
20
93.7158604055
11
57.9979018049
21
84.3716857134
0
LINE
5
3D1
100
AcDbEntity
8
0
100
AcDbLine
6
CONTINUOUS
10
58.4782918049
20
102.2506463777
11
58.4782918049
21
97.8221307274
0
LINE
5
3D2
100
AcDbEntity
8
0
100
AcDbLine
6
CONTINUOUS
10
58.4782918049
20
80.2657622773
11
58.4782918049
21
75.8372466270
0
LINE
5
3D3
100
AcDbEntity
8
0
100
AcDbLine
62
7
6
CONTINUOUS
10
63.3665412096
20
80.9486338117
11
63.4922736647
21
78.3043665240
0
LINE
5
3D4
100
AcDbEntity
8
0
100
AcDbLine
6
CONTINUOUS
10
60.3706415697
20
104.2102319236
11
60.3364264584
21
105.1900246967
0
LINE
5
3D5
100
AcDbEntity
8
0
100
AcDbLine
62
7
6
CONTINUOUS
10
63.3604273166
20
95.1263825105
11
63.3781193475
21
93.7068476078
0
LINE
5
3D6
100
AcDbEntity
8
0
100
AcDbLine
62
7
6
CONTINUOUS
10
63.3875448191
20
83.0439597024
11
63.3875448191
21
84.1223887024
0
LINE
5
3D7
100
AcDbEntity
8
0
100
AcDbLine
62
7
6
CONTINUOUS
10
63.3875448191
20
93.9655043024
11
63.3875448191
21
95.0439333024
0
LINE
5
3D8
100
AcDbEntity
8
0
100
AcDbLine
62
7
6
CONTINUOUS
10
63.5027905549
20
101.2299519322
11
63.5027905549
21
95.0439465024
0
LINE
5
3D9
100
AcDbEntity
8
0
100
AcDbLine
62
7
6
CONTINUOUS
10
63.5027905549
20
83.0439597024
11
63.5027905549
21
76.8579410726
0
LINE
5
3DA
100
AcDbEntity
8
0
100
AcDbLine
62
7
6
CONTINUOUS
10
63.7977698049
20
73.3939465024
11
63.7977698049
21
104.6939465024
0
LINE
5
3DB
100
AcDbEntity
8
0
100
AcDbLine
62
7
6
CONTINUOUS
10
63.3781193475
20
84.3810453969
11
63.3604273166
21
82.9615104942
0
LINE
5
3DC
100
AcDbEntity
8
0
100
AcDbLine
6
CONTINUOUS
10
60.3706415697
20
73.8776610812
11
60.3364264522
21
72.8978683083
0
LINE
5
3DD
100
AcDbEntity
8
0
100
AcDbLine
62
7
6
CONTINUOUS
10
63.4922736647
20
99.7835264808
11
63.3665084665
21
97.1385645334
0
POLYLINE
5
3DE
100
AcDbEntity
8
0
100
AcDb2dPolyline
6
CONTINUOUS
66
1
70
0
0
VERTEX
5
3DF
100
AcDbEntity
8
0
100
AcDbVertex
6
CONTINUOUS
100
AcDb2dVertex
10
176.5172478049
20
78.3043665240
0
VERTEX
5
3E0
100
AcDbEntity
8
0
100
AcDbVertex
6
CONTINUOUS
100
AcDb2dVertex
10
176.7085124057
20
78.3228949636
0
VERTEX
5
3E1
100
AcDbEntity
8
0
100
AcDbVertex
6
CONTINUOUS
100
AcDb2dVertex
10
176.8924268151
20
78.3777682450
0
VERTEX
5
3E2
100
AcDbEntity
8
0
100
AcDbVertex
6
CONTINUOUS
100
AcDb2dVertex
10
177.0619233056
20
78.4668776187
0
VERTEX
5
3E3
100
AcDbEntity
8
0
100
AcDbVertex
6
CONTINUOUS
100
AcDb2dVertex
10
177.2104882221
20
78.5867986615
0
VERTEX
5
3E4
100
AcDbEntity
8
0
100
AcDbVertex
6
CONTINUOUS
100
AcDb2dVertex
10
177.3324122981
20
78.7329228749
0
VERTEX
5
3E5
100
AcDbEntity
8
0
100
AcDbVertex
6
CONTINUOUS
100
AcDb2dVertex
10
177.4230100598
20
78.8996347873
0
VERTEX
5
3E6
100
AcDbEntity
8
0
100
AcDbVertex
6
CONTINUOUS
100
AcDb2dVertex
10
177.4787998859
20
79.0805277535
0
VERTEX
5
3E7
100
AcDbEntity
8
0
100
AcDbVertex
6
CONTINUOUS
100
AcDb2dVertex
10
177.4976378049
20
79.2686501582
0
SEQEND
5
3E8
100
AcDbEntity
8
0
0
LINE
5
3E9
100
AcDbEntity
8
0
100
AcDbLine
62
7
6
CONTINUOUS
10
128.8702938049
20
71.2988875024
11
174.6591131514
21
72.8978683081
0
LINE
5
3EA
100
AcDbEntity
8
0
100
AcDbLine
6
CONTINUOUS
10
128.8531810338
20
72.2792775024
11
160.7731248444
21
73.3939465024
0
LINE
5
3EB
100
AcDbEntity
8
0
100
AcDbLine
6
CONTINUOUS
10
171.1977698049
20
73.7579831261
11
174.6248980400
21
73.8776610812
0
LINE
5
3EC
100
AcDbEntity
8
0
100
AcDbLine
62
7
6
CONTINUOUS
10
101.6581171408
20
71.2988875024
11
133.3374385900
21
71.2988875024
0
LINE
5
3ED
100
AcDbEntity
8
0
100
AcDbLine
6
CONTINUOUS
10
128.8531810338
20
72.2792775024
11
106.1423585760
21
72.2792775024
0
LINE
5
3EE
100
AcDbEntity
8
0
100
AcDbLine
62
7
6
CONTINUOUS
10
60.3364264522
20
72.8978683083
11
106.1252458049
21
71.2988875024
0
LINE
5
3EF
100
AcDbEntity
8
0
100
AcDbLine
6
CONTINUOUS
10
60.3706415697
20
73.8776610812
11
63.7977698049
21
73.7579831261
0
LINE
5
3F0
100
AcDbEntity
8
0
100
AcDbLine
6
CONTINUOUS
10
74.2224147654
20
73.3939465024
11
106.1423585760
21
72.2792775024
0
POLYLINE
5
3F1
100
AcDbEntity
8
0
100
AcDb2dPolyline
6
CONTINUOUS
66
1
70
0
0
VERTEX
5
3F2
100
AcDbEntity
8
0
100
AcDbVertex
6
CONTINUOUS
100
AcDb2dVertex
10
58.4782918049
20
78.3043665240
0
VERTEX
5
3F3
100
AcDbEntity
8
0
100
AcDbVertex
6
CONTINUOUS
100
AcDb2dVertex
10
58.2870366624
20
78.3228931136
0
VERTEX
5
3F4
100
AcDbEntity
8
0
100
AcDbVertex
6
CONTINUOUS
100
AcDb2dVertex
10
58.1031286546
20
78.3777617843
0
VERTEX
5
3F5
100
AcDbEntity
8
0
100
AcDbVertex
6
CONTINUOUS
100
AcDb2dVertex
10
57.9336353272
20
78.4668651177
0
VERTEX
5
3F6
100
AcDbEntity
8
0
100
AcDbVertex
6
CONTINUOUS
100
AcDb2dVertex
10
57.7850696673
20
78.5867806832
0
VERTEX
5
3F7
100
AcDbEntity
8
0
100
AcDbVertex
6
CONTINUOUS
100
AcDb2dVertex
10
57.6631413884
20
78.7329021549
0
VERTEX
5
3F8
100
AcDbEntity
8
0
100
AcDbVertex
6
CONTINUOUS
100
AcDb2dVertex
10
57.5725376250
20
78.8996156140
0
VERTEX
5
3F9
100
AcDbEntity
8
0
100
AcDbVertex
6
CONTINUOUS
100
AcDb2dVertex
10
57.5167421814
20
79.0805156028
0
VERTEX
5
3FA
100
AcDbEntity
8
0
100
AcDbVertex
6
CONTINUOUS
100
AcDb2dVertex
10
57.4979018049
20
79.2686501525
0
SEQEND
5
3FB
100
AcDbEntity
8
0
0
LINE
5
3FC
100
AcDbEntity
8
0
100
AcDbLine
62
7
6
CONTINUOUS
10
101.6252557049
20
106.7864132573
11
101.6252557049
21
106.6318623854
0
LINE
5
3FD
100
AcDbEntity
8
0
100
AcDbLine
62
7
6
CONTINUOUS
10
101.6252557049
20
71.4560306194
11
101.6252557049
21
71.3014662956
0
LINE
5
3FE
100
AcDbEntity
8
0
100
AcDbLine
62
7
6
CONTINUOUS
10
63.7977698049
20
73.3939465024
11
171.1977698049
21
73.3939465024
0
LINE
5
3FF
100
AcDbEntity
8
0
100
AcDbLine
6
CONTINUOUS
10
58.4782918049
20
75.8372466270
11
57.4979018049
21
75.8372466352
0
LINE
5
400
100
AcDbEntity
8
0
100
AcDbLine
6
CONTINUOUS
10
176.5172478049
20
75.8372466270
11
177.4976378049
21
75.8372466270
0
LINE
5
401
100
AcDbEntity
8
0
100
AcDbLine
6
CONTINUOUS
10
63.7977698049
20
76.3939465024
11
171.1977698049
21
76.3939465024
0
LINE
5
402
100
AcDbEntity
8
0
100
AcDbLine
6
CONTINUOUS
10
57.4979018049
20
76.8579410726
11
63.5027905549
21
76.8579410726
0
LINE
5
403
100
AcDbEntity
8
0
100
AcDbLine
6
CONTINUOUS
10
171.4927490549
20
76.8579410726
11
177.4976378049
21
76.8579410726
0
LINE
5
404
100
AcDbEntity
8
0
100
AcDbLine
6
CONTINUOUS
10
58.4782918049
20
78.3043665240
11
63.4922736647
21
78.3043665240
0
LINE
5
405
100
AcDbEntity
8
0
100
AcDbLine
6
CONTINUOUS
10
171.5032659451
20
78.3043665240
11
176.5172478049
21
78.3043665240
0
LINE
5
406
100
AcDbEntity
8
0
100
AcDbLine
62
7
6
CONTINUOUS
10
61.1586363461
20
80.9486396546
11
63.3665412096
21
80.9486396546
0
LINE
5
407
100
AcDbEntity
8
0
100
AcDbLine
62
7
6
CONTINUOUS
10
173.8337800212
20
80.9486399812
11
171.6290311433
21
80.9493284714
0
LINE
5
408
100
AcDbEntity
8
0
100
AcDbLine
6
CONTINUOUS
10
177.4976378049
20
82.5537647024
11
177.1148737140
21
82.5537647024
0
LINE
5
409
100
AcDbEntity
8
0
100
AcDbLine
6
CONTINUOUS
10
57.8806658958
20
82.5537647024
11
57.4979018049
21
82.5537647024
0
LINE
5
40A
100
AcDbEntity
8
0
100
AcDbLine
62
7
6
CONTINUOUS
10
173.8649401938
20
82.9615104942
11
171.6351122932
21
82.9615104942
0
LINE
5
40B
100
AcDbEntity
8
0
100
AcDbLine
62
7
6
CONTINUOUS
10
61.1303585873
20
82.9615104942
11
63.3604273166
21
82.9615104942
0
LINE
5
40C
100
AcDbEntity
8
0
100
AcDbLine
62
7
6
CONTINUOUS
10
171.6079947907
20
83.0439465024
11
171.1977698049
21
83.0439465024
0
LINE
5
40D
100
AcDbEntity
8
0
100
AcDbLine
62
7
6
CONTINUOUS
10
63.3875448191
20
83.0439465024
11
63.7977698049
21
83.0439465024
0
LINE
5
40E
100
AcDbEntity
8
0
100
AcDbLine
6
CONTINUOUS
10
177.1378395594
20
84.1223887024
11
176.7621665647
21
84.1223887024
0
LINE
5
40F
100
AcDbEntity
8
0
100
AcDbLine
6
CONTINUOUS
10
57.8577000503
20
84.1223887024
11
58.2333787454
21
84.1223887024
0
LINE
5
410
100
AcDbEntity
8
0
100
AcDbLine
6
CONTINUOUS
10
176.4928553371
20
84.3810453969
11
171.6174202623
21
84.3810453969
0
LINE
5
411
100
AcDbEntity
8
0
100
AcDbLine
6
CONTINUOUS
10
63.3781193475
20
84.3810453969
11
58.5026842726
21
84.3810453969
0
LINE
5
412
100
AcDbEntity
8
0
100
AcDbLine
62
7
6
CONTINUOUS
10
176.8436672409
20
84.4165057024
11
171.6164387888
21
84.4165057024
0
LINE
5
413
100
AcDbEntity
8
0
100
AcDbLine
62
7
6
CONTINUOUS
10
63.3791008210
20
84.4165057024
11
58.1518170503
21
84.4165057024
0
POLYLINE
5
414
100
AcDbEntity
8
0
100
AcDb2dPolyline
6
CONTINUOUS
66
1
70
0
0
VERTEX
5
415
100
AcDbEntity
8
0
100
AcDbVertex
6
CONTINUOUS
100
AcDb2dVertex
10
58.1518170503
20
84.4165057024
0
VERTEX
5
416
100
AcDbEntity
8
0
100
AcDbVertex
6
CONTINUOUS
100
AcDb2dVertex
10
58.0989180843
20
84.4108543267
0
VERTEX
5
417
100
AcDbEntity
8
0
100
AcDbVertex
6
CONTINUOUS
100
AcDb2dVertex
10
58.0480519958
20
84.3941173788
0
VERTEX
5
418
100
AcDbEntity
8
0
100
AcDbVertex
6
CONTINUOUS
100
AcDb2dVertex
10
58.0011735402
20
84.3669380503
0
VERTEX
5
419
100
AcDbEntity
8
0
100
AcDbVertex
6
CONTINUOUS
100
AcDb2dVertex
10
57.9600842302
20
84.3303608275
0
VERTEX
5
41A
100
AcDbEntity
8
0
100
AcDbVertex
6
CONTINUOUS
100
AcDb2dVertex
10
57.9263631050
20
84.2857913526
0
VERTEX
5
41B
100
AcDbEntity
8
0
100
AcDbVertex
6
CONTINUOUS
100
AcDb2dVertex
10
57.9013060484
20
84.2349424054
0
VERTEX
5
41C
100
AcDbEntity
8
0
100
AcDbVertex
6
CONTINUOUS
100
AcDb2dVertex
10
57.8858759892
20
84.1797680826
0
VERTEX
5
41D
100
AcDbEntity
8
0
100
AcDbVertex
6
CONTINUOUS
100
AcDb2dVertex
10
57.8806658958
20
84.1223887024
0
SEQEND
5
41E
100
AcDbEntity
8
0
0
LINE
5
41F
100
AcDbEntity
8
0
100
AcDbLine
62
7
6
CONTINUOUS
10
63.3791008210
20
93.6713873024
11
58.1518926683
21
93.6713873024
0
LINE
5
420
100
AcDbEntity
8
0
100
AcDbLine
62
7
6
CONTINUOUS
10
171.6164387888
20
93.6713873024
11
176.8437225115
21
93.6713873024
0
LINE
5
421
100
AcDbEntity
8
0
100
AcDbLine
6
CONTINUOUS
10
63.3781193475
20
93.7068476078
11
58.5026842726
21
93.7068476078
0
LINE
5
422
100
AcDbEntity
8
0
100
AcDbLine
6
CONTINUOUS
10
171.6174202623
20
93.7068476078
11
176.4928553371
21
93.7068476078
0
LINE
5
423
100
AcDbEntity
8
0
100
AcDbLine
6
CONTINUOUS
10
176.8966215255
20
84.4108543267
11
176.8437225594
21
84.4165057024
0
LINE
5
424
100
AcDbEntity
8
0
100
AcDbLine
6
CONTINUOUS
10
57.8577000691
20
93.9655043024
11
58.2332885284
21
93.9655043024
0
LINE
5
425
100
AcDbEntity
8
0
100
AcDbLine
6
CONTINUOUS
10
176.7622572698
20
93.9655043024
11
177.1378395406
21
93.9655043024
0
LINE
5
426
100
AcDbEntity
8
0
100
AcDbLine
62
7
6
CONTINUOUS
10
171.6079947907
20
95.0439465024
11
171.1977698049
21
95.0439465024
0
LINE
5
427
100
AcDbEntity
8
0
100
AcDbLine
62
7
6
CONTINUOUS
10
63.3875448191
20
95.0439465024
11
63.7977698049
21
95.0439465024
0
LINE
5
428
100
AcDbEntity
8
0
100
AcDbLine
62
7
6
CONTINUOUS
10
173.8649399728
20
95.1263825105
11
171.6351122932
21
95.1263825105
0
LINE
5
429
100
AcDbEntity
8
0
100
AcDbLine
62
7
6
CONTINUOUS
10
61.1303582991
20
95.1263825105
11
63.3604273166
21
95.1263825105
0
LINE
5
42A
100
AcDbEntity
8
0
100
AcDbLine
6
CONTINUOUS
10
57.4979018049
20
95.5341283024
11
57.8806658958
21
95.5341283024
0
LINE
5
42B
100
AcDbEntity
8
0
100
AcDbLine
6
CONTINUOUS
10
177.1148737140
20
95.5341283024
11
177.4976378049
21
95.5341283024
0
LINE
5
42C
100
AcDbEntity
8
0
100
AcDbLine
62
7
6
CONTINUOUS
10
173.8369183359
20
97.1392533501
11
171.6289984001
21
97.1392533501
0
LINE
5
42D
100
AcDbEntity
8
0
100
AcDbLine
62
7
6
CONTINUOUS
10
61.1618712604
20
97.1392529893
11
63.3665084665
21
97.1385645334
0
LINE
5
42E
100
AcDbEntity
8
0
100
AcDbLine
6
CONTINUOUS
10
58.4782918049
20
99.7835264808
11
63.4922736647
21
99.7835264808
0
LINE
5
42F
100
AcDbEntity
8
0
100
AcDbLine
6
CONTINUOUS
10
171.5032659451
20
99.7835264808
11
176.5172478049
21
99.7835264808
0
LINE
5
430
100
AcDbEntity
8
0
100
AcDbLine
6
CONTINUOUS
10
57.4979018049
20
101.2299519361
11
63.5027905549
21
101.2299519322
0
LINE
5
431
100
AcDbEntity
8
0
100
AcDbLine
6
CONTINUOUS
10
171.4927490549
20
101.2299519322
11
177.4976378049
21
101.2299519322
0
LINE
5
432
100
AcDbEntity
8
0
100
AcDbLine
6
CONTINUOUS
10
63.7977698049
20
101.6939465024
11
171.1977698049
21
101.6939465024
0
LINE
5
433
100
AcDbEntity
8
0
100
AcDbLine
62
7
6
CONTINUOUS
10
133.3702839049
20
106.7864132224
11
133.3702839049
21
106.6318623854
0
LINE
5
434
100
AcDbEntity
8
0
100
AcDbLine
62
7
6
CONTINUOUS
10
133.3702839049
20
71.4560306194
11
133.3702839049
21
71.3014673570
0
POLYLINE
5
435
100
AcDbEntity
8
0
100
AcDb2dPolyline
6
CONTINUOUS
66
1
70
0
0
VERTEX
5
436
100
AcDbEntity
8
0
100
AcDbVertex
6
CONTINUOUS
100
AcDb2dVertex
10
58.4782918049
20
99.7835264808
0
VERTEX
5
437
100
AcDbEntity
8
0
100
AcDbVertex
6
CONTINUOUS
100
AcDb2dVertex
10
58.2870272041
20
99.7649980411
0
VERTEX
5
438
100
AcDbEntity
8
0
100
AcDbVertex
6
CONTINUOUS
100
AcDb2dVertex
10
58.1031127946
20
99.7101247597
0
VERTEX
5
439
100
AcDbEntity
8
0
100
AcDbVertex
6
CONTINUOUS
100
AcDb2dVertex
10
57.9336163041
20
99.6210153860
0
VERTEX
5
43A
100
AcDbEntity
8
0
100
AcDbVertex
6
CONTINUOUS
100
AcDb2dVertex
10
57.7850513877
20
99.5010943433
0
VERTEX
5
43B
100
AcDbEntity
8
0
100
AcDbVertex
6
CONTINUOUS
100
AcDb2dVertex
10
57.6631273117
20
99.3549701299
0
VERTEX
5
43C
100
AcDbEntity
8
0
100
AcDbVertex
6
CONTINUOUS
100
AcDb2dVertex
10
57.5725295500
20
99.1882582174
0
VERTEX
5
43D
100
AcDbEntity
8
0
100
AcDbVertex
6
CONTINUOUS
100
AcDb2dVertex
10
57.5167397238
20
99.0073652512
0
VERTEX
5
43E
100
AcDbEntity
8
0
100
AcDbVertex
6
CONTINUOUS
100
AcDb2dVertex
10
57.4979018049
20
98.8192428465
0
SEQEND
5
43F
100
AcDbEntity
8
0
0
LINE
5
440
100
AcDbEntity
8
0
100
AcDbLine
6
CONTINUOUS
10
106.1423585760
20
105.8086155024
11
74.2224147654
21
104.6939465024
0
LINE
5
441
100
AcDbEntity
8
0
100
AcDbLine
6
CONTINUOUS
10
63.7977698049
20
104.3299098787
11
60.3706415697
21
104.2102319236
0
LINE
5
442
100
AcDbEntity
8
0
100
AcDbLine
6
CONTINUOUS
10
58.4782918049
20
102.2506463777
11
57.4979018049
21
102.2506463777
0
LINE
5
443
100
AcDbEntity
8
0
100
AcDbLine
6
CONTINUOUS
10
176.5172478049
20
102.2506463777
11
177.4976378049
21
102.2506463695
0
LINE
5
444
100
AcDbEntity
8
0
100
AcDbLine
62
7
6
CONTINUOUS
10
63.7977698049
20
104.6939465024
11
171.1977698049
21
104.6939465024
0
LINE
5
445
100
AcDbEntity
8
0
100
AcDbLine
6
CONTINUOUS
10
106.1423585760
20
105.8086155024
11
128.8531810338
21
105.8086155024
0
LINE
5
446
100
AcDbEntity
8
0
100
AcDbLine
6
CONTINUOUS
10
174.6248980400
20
104.2102319236
11
171.1977698049
21
104.3299098787
0
LINE
5
447
100
AcDbEntity
8
0
100
AcDbLine
6
CONTINUOUS
10
160.7731248444
20
104.6939465024
11
128.8531810338
21
105.8086155024
0
POLYLINE
5
448
100
AcDbEntity
8
0
100
AcDb2dPolyline
6
CONTINUOUS
66
1
70
0
0
VERTEX
5
449
100
AcDbEntity
8
0
100
AcDbVertex
6
CONTINUOUS
100
AcDb2dVertex
10
176.5172478049
20
99.7835264808
0
VERTEX
5
44A
100
AcDbEntity
8
0
100
AcDbVertex
6
CONTINUOUS
100
AcDb2dVertex
10
176.7085028520
20
99.7649999103
0
VERTEX
5
44B
100
AcDbEntity
8
0
100
AcDbVertex
6
CONTINUOUS
100
AcDb2dVertex
10
176.8924107977
20
99.7101312854
0
VERTEX
5
44C
100
AcDbEntity
8
0
100
AcDbVertex
6
CONTINUOUS
100
AcDb2dVertex
10
177.0619040982
20
99.6210280091
0
VERTEX
5
44D
100
AcDbEntity
8
0
100
AcDbVertex
6
CONTINUOUS
100
AcDb2dVertex
10
177.2104697690
20
99.5011124928
0
VERTEX
5
44E
100
AcDbEntity
8
0
100
AcDbVertex
6
CONTINUOUS
100
AcDb2dVertex
10
177.3323980905
20
99.3549910432
0
VERTEX
5
44F
100
AcDbEntity
8
0
100
AcDbVertex
6
CONTINUOUS
100
AcDb2dVertex
10
177.4230019111
20
99.1882775664
0
VERTEX
5
450
100
AcDbEntity
8
0
100
AcDbVertex
6
CONTINUOUS
100
AcDb2dVertex
10
177.4787974062
20
99.0073775125
0
VERTEX
5
451
100
AcDbEntity
8
0
100
AcDbVertex
6
CONTINUOUS
100
AcDb2dVertex
10
177.4976378049
20
98.8192428531
0
SEQEND
5
452
100
AcDbEntity
8
0
0
LINE
5
453
100
AcDbEntity
8
0
100
AcDbLine
62
7
6
CONTINUOUS
10
106.1252458049
20
106.7890055024
11
60.3364264522
21
105.1900246965
0
LINE
5
454
100
AcDbEntity
8
0
100
AcDbLine
62
7
6
CONTINUOUS
10
101.6585512223
20
106.7890055024
11
133.3369987559
21
106.7890055024
0
LINE
5
455
100
AcDbEntity
8
0
100
AcDbLine
62
7
6
CONTINUOUS
10
174.6591131576
20
105.1900246965
11
128.8702938049
21
106.7890055024
0
LINE
5
456
100
AcDbEntity
8
0
100
AcDbLine
62
7
6
CONTINUOUS
10
171.5032659451
20
99.7835264808
11
171.6289984001
21
97.1392591930
0
LINE
5
457
100
AcDbEntity
8
0
100
AcDbLine
62
7
6
CONTINUOUS
10
171.6351122932
20
82.9615104942
11
171.6174202623
21
84.3810453969
0
LINE
5
458
100
AcDbEntity
8
0
100
AcDbLine
62
7
6
CONTINUOUS
10
171.1977698049
20
73.3939465024
11
171.1977698049
21
104.6939465024
0
LINE
5
459
100
AcDbEntity
8
0
100
AcDbLine
62
7
6
CONTINUOUS
10
171.4927490549
20
76.8579410726
11
171.4927490549
21
83.0439597024
0
LINE
5
45A
100
AcDbEntity
8
0
100
AcDbLine
62
7
6
CONTINUOUS
10
171.4927490549
20
95.0439465024
11
171.4927490549
21
101.2299519322
0
LINE
5
45B
100
AcDbEntity
8
0
100
AcDbLine
62
7
6
CONTINUOUS
10
171.6079947907
20
83.0439597024
11
171.6079947907
21
84.1223887024
0
LINE
5
45C
100
AcDbEntity
8
0
100
AcDbLine
62
7
6
CONTINUOUS
10
171.6079947907
20
93.9655043024
11
171.6079947907
21
95.0439333024
0
LINE
5
45D
100
AcDbEntity
8
0
100
AcDbLine
62
7
6
CONTINUOUS
10
171.6174202623
20
93.7068476078
11
171.6351122932
21
95.1263825105
0
LINE
5
45E
100
AcDbEntity
8
0
100
AcDbLine
62
7
6
CONTINUOUS
10
171.6290311433
20
80.9493284714
11
171.5032659451
21
78.3043665240
0
POLYLINE
5
45F
100
AcDbEntity
8
0
100
AcDb2dPolyline
6
CONTINUOUS
66
1
70
0
0
VERTEX
5
460
100
AcDbEntity
8
0
100
AcDbVertex
6
CONTINUOUS
100
AcDb2dVertex
10
177.0942335613
20
84.2349424054
0
VERTEX
5
461
100
AcDbEntity
8
0
100
AcDbVertex
6
CONTINUOUS
100
AcDb2dVertex
10
177.0691765048
20
84.2857913526
0
VERTEX
5
462
100
AcDbEntity
8
0
100
AcDbVertex
6
CONTINUOUS
100
AcDb2dVertex
10
177.0354553795
20
84.3303608275
0
VERTEX
5
463
100
AcDbEntity
8
0
100
AcDbVertex
6
CONTINUOUS
100
AcDb2dVertex
10
176.9943660695
20
84.3669380503
0
VERTEX
5
464
100
AcDbEntity
8
0
100
AcDbVertex
6
CONTINUOUS
100
AcDb2dVertex
10
176.9474876139
20
84.3941173788
0
VERTEX
5
465
100
AcDbEntity
8
0
100
AcDbVertex
6
CONTINUOUS
100
AcDb2dVertex
10
176.8966215255
20
84.4108543267
0
SEQEND
5
466
100
AcDbEntity
8
0
0
POLYLINE
5
467
100
AcDbEntity
8
0
100
AcDb2dPolyline
6
CONTINUOUS
66
1
70
0
0
VERTEX
5
468
100
AcDbEntity
8
0
100
AcDbVertex
6
CONTINUOUS
100
AcDb2dVertex
10
177.1148737140
20
84.1223887024
0
VERTEX
5
469
100
AcDbEntity
8
0
100
AcDbVertex
6
CONTINUOUS
100
AcDb2dVertex
10
177.1096636206
20
84.1797680826
0
VERTEX
5
46A
100
AcDbEntity
8
0
100
AcDbVertex
6
CONTINUOUS
100
AcDb2dVertex
10
177.0942335613
20
84.2349424054
0
SEQEND
5
46B
100
AcDbEntity
8
0
0
LINE
5
46C
100
AcDbEntity
8
0
100
AcDbLine
6
CONTINUOUS
10
174.6248980400
20
73.8776610812
11
174.6591131514
21
72.8978683081
0
LINE
5
46D
100
AcDbEntity
8
0
100
AcDbLine
6
CONTINUOUS
10
176.4928553371
20
84.3810453969
11
176.4928553371
21
84.4165057024
0
LINE
5
46E
100
AcDbEntity
8
0
100
AcDbLine
6
CONTINUOUS
10
176.5172478049
20
75.8372466270
11
176.5172478049
21
80.2657622773
0
LINE
5
46F
100
AcDbEntity
8
0
100
AcDbLine
6
CONTINUOUS
10
176.5172478049
20
97.8221307274
11
176.5172478049
21
102.2506463777
0
LINE
5
470
100
AcDbEntity
8
0
100
AcDbLine
6
CONTINUOUS
10
176.9979018049
20
84.3715406812
11
176.9979018049
21
93.7160024306
0
LINE
5
471
100
AcDbEntity
8
0
100
AcDbLine
6
CONTINUOUS
10
177.1148737140
20
95.5341283024
11
177.1148737140
21
93.9655043024
0
LINE
5
472
100
AcDbEntity
8
0
100
AcDbLine
6
CONTINUOUS
10
177.1148737140
20
84.1223887024
11
177.1148737140
21
82.5537647024
0
LINE
5
473
100
AcDbEntity
8
0
100
AcDbLine
62
7
6
CONTINUOUS
10
177.1378395594
20
95.3910034982
11
177.1378395594
21
93.9655043024
0
LINE
5
474
100
AcDbEntity
8
0
100
AcDbLine
62
7
6
CONTINUOUS
10
177.1378395594
20
84.1223887024
11
177.1378395594
21
82.6968895065
0
LINE
5
475
100
AcDbEntity
8
0
100
AcDbLine
62
7
6
CONTINUOUS
10
177.4976378049
20
75.8372466270
11
177.4976378049
21
83.5412660654
0
LINE
5
476
100
AcDbEntity
8
0
100
AcDbLine
62
7
6
CONTINUOUS
10
177.4976378049
20
94.5488607323
11
177.4976378049
21
102.2506463777
0
LINE
5
477
100
AcDbEntity
8
0
100
AcDbLine
62
7
6
CONTINUOUS
10
177.4979018049
20
83.5439465024
11
177.4979018049
21
94.5439465024
0
LINE
5
478
100
AcDbEntity
8
0
100
AcDbLine
6
CONTINUOUS
10
174.6248980400
20
104.2102319236
11
174.6591131576
21
105.1900246965
0
ARC
5
479
100
AcDbEntity
8
0
100
AcDbCircle
62
7
6
CONTINUOUS
10
57.9979018049
20
209.6459480972
40
0.5000000000
100
AcDbArc
50
152.0129415794
51
180.0000000000
0
ARC
5
47A
100
AcDbEntity
8
0
100
AcDbCircle
62
7
6
CONTINUOUS
10
176.9979018049
20
209.6459480972
40
0.5000000000
100
AcDbArc
50
0.0000000000
51
28.0749842164
0
ARC
5
47B
100
AcDbEntity
8
0
100
AcDbCircle
62
7
6
CONTINUOUS
10
58.4782918049
20
194.3812747372
40
0.9803900000
100
AcDbArc
50
180.0000000000
51
270.0000000000
0
ARC
5
47C
100
AcDbEntity
8
0
100
AcDbCircle
62
7
6
CONTINUOUS
10
176.5172478049
20
194.3812747372
40
0.9803900000
100
AcDbArc
50
270.0000000000
51
360.0000000000
0
ARC
5
47D
100
AcDbEntity
8
0
100
AcDbCircle
62
7
6
CONTINUOUS
10
58.4782918049
20
196.4400937372
40
0.9803900000
100
AcDbArc
50
90.0000000000
51
180.0000000000
0
ARC
5
47E
100
AcDbEntity
8
0
100
AcDbCircle
62
7
6
CONTINUOUS
10
176.5172478049
20
196.4400937372
40
0.9803900000
100
AcDbArc
50
0.0000000000
51
90.0000000000
0
ARC
5
47F
100
AcDbEntity
8
0
100
AcDbCircle
62
7
6
CONTINUOUS
10
172.5956878049
20
209.1354258357
40
4.9019500000
100
AcDbArc
50
0.0000000000
51
90.0031390838
0
ARC
5
480
100
AcDbEntity
8
0
100
AcDbCircle
62
7
6
CONTINUOUS
10
107.5830532015
20
191.9302997372
40
1.4705850000
100
AcDbArc
50
90.0000000000
51
179.5000000000
0
ARC
5
481
100
AcDbEntity
8
0
100
AcDbCircle
62
7
6
CONTINUOUS
10
127.4124864083
20
191.9302997372
40
1.4705850000
100
AcDbArc
50
0.5000000000
51
90.0000000000
0
ARC
5
482
100
AcDbEntity
8
0
100
AcDbCircle
62
7
6
CONTINUOUS
10
62.3998518049
20
209.1354258357
40
4.9019500000
100
AcDbArc
50
89.9969734005
51
180.0000000000
0
ARC
5
483
100
AcDbEntity
8
0
100
AcDbCircle
62
7
6
CONTINUOUS
10
134.3506739049
20
173.5970067372
40
0.9803900000
100
AcDbArc
50
180.0000000000
51
270.0000000000
0
ARC
5
484
100
AcDbEntity
8
0
100
AcDbCircle
62
7
6
CONTINUOUS
10
134.3506739049
20
192.4204989954
40
0.9803878709
100
AcDbArc
50
90.0000000000
51
180.0002488557
0
ARC
5
485
100
AcDbEntity
8
0
100
AcDbCircle
62
7
6
CONTINUOUS
10
90.0958693049
20
171.6362267372
40
0.9803900000
100
AcDbArc
50
90.0000000000
51
180.0000000000
0
ARC
5
486
100
AcDbEntity
8
0
100
AcDbCircle
62
7
6
CONTINUOUS
10
100.6448657049
20
173.5970067372
40
0.9803900000
100
AcDbArc
50
270.0000000000
51
360.0000000000
0
ARC
5
487
100
AcDbEntity
8
0
100
AcDbCircle
62
7
6
CONTINUOUS
10
144.8996703049
20
171.6362267372
40
0.9803900000
100
AcDbArc
50
0.0000000000
51
90.0000000000
0
ARC
5
488
100
AcDbEntity
8
0
100
AcDbCircle
62
7
6
CONTINUOUS
10
100.6448657049
20
192.4204989954
40
0.9803878709
100
AcDbArc
50
359.9997511443
51
90.0000000000
0
ARC
5
489
100
AcDbEntity
8
0
100
AcDbCircle
62
7
6
CONTINUOUS
10
144.8996703049
20
169.5479960372
40
0.9803900000
100
AcDbArc
50
270.0000000000
51
360.0000000000
0
ARC
5
48A
100
AcDbEntity
8
0
100
AcDbCircle
62
7
6
CONTINUOUS
10
90.0958693049
20
169.5479960372
40
0.9803900000
100
AcDbArc
50
180.0000000000
51
270.0000000000
0
ARC
5
48B
100
AcDbEntity
8
0
100
AcDbCircle
62
7
6
CONTINUOUS
10
304.1753776976
20
203.6459492172
40
0.5000000000
100
AcDbArc
50
180.0000000000
51
270.0000000000
0
ARC
5
48C
100
AcDbEntity
8
0
100
AcDbCircle
62
7
6
CONTINUOUS
10
313.7145932176
20
204.1851647372
40
1.0392155200
100
AcDbArc
50
180.0000000000
51
270.0000000000
0
ARC
5
48D
100
AcDbEntity
8
0
100
AcDbCircle
62
7
6
CONTINUOUS
10
305.6361621776
20
204.1851647372
40
1.0392155200
100
AcDbArc
50
270.0000000000
51
360.0000000000
0
ARC
5
48E
100
AcDbEntity
8
0
100
AcDbCircle
62
7
6
CONTINUOUS
10
315.1753776976
20
203.6459492172
40
0.5000000000
100
AcDbArc
50
270.0000000000
51
360.0000000000
0
ARC
5
48F
100
AcDbEntity
8
0
100
AcDbCircle
6
CONTINUOUS
10
313.7145932176
20
204.1851647372
40
0.5392039900
100
AcDbArc
50
180.0000000000
51
270.0000000000
0
ARC
5
490
100
AcDbEntity
8
0
100
AcDbCircle
6
CONTINUOUS
10
312.1753776976
20
205.6459487372
40
0.9999966079
100
AcDbArc
50
0.0000000000
51
90.0000000000
0
ARC
5
491
100
AcDbEntity
8
0
100
AcDbCircle
6
CONTINUOUS
10
307.1753776976
20
205.6459487372
40
0.9999966091
100
AcDbArc
50
90.0000000000
51
180.0000000000
0
ARC
5
492
100
AcDbEntity
8
0
100
AcDbCircle
6
CONTINUOUS
10
305.6361621776
20
204.1851647372
40
0.5392039900
100
AcDbArc
50
270.0000000000
51
360.0000000000
0
ARC
5
493
100
AcDbEntity
8
0
100
AcDbCircle
62
7
6
CONTINUOUS
10
315.6253776976
20
204.2204837372
40
0.8000000000
100
AcDbArc
50
270.0000000000
51
273.5950171767
0
ARC
5
494
100
AcDbEntity
8
0
100
AcDbCircle
62
7
6
CONTINUOUS
10
303.7253776976
20
204.2204837372
40
0.8000000000
100
AcDbArc
50
266.4049828233
51
270.0000000000
0
ARC
5
495
100
AcDbEntity
8
0
100
AcDbCircle
62
7
6
CONTINUOUS
10
299.5253776976
20
227.9204837372
40
1.5000000000
100
AcDbArc
50
90.0000000000
51
180.0000000000
0
ARC
5
496
100
AcDbEntity
8
0
100
AcDbCircle
62
7
6
CONTINUOUS
10
319.8253776976
20
227.9204837372
40
1.5000000000
100
AcDbArc
50
0.0000000000
51
90.0000000000
0
ARC
5
497
100
AcDbEntity
8
0
100
AcDbCircle
62
7
6
CONTINUOUS
10
319.8253776976
20
216.7204837372
40
1.5000000000
100
AcDbArc
50
270.0000000000
51
360.0000000000
0
ARC
5
498
100
AcDbEntity
8
0
100
AcDbCircle
62
7
6
CONTINUOUS
10
299.5253776976
20
216.7204837372
40
1.5000000000
100
AcDbArc
50
180.0000000000
51
270.0000000000
0
ARC
5
499
100
AcDbEntity
8
0
100
AcDbCircle
62
7
6
CONTINUOUS
10
297.0253776976
20
230.4204837372
40
3.0000000000
100
AcDbArc
50
90.0000000000
51
180.0000000000
0
ARC
5
49A
100
AcDbEntity
8
0
100
AcDbCircle
62
7
6
CONTINUOUS
10
322.3253776976
20
230.4204837372
40
3.0000000000
100
AcDbArc
50
0.0000000000
51
90.0000000000
0
CIRCLE
5
49B
100
AcDbEntity
8
0
100
AcDbCircle
62
7
6
CONTINUOUS
10
318.6704559476
20
182.8813000372
40
2.6470530000
0
CIRCLE
5
49C
100
AcDbEntity
8
0
100
AcDbCircle
62
7
6
CONTINUOUS
10
300.6802994476
20
182.8813000372
40
2.5588179000
0
ARC
5
49D
100
AcDbEntity
8
0
100
AcDbCircle
62
7
6
CONTINUOUS
10
292.9107086976
20
196.4400937372
40
0.9803900000
100
AcDbArc
50
90.0000000000
51
180.0000000000
0
ARC
5
49E
100
AcDbEntity
8
0
100
AcDbCircle
62
7
6
CONTINUOUS
10
326.4400466976
20
196.4400937372
40
0.9803900000
100
AcDbArc
50
0.0000000000
51
90.0000000000
0
ARC
5
49F
100
AcDbEntity
8
0
100
AcDbCircle
62
7
6
CONTINUOUS
10
304.8518588976
20
211.5939233813
40
0.1960780000
100
AcDbArc
50
0.0000000000
51
35.0000000000
0
ARC
5
4A0
100
AcDbEntity
8
0
100
AcDbCircle
62
7
6
CONTINUOUS
10
314.4988964976
20
211.5939233813
40
0.1960780000
100
AcDbArc
50
145.0000000000
51
180.0000000000
0
ARC
5
4A1
100
AcDbEntity
8
0
100
AcDbCircle
62
7
6
CONTINUOUS
10
304.7538198976
20
210.9204540372
40
0.2941170000
100
AcDbArc
50
270.0000000000
51
360.0000000000
0
ARC
5
4A2
100
AcDbEntity
8
0
100
AcDbCircle
62
7
6
CONTINUOUS
10
314.5969354976
20
210.9204540372
40
0.2941170000
100
AcDbArc
50
180.0000000000
51
270.0000000000
0
ARC
5
4A3
100
AcDbEntity
8
0
100
AcDbCircle
62
7
6
CONTINUOUS
10
305.1753875976
20
202.1263557372
40
1.4999967000
100
AcDbArc
50
180.0000000000
51
360.0000000000
0
ARC
5
4A4
100
AcDbEntity
8
0
100
AcDbCircle
62
7
6
CONTINUOUS
10
314.1753677976
20
202.1263557372
40
1.4999967000
100
AcDbArc
50
180.0000000000
51
360.0000000000
0
ARC
5
4A5
100
AcDbEntity
8
0
100
AcDbCircle
62
7
6
CONTINUOUS
10
316.5653358455
20
212.8118883357
40
1.2254875000
100
AcDbArc
50
10.4000000000
51
131.2190442967
0
ARC
5
4A6
100
AcDbEntity
8
0
100
AcDbCircle
62
7
6
CONTINUOUS
10
321.8613831275
20
198.8910687372
40
1.4705850000
100
AcDbArc
50
190.4000000000
51
270.0000000000
0
ARC
5
4A7
100
AcDbEntity
8
0
100
AcDbCircle
62
7
6
CONTINUOUS
10
297.4893722678
20
198.8910687372
40
1.4705850000
100
AcDbArc
50
270.0000000000
51
349.6000000000
0
ARC
5
4A8
100
AcDbEntity
8
0
100
AcDbCircle
62
7
6
CONTINUOUS
10
302.7854195498
20
212.8118883357
40
1.2254875000
100
AcDbArc
50
48.7809557033
51
169.5999983462
0
ARC
5
4A9
100
AcDbEntity
8
0
100
AcDbCircle
62
7
6
CONTINUOUS
10
322.7571913662
20
169.5479960372
40
0.9803900000
100
AcDbArc
50
270.0000000000
51
351.2500000000
0
ARC
5
4AA
100
AcDbEntity
8
0
100
AcDbCircle
62
7
6
CONTINUOUS
10
296.5935640291
20
169.5479960372
40
0.9803900000
100
AcDbArc
50
188.7500000000
51
270.0000000000
0
ARC
5
4AB
100
AcDbEntity
8
0
100
AcDbCircle
62
7
6
CONTINUOUS
10
322.9904088693
20
171.0632344856
40
0.9803900000
100
AcDbArc
50
351.2500000000
51
60.0000000000
0
ARC
5
4AC
100
AcDbEntity
8
0
100
AcDbCircle
62
7
6
CONTINUOUS
10
321.9979571772
20
171.6362267372
40
0.9803900000
100
AcDbArc
50
60.0000000000
51
90.0000000000
0
ARC
5
4AD
100
AcDbEntity
8
0
100
AcDbCircle
62
7
6
CONTINUOUS
10
297.3527982181
20
171.6362267372
40
0.9803900000
100
AcDbArc
50
90.0000000000
51
120.0000000000
0
ARC
5
4AE
100
AcDbEntity
8
0
100
AcDbCircle
62
7
6
CONTINUOUS
10
296.3603465260
20
171.0632344856
40
0.9803900000
100
AcDbArc
50
120.0000000000
51
188.7500000000
0
ARC
5
4AF
100
AcDbEntity
8
0
100
AcDbCircle
6
CONTINUOUS
10
321.8613831275
20
198.8910687372
40
2.4509680596
100
AcDbArc
50
190.4000000000
51
270.0000000000
0
ARC
5
4B0
100
AcDbEntity
8
0
100
AcDbCircle
6
CONTINUOUS
10
296.3603465260
20
171.0632344856
40
1.9607800000
100
AcDbArc
50
120.0000000000
51
122.3281784419
0
ARC
5
4B1
100
AcDbEntity
8
0
100
AcDbCircle
6
CONTINUOUS
10
297.3527982181
20
171.6362267372
40
1.9607717573
100
AcDbArc
50
90.0000000000
51
120.0000000000
0
ARC
5
4B2
100
AcDbEntity
8
0
100
AcDbCircle
6
CONTINUOUS
10
321.9979571772
20
171.6362267372
40
1.9607717578
100
AcDbArc
50
60.0000000000
51
90.0000000000
0
ARC
5
4B3
100
AcDbEntity
8
0
100
AcDbCircle
6
CONTINUOUS
10
322.9904088693
20
171.0632344856
40
1.9607800000
100
AcDbArc
50
57.6718215671
51
60.0000000000
0
ARC
5
4B4
100
AcDbEntity
8
0
100
AcDbCircle
6
CONTINUOUS
10
297.4893722678
20
198.8910687372
40
2.4509680596
100
AcDbArc
50
270.0000000000
51
349.6000000000
0
ARC
5
4B5
100
AcDbEntity
8
0
100
AcDbCircle
6
CONTINUOUS
10
305.1753875976
20
202.1263557372
40
1.9901794927
100
AcDbArc
50
180.0000000000
51
360.0000000000
0
ARC
5
4B6
100
AcDbEntity
8
0
100
AcDbCircle
6
CONTINUOUS
10
314.1753677976
20
202.1263557372
40
1.9901794927
100
AcDbArc
50
180.0000000000
51
360.0000000000
0
ARC
5
4B7
100
AcDbEntity
8
0
100
AcDbCircle
62
7
6
CONTINUOUS
10
57.9979018049
20
83.5439465024
40
0.5000000000
100
AcDbArc
50
180.0000000000
51
253.6094402783
0
ARC
5
4B8
100
AcDbEntity
8
0
100
AcDbCircle
62
7
6
CONTINUOUS
10
57.9979018049
20
94.5439465024
40
0.5000000000
100
AcDbArc
50
106.3905597217
51
180.0000000000
0
ARC
5
4B9
100
AcDbEntity
8
0
100
AcDbCircle
62
7
6
CONTINUOUS
10
176.9979018049
20
94.5439465024
40
0.5000000000
100
AcDbArc
50
0.0000000000
51
73.6400690856
0
ARC
5
4BA
100
AcDbEntity
8
0
100
AcDbCircle
62
7
6
CONTINUOUS
10
176.9979018049
20
83.5439465024
40
0.5000000000
100
AcDbArc
50
286.3599309144
51
360.0000000000
0
ARC
5
4BB
100
AcDbEntity
8
0
100
AcDbCircle
62
7
6
CONTINUOUS
10
57.9880968049
20
82.5537647024
40
0.4901950000
100
AcDbArc
50
105.5030594357
51
180.0000000000
0
ARC
5
4BC
100
AcDbEntity
8
0
100
AcDbCircle
62
7
6
CONTINUOUS
10
177.0074428049
20
82.5537647024
40
0.4901950000
100
AcDbArc
50
0.0000000000
51
74.4969334755
0
ARC
5
4BD
100
AcDbEntity
8
0
100
AcDbCircle
62
7
6
CONTINUOUS
10
177.0074428049
20
95.5341283024
40
0.4901950000
100
AcDbArc
50
285.5030620323
51
360.0000000000
0
ARC
5
4BE
100
AcDbEntity
8
0
100
AcDbCircle
62
7
6
CONTINUOUS
10
57.9880968049
20
95.5341283024
40
0.4901950000
100
AcDbArc
50
180.0000000000
51
254.4969334755
0
ARC
5
4BF
100
AcDbEntity
8
0
100
AcDbCircle
62
7
6
CONTINUOUS
10
174.5564678049
20
75.8372466270
40
2.9411700000
100
AcDbArc
50
272.0000000000
51
360.0000000000
0
ARC
5
4C0
100
AcDbEntity
8
0
100
AcDbCircle
62
7
6
CONTINUOUS
10
174.5564678049
20
102.2506463777
40
2.9411700000
100
AcDbArc
50
0.0000000000
51
88.0000000000
0
ARC
5
4C1
100
AcDbEntity
8
0
100
AcDbCircle
62
7
6
CONTINUOUS
10
60.4390718049
20
102.2506463777
40
2.9411700000
100
AcDbArc
50
92.0000000000
51
180.0000000000
0
ARC
5
4C2
100
AcDbEntity
8
0
100
AcDbCircle
62
7
6
CONTINUOUS
10
60.4390718049
20
75.8372466270
40
2.9411700000
100
AcDbArc
50
180.0000000000
51
268.0000000000
0
ARC
5
4C3
100
AcDbEntity
8
0
100
AcDbCircle
6
CONTINUOUS
10
174.5564678049
20
75.8372466270
40
1.9607775643
100
AcDbArc
50
272.0000000000
51
360.0000000000
0
ARC
5
4C4
100
AcDbEntity
8
0
100
AcDbCircle
6
CONTINUOUS
10
60.4390718049
20
75.8372466270
40
1.9607775643
100
AcDbArc
50
180.0000000000
51
268.0000000000
0
ARC
5
4C5
100
AcDbEntity
8
0
100
AcDbCircle
6
CONTINUOUS
10
174.5564678049
20
102.2506463777
40
1.9607775643
100
AcDbArc
50
0.0000000000
51
88.0000000000
0
ARC
5
4C6
100
AcDbEntity
8
0
100
AcDbCircle
6
CONTINUOUS
10
60.4390718049
20
102.2506463777
40
1.9607775643
100
AcDbArc
50
92.0000000000
51
180.0000000000
0
SPLINE
5
4C7
100
AcDbEntity
8
0
100
AcDbSpline
62
7
6
CONTINUOUS
70
0
71
3
72
11
73
7
74
5
42
0.0000001000
43
0.0000001000
44
0.0000000001
40
0.0000000000
40
0.0000000000
40
0.0000000000
40
0.0000000000
40
0.3825648724
40
0.7068846172
40
0.9236288228
40
1.0000000000
40
1.0000000000
40
1.0000000000
40
1.0000000000
10
128.8702938049
20
196.4400937372
30
0.0000000000
10
128.8702938049
20
196.5651635276
30
0.0000000000
10
128.8632611103
20
196.7886963064
30
0.0000000000
10
128.8822182212
20
197.1172870679
30
0.0000000000
10
128.8340842674
20
197.2664531591
30
0.0000000000
10
128.8781486349
20
197.4204837372
30
0.0000000000
10
128.8531810338
20
197.4204837372
30
0.0000000000
11
128.8702938049
21
196.4400937372
31
0.0000000000
11
128.8689909696
21
196.8153008465
31
0.0000000000
11
128.8652810811
21
197.1333633226
31
0.0000000000
11
128.8597293135
21
197.3458677203
31
0.0000000000
11
128.8531810338
21
197.4204837372
31
0.0000000000
0
SPLINE
5
4C8
100
AcDbEntity
8
0
100
AcDbSpline
6
CONTINUOUS
70
0
71
3
72
14
73
10
74
8
42
0.0000001000
43
0.0000001000
44
0.0000000001
40
0.0000000000
40
0.0000000000
40
0.0000000000
40
0.0000000000
40
0.1188488611
40
0.2469222765
40
0.3863837999
40
0.5363495721
40
0.6928207718
40
0.8496256252
40
1.0000000000
40
1.0000000000
40
1.0000000000
40
1.0000000000
10
61.1586363461
20
213.0331112194
30
0.0000000000
10
60.9749935481
20
212.9713512013
30
0.0000000000
10
60.6022270404
20
212.8150453871
30
0.0000000000
10
60.0630459906
20
212.4844443279
30
0.0000000000
10
59.5475195600
20
212.0347346852
30
0.0000000000
10
59.0918543322
20
211.4629250605
30
0.0000000000
10
58.7399342540
20
210.7892266218
30
0.0000000000
10
58.5254925955
20
210.0595584904
30
0.0000000000
10
58.4783250084
20
209.5575482980
30
0.0000000000
10
58.4782918049
20
209.3124050005
30
0.0000000000
11
61.1586363461
21
213.0331112194
31
0.0000000000
11
60.6226854524
21
212.8081502598
31
0.0000000000
11
60.0887879574
21
212.4806068379
31
0.0000000000
11
59.5747962120
21
212.0322579013
31
0.0000000000
11
59.1177463924
21
211.4586488708
31
0.0000000000
11
58.7634132221
21
210.7803778481
31
0.0000000000
11
58.5472484735
21
210.0445949447
31
0.0000000000
11
58.4782918049
21
209.3124050005
31
0.0000000000
0
SPLINE
5
4C9
100
AcDbEntity
8
0
100
AcDbSpline
6
CONTINUOUS
70
0
71
3
72
11
73
7
74
5
42
0.0000001000
43
0.0000001000
44
0.0000000001
40
0.0000000000
40
0.0000000000
40
0.0000000000
40
0.0000000000
40
0.4050719980
40
0.7357855808
40
0.9525517831
40
1.0000000000
40
1.0000000000
40
1.0000000000
40
1.0000000000
10
61.1496949731
20
213.0293581519
30
0.0000000000
10
61.1145715669
20
213.1303835771
30
0.0000000000
10
61.0484669082
20
213.3070957039
30
0.0000000000
10
60.9595643449
20
213.5628073226
30
0.0000000000
10
60.8937641832
20
213.6683000810
30
0.0000000000
10
60.8639988918
20
213.7646186281
30
0.0000000000
10
60.8562895364
20
213.7744694445
30
0.0000000000
11
61.1496949731
21
213.0293581519
31
0.0000000000
11
61.0410083912
21
213.3312610149
31
0.0000000000
11
60.9454792666
21
213.5751913413
31
0.0000000000
11
60.8746720259
21
213.7316197593
31
0.0000000000
11
60.8562895364
21
213.7744694445
31
0.0000000000
0
SPLINE
5
4CA
100
AcDbEntity
8
0
100
AcDbSpline
6
CONTINUOUS
70
0
71
3
72
8
73
4
74
2
42
0.0000001000
43
0.0000001000
44
0.0000000001
40
0.0000000000
40
0.0000000000
40
0.0000000000
40
0.0000000000
40
1.0000000000
40
1.0000000000
40
1.0000000000
40
1.0000000000
10
60.8562895364
20
213.7744694445
30
0.0000000000
10
60.8511791120
20
213.7809994135
30
0.0000000000
10
60.8450298870
20
213.7842573516
30
0.0000000000
10
60.8371583528
20
213.7816095805
30
0.0000000000
11
60.8562895364
21
213.7744694445
31
0.0000000000
11
60.8371583528
21
213.7816095805
31
0.0000000000
0
SPLINE
5
4CB
100
AcDbEntity
8
0
100
AcDbSpline
6
CONTINUOUS
70
0
71
3
72
11
73
7
74
5
42
0.0000001000
43
0.0000001000
44
0.0000000001
40
0.0000000000
40
0.0000000000
40
0.0000000000
40
0.0000000000
40
0.3692517173
40
0.6843540888
40
0.9008778313
40
1.0000000000
40
1.0000000000
40
1.0000000000
40
1.0000000000
10
58.4782918049
20
209.3124050005
30
0.0000000000
10
58.3531515381
20
209.3124050005
30
0.0000000000
10
58.1238082943
20
209.3058752982
30
0.0000000000
10
57.8103780372
20
209.2682260439
30
0.0000000000
10
57.6212255743
20
209.2299198472
30
0.0000000000
10
57.4979018049
20
209.1690185695
30
0.0000000000
10
57.4979018049
20
209.1354258357
30
0.0000000000
11
58.4782918049
21
209.3124050005
31
0.0000000000
11
58.1031127948
21
209.2989332635
31
0.0000000000
11
57.7850513879
21
209.2605690022
31
0.0000000000
11
57.5725295501
21
209.2031528281
31
0.0000000000
11
57.4979018049
21
209.1354258357
31
0.0000000000
0
SPLINE
5
4CC
100
AcDbEntity
8
0
100
AcDbSpline
62
7
6
CONTINUOUS
70
0
71
3
72
11
73
7
74
5
42
0.0000001000
43
0.0000001000
44
0.0000000001
40
0.0000000000
40
0.0000000000
40
0.0000000000
40
0.0000000000
40
0.0763711772
40
0.2931153828
40
0.6174351276
40
1.0000000000
40
1.0000000000
40
1.0000000000
40
1.0000000000
10
106.1423585760
20
197.4204837372
30
0.0000000000
10
106.1173909749
20
197.4204837372
30
0.0000000000
10
106.1614553424
20
197.2664531591
30
0.0000000000
10
106.1133213886
20
197.1172870679
30
0.0000000000
10
106.1322784995
20
196.7886963064
30
0.0000000000
10
106.1252458049
20
196.5651635276
30
0.0000000000
10
106.1252458049
20
196.4400937372
30
0.0000000000
11
106.1423585760
21
197.4204837372
31
0.0000000000
11
106.1358102963
21
197.3458677203
31
0.0000000000
11
106.1302585287
21
197.1333633226
31
0.0000000000
11
106.1265486402
21
196.8153008465
31
0.0000000000
11
106.1252458049
21
196.4400937372
31
0.0000000000
0
SPLINE
5
4CD
100
AcDbEntity
8
0
100
AcDbSpline
6
CONTINUOUS
70
0
71
3
72
12
73
8
74
6
42
0.0000001000
43
0.0000001000
44
0.0000000001
40
0.0000000000
40
0.0000000000
40
0.0000000000
40
0.0000000000
40
0.1761648884
40
0.3638222591
40
0.5681546074
40
0.7846330204
40
1.0000000000
40
1.0000000000
40
1.0000000000
40
1.0000000000
10
62.3998500249
20
214.0373758175
30
0.0000000000
10
62.3023592727
20
214.0373515078
30
0.0000000000
10
62.0997258902
20
213.9977354797
30
0.0000000000
10
61.8236558102
20
213.8397248947
30
0.0000000000
10
61.5742228012
20
213.6107388089
30
0.0000000000
10
61.3531372484
20
213.3357389600
30
0.0000000000
10
61.2217697773
20
213.1356660549
30
0.0000000000
10
61.1610425085
20
213.0331122917
30
0.0000000000
11
62.3998500249
21
214.0373758175
31
0.0000000000
11
62.1121873201
21
213.9845520966
31
0.0000000000
11
61.8385832824
21
213.8355385749
31
0.0000000000
11
61.5853944946
21
213.6097598643
31
0.0000000000
11
61.3574521472
21
213.3318913630
31
0.0000000000
11
61.1610425085
21
213.0331122917
31
0.0000000000
0
SPLINE
5
4CE
100
AcDbEntity
8
0
100
AcDbSpline
62
7
6
CONTINUOUS
70
0
71
3
72
9
73
5
74
3
42
0.0000001000
43
0.0000001000
44
0.0000000001
40
0.0000000000
40
0.0000000000
40
0.0000000000
40
0.0000000000
40
0.5130020610
40
1.0000000000
40
1.0000000000
40
1.0000000000
40
1.0000000000
10
101.5311284747
20
193.2176677959
30
0.0000000000
10
101.5483860134
20
193.1702457068
30
0.0000000000
10
101.5810782310
20
193.0774560323
30
0.0000000000
10
101.6113120157
20
192.9838280159
30
0.0000000000
10
101.6252557049
20
192.9379955846
30
0.0000000000
11
101.5311284747
21
193.2176677959
31
0.0000000000
11
101.5812813749
21
193.0748224909
31
0.0000000000
11
101.6252557049
21
192.9379955846
31
0.0000000000
0
SPLINE
5
4CF
100
AcDbEntity
8
0
100
AcDbSpline
62
7
6
CONTINUOUS
70
0
71
3
72
9
73
5
74
3
42
0.0000001000
43
0.0000001000
44
0.0000000001
40
0.0000000000
40
0.0000000000
40
0.0000000000
40
0.0000000000
40
0.4878090213
40
1.0000000000
40
1.0000000000
40
1.0000000000
40
1.0000000000
10
133.3702839049
20
192.9379949157
30
0.0000000000
10
133.3842372905
20
192.9838606458
30
0.0000000000
10
133.4144459924
20
193.0773995772
30
0.0000000000
10
133.4471019643
20
193.1701039139
30
0.0000000000
10
133.4643158036
20
193.2174065988
30
0.0000000000
11
133.3702839049
21
192.9379949157
31
0.0000000000
11
133.4142917917
21
193.0749203167
31
0.0000000000
11
133.4643158036
21
193.2174065988
31
0.0000000000
0
SPLINE
5
4D0
100
AcDbEntity
8
0
100
AcDbSpline
6
CONTINUOUS
70
0
71
3
72
10
73
6
74
4
42
0.0000001000
43
0.0000001000
44
0.0000000001
40
0.0000000000
40
0.0000000000
40
0.0000000000
40
0.0000000000
40
0.3447680301
40
0.6858516985
40
1.0000000000
40
1.0000000000
40
1.0000000000
40
1.0000000000
10
133.3374385900
20
193.4008847372
30
0.0000000000
10
133.3059797756
20
193.3102325513
30
0.0000000000
10
133.2470144673
20
193.1284783895
30
0.0000000000
10
133.1884749840
20
192.8557302310
30
0.0000000000
10
133.1741954027
20
192.6731816715
30
0.0000000000
10
133.1742131966
20
192.5857481415
30
0.0000000000
11
133.3374385900
21
193.4008847372
31
0.0000000000
11
133.2514523594
21
193.1261600560
31
0.0000000000
11
133.1934226012
21
192.8473443975
31
0.0000000000
11
133.1742131966
21
192.5857481415
31
0.0000000000
0
SPLINE
5
4D1
100
AcDbEntity
8
0
100
AcDbSpline
6
CONTINUOUS
70
0
71
3
72
9
73
5
74
3
42
0.0000001000
43
0.0000001000
44
0.0000000001
40
0.0000000000
40
0.0000000000
40
0.0000000000
40
0.0000000000
40
0.5139596741
40
1.0000000000
40
1.0000000000
40
1.0000000000
40
1.0000000000
10
133.4661727302
20
193.2223923048
30
0.0000000000
10
133.4468359526
20
193.1518090025
30
0.0000000000
10
133.4121259637
20
193.0135980825
30
0.0000000000
10
133.3887192654
20
192.8729447982
30
0.0000000000
10
133.3810851853
20
192.8041169237
30
0.0000000000
11
133.4661727302
21
193.2223923048
31
0.0000000000
11
133.4141426990
21
193.0090941621
31
0.0000000000
11
133.3810851853
21
192.8041169237
31
0.0000000000
0
SPLINE
5
4D2
100
AcDbEntity
8
0
100
AcDbSpline
6
CONTINUOUS
70
0
71
3
72
8
73
4
74
2
42
0.0000001000
43
0.0000001000
44
0.0000000001
40
0.0000000000
40
0.0000000000
40
0.0000000000
40
0.0000000000
40
1.0000000000
40
1.0000000000
40
1.0000000000
40
1.0000000000
10
133.3810851853
20
192.8041169237
30
0.0000000000
10
133.3741415326
20
192.7415138533
30
0.0000000000
10
133.3702940627
20
192.6785263317
30
0.0000000000
10
133.3703017101
20
192.6155769730
30
0.0000000000
11
133.3810851853
21
192.8041169237
31
0.0000000000
11
133.3703017101
21
192.6155769730
31
0.0000000000
0
SPLINE
5
4D3
100
AcDbEntity
8
0
100
AcDbSpline
6
CONTINUOUS
70
0
71
3
72
10
73
6
74
4
42
0.0000001000
43
0.0000001000
44
0.0000000001
40
0.0000000000
40
0.0000000000
40
0.0000000000
40
0.0000000000
40
0.1503479611
40
0.5116535584
40
1.0000000000
40
1.0000000000
40
1.0000000000
40
1.0000000000
10
133.3702839049
20
192.6155772569
30
0.0000000000
10
133.3702832263
20
192.6055081358
30
0.0000000000
10
133.3227207611
20
192.5966519946
30
0.0000000000
10
133.2678785835
20
192.5874870797
30
0.0000000000
10
133.2069187911
20
192.5857484722
30
0.0000000000
10
133.1742131966
20
192.5857481415
30
0.0000000000
11
133.3702839049
21
192.6155772569
31
0.0000000000
11
133.3440149790
21
192.6006632255
31
0.0000000000
11
133.2722485341
21
192.5897451186
31
0.0000000000
11
133.1742131966
21
192.5857481415
31
0.0000000000
0
SPLINE
5
4D4
100
AcDbEntity
8
0
100
AcDbSpline
6
CONTINUOUS
70
0
71
3
72
14
73
10
74
8
42
0.0000001000
43
0.0000001000
44
0.0000000001
40
0.0000000000
40
0.0000000000
40
0.0000000000
40
0.0000000000
40
0.0973900282
40
0.2064045273
40
0.3290236552
40
0.4679361727
40
0.6250953504
40
0.8022517057
40
1.0000000000
40
1.0000000000
40
1.0000000000
40
1.0000000000
10
133.3702839049
20
172.7200914928
30
0.0000000000
10
133.3702851772
20
172.6520508592
30
0.0000000000
10
133.3822067770
20
172.5076445557
30
0.0000000000
10
133.4366377534
20
172.2834366961
30
0.0000000000
10
133.5342536920
20
172.0427495622
30
0.0000000000
10
133.6782015899
20
171.7873917632
30
0.0000000000
10
133.8675041824
20
171.5159683073
30
0.0000000000
10
134.0965858424
20
171.2231351248
30
0.0000000000
10
134.2627742889
20
171.0206797034
30
0.0000000000
10
134.3506739049
20
170.9140942390
30
0.0000000000
11
133.3702839049
21
172.7200914928
31
0.0000000000
11
133.3864832340
21
172.5166134052
31
0.0000000000
11
133.4394154072
21
172.2943433338
31
0.0000000000
11
133.5345816773
21
172.0556124275
31
0.0000000000
11
133.6755924331
21
171.8008887103
31
0.0000000000
11
133.8617602881
21
171.5291507386
31
0.0000000000
11
134.0887854987
21
171.2353351084
31
0.0000000000
11
134.3506739049
21
170.9140942390
31
0.0000000000
0
SPLINE
5
4D5
100
AcDbEntity
8
0
100
AcDbSpline
6
CONTINUOUS
70
0
71
3
72
9
73
5
74
3
42
0.0000001000
43
0.0000001000
44
0.0000000001
40
0.0000000000
40
0.0000000000
40
0.0000000000
40
0.0000000000
40
0.2938412911
40
1.0000000000
40
1.0000000000
40
1.0000000000
40
1.0000000000
10
133.3702839049
20
172.7200914928
30
0.0000000000
10
133.3702839049
20
172.7100222518
30
0.0000000000
10
133.3227182134
20
172.7011663169
30
0.0000000000
10
133.2946578150
20
172.6964772110
30
0.0000000000
10
133.2722450676
20
172.6942597172
30
0.0000000000
11
133.3702839049
21
172.7200914928
31
0.0000000000
11
133.3440145162
21
172.7051775484
31
0.0000000000
11
133.2722450676
21
172.6942597172
31
0.0000000000
0
SPLINE
5
4D6
100
AcDbEntity
8
0
100
AcDbSpline
6
CONTINUOUS
70
0
71
3
72
8
73
4
74
2
42
0.0000001000
43
0.0000001000
44
0.0000000001
40
0.0000000000
40
0.0000000000
40
0.0000000000
40
0.0000000000
40
1.0000000000
40
1.0000000000
40
1.0000000000
40
1.0000000000
10
133.2722450676
20
172.6942597172
30
0.0000000000
10
133.2419516894
20
172.6912625220
30
0.0000000000
10
133.2069127639
20
172.6902634715
30
0.0000000000
10
133.1742059049
20
172.6902634435
30
0.0000000000
11
133.2722450676
21
172.6942597172
31
0.0000000000
11
133.1742059049
21
172.6902634435
31
0.0000000000
0
SPLINE
5
4D7
100
AcDbEntity
8
0
100
AcDbSpline
6
CONTINUOUS
70
0
71
3
72
14
73
10
74
8
42
0.0000001000
43
0.0000001000
44
0.0000000001
40
0.0000000000
40
0.0000000000
40
0.0000000000
40
0.0000000000
40
0.1055848497
40
0.2219319951
40
0.3501347181
40
0.4915989666
40
0.6465833153
40
0.8155027087
40
1.0000000000
40
1.0000000000
40
1.0000000000
40
1.0000000000
10
133.1742059049
20
172.6902634435
30
0.0000000000
10
133.1742088370
20
172.6125457630
30
0.0000000000
10
133.1882036799
20
172.4489114573
30
0.0000000000
10
133.2528861572
20
172.1982430115
30
0.0000000000
10
133.3689871412
20
171.9375002154
30
0.0000000000
10
133.5403481617
20
171.6746558706
30
0.0000000000
10
133.7664637808
20
171.4161174793
30
0.0000000000
10
134.0425262115
20
171.1627807956
30
0.0000000000
10
134.2449840501
20
170.9993706654
30
0.0000000000
10
134.3506736365
20
170.9140942390
30
0.0000000000
11
133.1742059049
21
172.6902634435
31
0.0000000000
11
133.1936371285
21
172.4579215222
31
0.0000000000
11
133.2571188104
21
172.2089694361
31
0.0000000000
11
133.3712618978
21
171.9499022506
31
0.0000000000
11
133.5404516344
21
171.6873047913
31
0.0000000000
11
133.7639285446
21
171.4281051968
31
0.0000000000
11
134.0364779881
21
171.1734440274
31
0.0000000000
11
134.3506736365
21
170.9140942390
31
0.0000000000
0
SPLINE
5
4D8
100
AcDbEntity
8
0
100
AcDbSpline
6
CONTINUOUS
70
0
71
3
72
22
73
18
74
16
42
0.0000001000
43
0.0000001000
44
0.0000000001
40
0.0000000000
40
0.0000000000
40
0.0000000000
40
0.0000000000
40
0.0302883538
40
0.0661497054
40
0.1067092693
40
0.1511309875
40
0.1986017065
40
0.2486653986
40
0.3023889447
40
0.3612903564
40
0.4269219592
40
0.5008625805
40
0.5848704024
40
0.6797514672
40
0.7833565834
40
0.8926308623
40
1.0000000000
40
1.0000000000
40
1.0000000000
40
1.0000000000
10
100.6448657049
20
170.9140942390
30
0.0000000000
10
100.6622201851
20
170.9280991948
30
0.0000000000
10
100.7001223327
20
170.9586859964
30
0.0000000000
10
100.7611674019
20
171.0081468246
30
0.0000000000
10
100.8300205123
20
171.0644998331
30
0.0000000000
10
100.9049395580
20
171.1269331317
30
0.0000000000
10
100.9843236297
20
171.1949280481
30
0.0000000000
10
101.0675343972
20
171.2689593439
30
0.0000000000
10
101.1550230465
20
171.3507989365
30
0.0000000000
10
101.2479038054
20
171.4435706954
30
0.0000000000
10
101.3468021364
20
171.5512294401
30
0.0000000000
10
101.4512302394
20
171.6786274591
30
0.0000000000
10
101.5584123825
20
171.8310937030
30
0.0000000000
10
101.6613498601
20
172.0122956862
30
0.0000000000
10
101.7488924118
20
172.2220470825
30
0.0000000000
10
101.8074267884
20
172.4514125694
30
0.0000000000
10
101.8213296123
20
172.6112100810
30
0.0000000000
10
101.8213337049
20
172.6902634435
30
0.0000000000
11
100.6448657049
21
170.9140942390
31
0.0000000000
11
100.6969165742
21
170.9561246795
31
0.0000000000
11
100.7584410952
21
171.0060166737
31
0.0000000000
11
100.8277397463
21
171.0627961828
31
0.0000000000
11
100.9030771671
21
171.1256595682
31
0.0000000000
11
100.9826635657
21
171.1939275372
31
0.0000000000
11
101.0652225970
21
171.2674966696
31
0.0000000000
11
101.1518101715
21
171.3486400259
31
0.0000000000
11
101.2437630587
21
171.4406807696
31
0.0000000000
11
101.3416982179
21
171.5475672327
31
0.0000000000
11
101.4450348109
21
171.6740413050
31
0.0000000000
11
101.5514538892
21
171.8260514913
31
0.0000000000
11
101.6545453049
21
172.0085187161
31
0.0000000000
11
101.7421531924
21
172.2199314715
31
0.0000000000
11
101.8012378256
21
172.4539563067
31
0.0000000000
11
101.8213337049
21
172.6902634435
31
0.0000000000
0
SPLINE
5
4D9
100
AcDbEntity
8
0
100
AcDbSpline
6
CONTINUOUS
70
0
71
3
72
22
73
18
74
16
42
0.0000001000
43
0.0000001000
44
0.0000000001
40
0.0000000000
40
0.0000000000
40
0.0000000000
40
0.0000000000
40
0.0325210254
40
0.0710504034
40
0.1145939597
40
0.1621565921
40
0.2127385877
40
0.2657115721
40
0.3220390872
40
0.3830982979
40
0.4502176186
40
0.5246592553
40
0.6077664230
40
0.6998849485
40
0.7986150292
40
0.9009404726
40
1.0000000000
40
1.0000000000
40
1.0000000000
40
1.0000000000
10
100.6448657049
20
170.9140942390
30
0.0000000000
10
100.6593381261
20
170.9316129679
30
0.0000000000
10
100.6909306185
20
170.9699086939
30
0.0000000000
10
100.7417689838
20
171.0317694554
30
0.0000000000
10
100.7990913017
20
171.1019051362
30
0.0000000000
10
100.8614522792
20
171.1787984820
30
0.0000000000
10
100.9275288519
20
171.2611600776
30
0.0000000000
10
100.9967905802
20
171.3488149367
30
0.0000000000
10
101.0696049758
20
171.4429866560
30
0.0000000000
10
101.1468979575
20
171.5461761479
30
0.0000000000
10
101.2291974031
20
171.6613968169
30
0.0000000000
10
101.3161101309
20
171.7921754228
30
0.0000000000
10
101.4053577135
20
171.9421878409
30
0.0000000000
10
101.4911846843
20
172.1135471601
30
0.0000000000
10
101.5643306593
20
172.3053827831
30
0.0000000000
10
101.6134160895
20
172.5099504441
30
0.0000000000
10
101.6252540893
20
172.6508754147
30
0.0000000000
10
101.6252557049
20
172.7200914928
30
0.0000000000
11
100.6448657049
21
170.9140942390
31
0.0000000000
11
100.6882439778
21
170.9666826122
31
0.0000000000
11
100.7395181143
21
171.0290843102
31
0.0000000000
11
100.7972714356
21
171.0997655293
31
0.0000000000
11
100.8600570890
21
171.1772134218
31
0.0000000000
11
100.9263833550
21
171.2599367279
31
0.0000000000
11
100.9951887762
21
171.3470922892
31
0.0000000000
11
101.0673529096
21
171.4405465489
31
0.0000000000
11
101.1439886365
21
171.5430596893
31
0.0000000000
11
101.2256082094
21
171.6576607739
31
0.0000000000
11
101.3117243561
21
171.7877908327
31
0.0000000000
11
101.4003951004
21
171.9377450215
31
0.0000000000
11
101.4862769889
21
172.1106939843
31
0.0000000000
11
101.5592669944
21
172.3043532927
31
0.0000000000
11
101.6085028726
21
172.5131201618
31
0.0000000000
11
101.6252557049
21
172.7200914928
31
0.0000000000
0
SPLINE
5
4DA
100
AcDbEntity
8
0
100
AcDbSpline
6
CONTINUOUS
70
0
71
3
72
9
73
5
74
3
42
0.0000001000
43
0.0000001000
44
0.0000000001
40
0.0000000000
40
0.0000000000
40
0.0000000000
40
0.0000000000
40
0.2938418304
40
1.0000000000
40
1.0000000000
40
1.0000000000
40
1.0000000000
10
101.6252557049
20
172.7200914928
30
0.0000000000
10
101.6252557049
20
172.7100222148
30
0.0000000000
10
101.6728214587
20
172.7011662063
30
0.0000000000
10
101.7008819251
20
172.6964771222
30
0.0000000000
10
101.7232947049
20
172.6942596443
30
0.0000000000
11
101.6252557049
21
172.7200914928
31
0.0000000000
11
101.6515251758
21
172.7051774681
31
0.0000000000
11
101.7232947049
21
172.6942596443
31
0.0000000000
0
SPLINE
5
4DB
100
AcDbEntity
8
0
100
AcDbSpline
6
CONTINUOUS
70
0
71
3
72
8
73
4
74
2
42
0.0000001000
43
0.0000001000
44
0.0000000001
40
0.0000000000
40
0.0000000000
40
0.0000000000
40
0.0000000000
40
1.0000000000
40
1.0000000000
40
1.0000000000
40
1.0000000000
10
101.7232947049
20
172.6942596443
30
0.0000000000
10
101.7535880430
20
172.6912624790
30
0.0000000000
10
101.7886269011
20
172.6902634435
30
0.0000000000
10
101.8213337049
20
172.6902634435
30
0.0000000000
11
101.7232947049
21
172.6942596443
31
0.0000000000
11
101.8213337049
21
172.6902634435
31
0.0000000000
0
SPLINE
5
4DC
100
AcDbEntity
8
0
100
AcDbSpline
6
CONTINUOUS
70
0
71
3
72
10
73
6
74
4
42
0.0000001000
43
0.0000001000
44
0.0000000001
40
0.0000000000
40
0.0000000000
40
0.0000000000
40
0.0000000000
40
0.3740111645
40
0.7853229170
40
1.0000000000
40
1.0000000000
40
1.0000000000
40
1.0000000000
10
101.6252376445
20
192.6155783283
30
0.0000000000
10
101.6252454111
20
192.6784598652
30
0.0000000000
10
101.6171859877
20
192.8105743045
30
0.0000000000
10
101.5895690747
20
192.9766511529
30
0.0000000000
10
101.5661042809
20
193.0792797265
30
0.0000000000
10
101.5575089425
20
193.1143414725
30
0.0000000000
11
101.6252376445
21
192.6155783283
31
0.0000000000
11
101.6144775716
21
192.8039158193
31
0.0000000000
11
101.5814718922
21
193.0087318339
31
0.0000000000
11
101.5575089425
21
193.1143414725
31
0.0000000000
0
SPLINE
5
4DD
100
AcDbEntity
8
0
100
AcDbSpline
6
CONTINUOUS
70
0
71
3
72
8
73
4
74
2
42
0.0000001000
43
0.0000001000
44
0.0000000001
40
0.0000000000
40
0.0000000000
40
0.0000000000
40
0.0000000000
40
1.0000000000
40
1.0000000000
40
1.0000000000
40
1.0000000000
10
101.5575089425
20
193.1143414725
30
0.0000000000
10
101.5486463368
20
193.1504934441
30
0.0000000000
10
101.5392007983
20
193.1865031926
30
0.0000000000
10
101.5293676201
20
193.2223960160
30
0.0000000000
11
101.5575089425
21
193.1143414725
31
0.0000000000
11
101.5293676201
21
193.2223960160
31
0.0000000000
0
SPLINE
5
4DE
100
AcDbEntity
8
0
100
AcDbSpline
6
CONTINUOUS
70
0
71
3
72
10
73
6
74
4
42
0.0000001000
43
0.0000001000
44
0.0000000001
40
0.0000000000
40
0.0000000000
40
0.0000000000
40
0.0000000000
40
0.1503390152
40
0.5116374956
40
1.0000000000
40
1.0000000000
40
1.0000000000
40
1.0000000000
10
101.6252557049
20
192.6155772774
30
0.0000000000
10
101.6252563735
20
192.6055087949
30
0.0000000000
10
101.6728185812
20
192.5966556747
30
0.0000000000
10
101.7276591141
20
192.5874876928
30
0.0000000000
10
101.7886198550
20
192.5857490695
30
0.0000000000
10
101.8213263970
20
192.5857481780
30
0.0000000000
11
101.6252557049
21
192.6155772774
31
0.0000000000
11
101.6515236519
21
192.6006654025
31
0.0000000000
11
101.7232882797
21
192.5897467510
31
0.0000000000
11
101.8213263970
21
192.5857481780
31
0.0000000000
0
SPLINE
5
4DF
100
AcDbEntity
8
0
100
AcDbSpline
6
CONTINUOUS
70
0
71
3
72
10
73
6
74
4
42
0.0000001000
43
0.0000001000
44
0.0000000001
40
0.0000000000
40
0.0000000000
40
0.0000000000
40
0.0000000000
40
0.3135463290
40
0.6541647729
40
1.0000000000
40
1.0000000000
40
1.0000000000
40
1.0000000000
10
101.8213263972
20
192.5857481779
30
0.0000000000
10
101.8213446578
20
192.6730137653
30
0.0000000000
10
101.8071185131
20
192.8552643209
30
0.0000000000
10
101.7486549007
20
193.1280260533
30
0.0000000000
10
101.6896746940
20
193.3099528875
30
0.0000000000
10
101.6581171408
20
193.4008847372
30
0.0000000000
11
101.8213263972
21
192.5857481779
31
0.0000000000
11
101.8021892924
21
192.8468445566
31
0.0000000000
11
101.7443193266
21
193.1252953557
31
0.0000000000
11
101.6581171408
21
193.4008847372
31
0.0000000000
0
SPLINE
5
4E0
100
AcDbEntity
8
0
100
AcDbSpline
6
CONTINUOUS
70
0
71
3
72
15
73
11
74
9
42
0.0000001000
43
0.0000001000
44
0.0000000001
40
0.0000000000
40
0.0000000000
40
0.0000000000
40
0.0000000000
40
0.0166555046
40
0.0703314717
40
0.1666718887
40
0.3027956244
40
0.4689894886
40
0.6511911668
40
0.8331727204
40
1.0000000000
40
1.0000000000
40
1.0000000000
40
1.0000000000
10
134.3506739049
20
193.4008847372
30
0.0000000000
10
134.3452200036
20
193.4008855692
30
0.0000000000
10
134.3444470001
20
193.4349243510
30
0.0000000000
10
134.3348599492
20
193.4774695818
30
0.0000000000
10
134.3315506255
20
193.5781710065
30
0.0000000000
10
134.3252227606
20
193.7054165099
30
0.0000000000
10
134.3214064219
20
193.8651838528
30
0.0000000000
10
134.3183633899
20
194.0384733121
30
0.0000000000
10
134.3167930643
20
194.2124482435
30
0.0000000000
10
134.3164662745
20
194.3266465803
30
0.0000000000
10
134.3164661949
20
194.3812747372
30
0.0000000000
11
134.3506739049
21
193.4008847372
31
0.0000000000
11
134.3446703617
21
193.4161052111
31
0.0000000000
11
134.3381966113
21
193.4684354299
31
0.0000000000
11
134.3318387512
21
193.5628626180
31
0.0000000000
11
134.3261901752
21
193.6964657968
31
0.0000000000
11
134.3217020904
21
193.8596663251
31
0.0000000000
11
134.3186155629
21
194.0386273777
31
0.0000000000
11
134.3169400710
21
194.2173909516
31
0.0000000000
11
134.3164661949
21
194.3812747372
31
0.0000000000
0
SPLINE
5
4E1
100
AcDbEntity
8
0
100
AcDbSpline
62
7
6
CONTINUOUS
70
0
71
3
72
8
73
4
74
2
42
0.0000001000
43
0.0000001000
44
0.0000000001
40
0.0000000000
40
0.0000000000
40
0.0000000000
40
0.0000000000
40
1.0000000000
40
1.0000000000
40
1.0000000000
40
1.0000000000
10
133.4643158036
20
193.2174065988
30
0.0000000000
10
133.4792641179
20
193.2584950005
30
0.0000000000
10
133.4957056678
20
193.2990695586
30
0.0000000000
10
133.5134944952
20
193.3390745363
30
0.0000000000
11
133.4643158036
21
193.2174065988
31
0.0000000000
11
133.5134944952
21
193.3390745363
31
0.0000000000
0
SPLINE
5
4E2
100
AcDbEntity
8
0
100
AcDbSpline
62
7
6
CONTINUOUS
70
0
71
3
72
11
73
7
74
5
42
0.0000001000
43
0.0000001000
44
0.0000000001
40
0.0000000000
40
0.0000000000
40
0.0000000000
40
0.0000000000
40
0.1890807305
40
0.4683785090
40
0.7391323201
40
1.0000000000
40
1.0000000000
40
1.0000000000
40
1.0000000000
10
133.5134944952
20
193.3390745363
30
0.0000000000
10
133.5474109818
20
193.4153487201
30
0.0000000000
10
133.6435587403
20
193.5991611861
30
0.0000000000
10
133.8329155480
20
193.8654390511
30
0.0000000000
10
134.0701505701
20
194.1334259851
30
0.0000000000
10
134.2351765340
20
194.2999040059
30
0.0000000000
10
134.3164589053
20
194.3812747372
30
0.0000000000
11
133.5134944952
21
193.3390745363
31
0.0000000000
11
133.6289251598
21
193.5612991819
31
0.0000000000
11
133.8402613055
21
193.8642931187
31
0.0000000000
11
134.0755068429
21
194.1343045329
31
0.0000000000
11
134.3164589053
21
194.3812747372
31
0.0000000000
0
SPLINE
5
4E3
100
AcDbEntity
8
0
100
AcDbSpline
62
7
6
CONTINUOUS
70
0
71
3
72
11
73
7
74
5
42
0.0000001000
43
0.0000001000
44
0.0000000001
40
0.0000000000
40
0.0000000000
40
0.0000000000
40
0.0000000000
40
0.2608184911
40
0.5315192860
40
0.8107611094
40
1.0000000000
40
1.0000000000
40
1.0000000000
40
1.0000000000
10
100.6790807094
20
194.3812747372
30
0.0000000000
10
100.7603495941
20
194.2999187125
30
0.0000000000
10
100.9253451961
20
194.1334694160
30
0.0000000000
10
101.1625453545
20
193.8655364419
30
0.0000000000
10
101.3519222107
20
193.5992441945
30
0.0000000000
10
101.4481193400
20
193.4153996082
30
0.0000000000
10
101.4820629501
20
193.3390600708
30
0.0000000000
11
100.6790807094
21
194.3812747372
31
0.0000000000
11
100.9199919808
21
194.1343482935
31
0.0000000000
11
101.1552007422
21
193.8643906122
31
0.0000000000
11
101.3665155001
21
193.5614651369
31
0.0000000000
11
101.4820629501
21
193.3390600708
31
0.0000000000
0
SPLINE
5
4E4
100
AcDbEntity
8
0
100
AcDbSpline
62
7
6
CONTINUOUS
70
0
71
3
72
8
73
4
74
2
42
0.0000001000
43
0.0000001000
44
0.0000000001
40
0.0000000000
40
0.0000000000
40
0.0000000000
40
0.0000000000
40
1.0000000000
40
1.0000000000
40
1.0000000000
40
1.0000000000
10
101.4820629501
20
193.3390600708
30
0.0000000000
10
101.4998105303
20
193.2991455756
30
0.0000000000
10
101.5162146201
20
193.2586632638
30
0.0000000000
10
101.5311284747
20
193.2176677959
30
0.0000000000
11
101.4820629501
21
193.3390600708
31
0.0000000000
11
101.5311284747
21
193.2176677959
31
0.0000000000
0
SPLINE
5
4E5
100
AcDbEntity
8
0
100
AcDbSpline
6
CONTINUOUS
70
0
71
3
72
15
73
11
74
9
42
0.0000001000
43
0.0000001000
44
0.0000000001
40
0.0000000000
40
0.0000000000
40
0.0000000000
40
0.0000000000
40
0.1669288435
40
0.3489276939
40
0.5310914108
40
0.6972269656
40
0.8333068015
40
0.9296368805
40
0.9833297454
40
1.0000000000
40
1.0000000000
40
1.0000000000
40
1.0000000000
10
100.6790732040
20
194.3812747372
30
0.0000000000
10
100.6790731252
20
194.3266133351
30
0.0000000000
10
100.6787463362
20
194.2123761147
30
0.0000000000
10
100.6771749274
20
194.0383747270
30
0.0000000000
10
100.6741314709
20
193.8651110649
30
0.0000000000
10
100.6703158723
20
193.7053902362
30
0.0000000000
10
100.6639889178
20
193.5781801531
30
0.0000000000
10
100.6606826281
20
193.4774922453
30
0.0000000000
10
100.6510914704
20
193.4349429221
30
0.0000000000
10
100.6503244348
20
193.4008856462
30
0.0000000000
10
100.6448657049
20
193.4008847372
30
0.0000000000
11
100.6790732040
21
194.3812747372
31
0.0000000000
11
100.6785989518
21
194.2172912167
31
0.0000000000
11
100.6769225228
21
194.0385106993
31
0.0000000000
11
100.6738357739
21
193.8595869879
31
0.0000000000
11
100.6693486821
21
193.6964437714
31
0.0000000000
11
100.6637019959
21
193.5628837066
31
0.0000000000
11
100.6573457716
21
193.4684666082
31
0.0000000000
11
100.6508720736
21
193.4161196687
31
0.0000000000
11
100.6448657049
21
193.4008847372
31
0.0000000000
0
SPLINE
5
4E6
100
AcDbEntity
8
0
100
AcDbSpline
6
CONTINUOUS
70
0
71
3
72
11
73
7
74
5
42
0.0000001000
43
0.0000001000
44
0.0000000001
40
0.0000000000
40
0.0000000000
40
0.0000000000
40
0.0000000000
40
0.4050926535
40
0.7356500837
40
0.9523905914
40
1.0000000000
40
1.0000000000
40
1.0000000000
40
1.0000000000
10
173.8353287522
20
213.0322889716
30
0.0000000000
10
173.8706335084
20
213.1333687816
30
0.0000000000
10
173.9370234958
20
213.3101964996
30
0.0000000000
10
174.0267149829
20
213.5656481800
30
0.0000000000
10
174.0926081059
20
213.6715572937
30
0.0000000000
10
174.1230789046
20
213.7674495051
30
0.0000000000
10
174.1309076526
20
213.7772700040
30
0.0000000000
11
173.8353287522
21
213.0322889716
31
0.0000000000
11
173.9446263573
21
213.3343254226
31
0.0000000000
11
174.0407452808
21
213.5781688064
31
0.0000000000
11
174.1121419528
21
213.7344930206
31
0.0000000000
11
174.1309076526
21
213.7772700040
31
0.0000000000
0
SPLINE
5
4E7
100
AcDbEntity
8
0
100
AcDbSpline
6
CONTINUOUS
70
0
71
3
72
8
73
4
74
2
42
0.0000001000
43
0.0000001000
44
0.0000000001
40
0.0000000000
40
0.0000000000
40
0.0000000000
40
0.0000000000
40
1.0000000000
40
1.0000000000
40
1.0000000000
40
1.0000000000
10
174.1309076526
20
213.7772700040
30
0.0000000000
10
174.1360869866
20
213.7837670383
30
0.0000000000
10
174.1422909266
20
213.7870034459
30
0.0000000000
10
174.1501861453
20
213.7843634297
30
0.0000000000
11
174.1309076526
21
213.7772700040
31
0.0000000000
11
174.1501861453
21
213.7843634297
31
0.0000000000
0
SPLINE
5
4E8
100
AcDbEntity
8
0
100
AcDbSpline
6
CONTINUOUS
70
0
71
3
72
12
73
8
74
6
42
0.0000001000
43
0.0000001000
44
0.0000000001
40
0.0000000000
40
0.0000000000
40
0.0000000000
40
0.0000000000
40
0.2363177715
40
0.4655803101
40
0.6715959767
40
0.8481003568
40
1.0000000000
40
1.0000000000
40
1.0000000000
40
1.0000000000
10
173.8347940626
20
213.0331123460
30
0.0000000000
10
173.7675041524
20
213.1453368487
30
0.0000000000
10
173.6257500757
20
213.3611810485
30
0.0000000000
10
173.3873650852
20
213.6480222555
30
0.0000000000
10
173.1290146164
20
213.8706535792
30
0.0000000000
10
172.8622566869
20
214.0070545971
30
0.0000000000
10
172.6793990295
20
214.0373667954
30
0.0000000000
10
172.5952903040
20
214.0373758351
30
0.0000000000
11
173.8347940626
21
213.0331123460
31
0.0000000000
11
173.6175462838
21
213.3600738755
31
0.0000000000
11
173.3709822078
21
213.6503197276
31
0.0000000000
11
173.1080239259
21
213.8693350123
31
0.0000000000
11
172.8445059536
21
213.9978782388
31
0.0000000000
11
172.5952903040
21
214.0373758351
31
0.0000000000
0
SPLINE
5
4E9
100
AcDbEntity
8
0
100
AcDbSpline
6
CONTINUOUS
70
0
71
3
72
14
73
10
74
8
42
0.0000001000
43
0.0000001000
44
0.0000000001
40
0.0000000000
40
0.0000000000
40
0.0000000000
40
0.0000000000
40
0.1505028357
40
0.3068769474
40
0.4632951450
40
0.6140292156
40
0.7548825366
40
0.8842015516
40
1.0000000000
40
1.0000000000
40
1.0000000000
40
1.0000000000
10
176.5172478049
20
209.3124050005
30
0.0000000000
10
176.5172098954
20
209.5579013368
30
0.0000000000
10
176.4699964535
20
210.0597164047
30
0.0000000000
10
176.2555624695
20
210.7892202253
30
0.0000000000
10
175.9032899398
20
211.4637577674
30
0.0000000000
10
175.4449466128
20
212.0384855267
30
0.0000000000
10
174.9239510088
20
212.4910859078
30
0.0000000000
10
174.3839341131
20
212.8199566796
30
0.0000000000
10
174.0129811566
20
212.9734018808
30
0.0000000000
10
173.8337800212
20
213.0331129989
30
0.0000000000
11
176.5172478049
21
209.3124050005
31
0.0000000000
11
176.4480923960
21
210.0456400259
31
0.0000000000
11
176.2323537667
21
210.7798190631
31
0.0000000000
11
175.8780131871
21
211.4582989704
31
0.0000000000
11
175.4181067293
21
212.0349879310
31
0.0000000000
11
174.8978277176
21
212.4870956244
31
0.0000000000
11
174.3572221532
21
212.8160542152
31
0.0000000000
11
173.8337800212
21
213.0331129989
31
0.0000000000
0
SPLINE
5
4EA
100
AcDbEntity
8
0
100
AcDbSpline
6
CONTINUOUS
70
0
71
3
72
11
73
7
74
5
42
0.0000001000
43
0.0000001000
44
0.0000000001
40
0.0000000000
40
0.0000000000
40
0.0000000000
40
0.0000000000
40
0.3692480738
40
0.6843507009
40
0.9008765852
40
1.0000000000
40
1.0000000000
40
1.0000000000
40
1.0000000000
10
176.5172478049
20
209.3124050005
30
0.0000000000
10
176.6423868316
20
209.3124050119
30
0.0000000000
10
176.8717289143
20
209.3058753980
30
0.0000000000
10
177.1851588660
20
209.2682265747
30
0.0000000000
10
177.3743121783
20
209.2299203933
30
0.0000000000
10
177.4976378049
20
209.1690189871
30
0.0000000000
10
177.4976378049
20
209.1354258325
30
0.0000000000
11
176.5172478049
21
209.3124050005
31
0.0000000000
11
176.8924231032
21
209.2989335674
31
0.0000000000
11
177.2104848003
21
209.2605696550
31
0.0000000000
11
177.4230088562
21
209.2031533776
31
0.0000000000
11
177.4976378049
21
209.1354258325
31
0.0000000000
0
SPLINE
5
4EB
100
AcDbEntity
8
0
100
AcDbSpline
62
7
6
CONTINUOUS
70
0
71
3
72
13
73
9
74
7
42
0.0000001000
43
0.0000001000
44
0.0000000001
40
0.0000000000
40
0.0000000000
40
0.0000000000
40
0.0000000000
40
0.0529067781
40
0.1831006588
40
0.3600373173
40
0.5645616880
40
0.7825093358
40
1.0000000000
40
1.0000000000
40
1.0000000000
40
1.0000000000
10
315.6753776976
20
210.1459480972
30
0.0000000000
10
315.6665599013
20
210.1371303008
30
0.0000000000
10
315.6360431248
20
210.1066135244
30
0.0000000000
10
315.5760369053
20
210.0466073048
30
0.0000000000
10
315.4907610870
20
209.9613314865
30
0.0000000000
10
315.3908596408
20
209.8614300403
30
0.0000000000
10
315.2841991937
20
209.7547695932
30
0.0000000000
10
315.2116261417
20
209.6821965412
30
0.0000000000
10
315.1753776976
20
209.6459480972
30
0.0000000000
11
315.6753776976
21
210.1459480972
31
0.0000000000
11
315.6489243086
21
210.1194947082
31
0.0000000000
11
315.5838273682
21
210.0543977678
31
0.0000000000
11
315.4953590390
21
209.9659294385
31
0.0000000000
11
315.3930968537
21
209.8636672532
31
0.0000000000
11
315.2841230298
21
209.7546934293
31
0.0000000000
11
315.1753776976
21
209.6459480972
31
0.0000000000
0
SPLINE
5
4EC
100
AcDbEntity
8
0
100
AcDbSpline
62
7
6
CONTINUOUS
70
0
71
3
72
13
73
9
74
7
42
0.0000001000
43
0.0000001000
44
0.0000000001
40
0.0000000000
40
0.0000000000
40
0.0000000000
40
0.0000000000
40
0.0529067781
40
0.1831006588
40
0.3600373173
40
0.5645616880
40
0.7825093358
40
1.0000000000
40
1.0000000000
40
1.0000000000
40
1.0000000000
10
303.6753776976
20
210.1459480972
30
0.0000000000
10
303.6841954940
20
210.1371303008
30
0.0000000000
10
303.7147122705
20
210.1066135244
30
0.0000000000
10
303.7747184900
20
210.0466073048
30
0.0000000000
10
303.8599943083
20
209.9613314865
30
0.0000000000
10
303.9598957545
20
209.8614300403
30
0.0000000000
10
304.0665562016
20
209.7547695932
30
0.0000000000
10
304.1391292536
20
209.6821965412
30
0.0000000000
10
304.1753776976
20
209.6459480972
30
0.0000000000
11
303.6753776976
21
210.1459480972
31
0.0000000000
11
303.7018310867
21
210.1194947082
31
0.0000000000
11
303.7669280271
21
210.0543977678
31
0.0000000000
11
303.8553963563
21
209.9659294385
31
0.0000000000
11
303.9576585416
21
209.8636672532
31
0.0000000000
11
304.0666323655
21
209.7546934293
31
0.0000000000
11
304.1753776976
21
209.6459480972
31
0.0000000000
0
SPLINE
5
4ED
100
AcDbEntity
8
0
100
AcDbSpline
62
7
6
CONTINUOUS
70
0
71
3
72
9
73
5
74
3
42
0.0000001000
43
0.0000001000
44
0.0000000001
40
0.0000000000
40
0.0000000000
40
0.0000000000
40
0.0000000000
40
0.4746222136
40
1.0000000000
40
1.0000000000
40
1.0000000000
40
1.0000000000
10
305.0479368976
20
211.5939233813
30
0.0000000000
10
305.0478356561
20
211.6004295976
30
0.0000000000
10
305.0462175113
20
211.6145197076
30
0.0000000000
10
305.0379881868
20
211.6258922966
30
0.0000000000
10
305.0341660446
20
211.6319974059
30
0.0000000000
11
305.0479368976
21
211.5939233813
31
0.0000000000
11
305.0448103656
21
211.6131923902
31
0.0000000000
11
305.0341660446
21
211.6319974059
31
0.0000000000
0
SPLINE
5
4EE
100
AcDbEntity
8
0
100
AcDbSpline
6
CONTINUOUS
70
0
71
3
72
9
73
5
74
3
42
0.0000001000
43
0.0000001000
44
0.0000000001
40
0.0000000000
40
0.0000000000
40
0.0000000000
40
0.0000000000
40
0.6199064449
40
1.0000000000
40
1.0000000000
40
1.0000000000
40
1.0000000000
10
305.0341660446
20
211.6319974059
30
0.0000000000
10
305.0200179116
20
211.6545319707
30
0.0000000000
10
304.9835773396
20
211.6815661596
30
0.0000000000
10
304.9433833392
20
211.6974241220
30
0.0000000000
10
304.9277559800
20
211.7022153160
30
0.0000000000
11
305.0341660446
21
211.6319974059
31
0.0000000000
11
304.9733960383
21
211.6837544616
31
0.0000000000
11
304.9277559800
21
211.7022153160
31
0.0000000000
0
SPLINE
5
4EF
100
AcDbEntity
8
0
100
AcDbSpline
6
CONTINUOUS
70
0
71
3
72
8
73
4
74
2
42
0.0000001000
43
0.0000001000
44
0.0000000001
40
0.0000000000
40
0.0000000000
40
0.0000000000
40
0.0000000000
40
1.0000000000
40
1.0000000000
40
1.0000000000
40
1.0000000000
10
304.9277559800
20
211.7022153160
30
0.0000000000
10
304.9102876193
20
211.7075709428
30
0.0000000000
10
304.8923820883
20
211.7113818048
30
0.0000000000
10
304.8743080865
20
211.7141763065
30
0.0000000000
11
304.9277559800
21
211.7022153160
31
0.0000000000
11
304.8743080865
21
211.7141763065
31
0.0000000000
0
SPLINE
5
4F0
100
AcDbEntity
8
0
100
AcDbSpline
6
CONTINUOUS
70
0
71
3
72
8
73
4
74
2
42
0.0000001000
43
0.0000001000
44
0.0000000001
40
0.0000000000
40
0.0000000000
40
0.0000000000
40
0.0000000000
40
1.0000000000
40
1.0000000000
40
1.0000000000
40
1.0000000000
10
304.8743080865
20
211.7141763065
30
0.0000000000
10
304.8548375032
20
211.7171867399
30
0.0000000000
10
304.8351714076
20
211.7190176758
30
0.0000000000
10
304.8154780083
20
211.7196823744
30
0.0000000000
11
304.8743080865
21
211.7141763065
31
0.0000000000
11
304.8154780083
21
211.7196823744
31
0.0000000000
0
SPLINE
5
4F1
100
AcDbEntity
8
0
100
AcDbSpline
6
CONTINUOUS
70
0
71
3
72
8
73
4
74
2
42
0.0000001000
43
0.0000001000
44
0.0000000001
40
0.0000000000
40
0.0000000000
40
0.0000000000
40
0.0000000000
40
1.0000000000
40
1.0000000000
40
1.0000000000
40
1.0000000000
10
304.8154780083
20
211.7196823744
30
0.0000000000
10
304.7948910895
20
211.7203772314
30
0.0000000000
10
304.7742743331
20
211.7197976224
30
0.0000000000
10
304.7538198976
20
211.7179586955
30
0.0000000000
11
304.8154780083
21
211.7196823744
31
0.0000000000
11
304.7538198976
21
211.7179586955
31
0.0000000000
0
SPLINE
5
4F2
100
AcDbEntity
8
0
100
AcDbSpline
6
CONTINUOUS
70
0
71
3
72
10
73
6
74
4
42
0.0000001000
43
0.0000001000
44
0.0000000001
40
0.0000000000
40
0.0000000000
40
0.0000000000
40
0.0000000000
40
0.4055233163
40
0.8031086352
40
1.0000000000
40
1.0000000000
40
1.0000000000
40
1.0000000000
10
305.0341778074
20
211.6319993909
30
0.0000000000
10
305.0338869916
20
211.6417323795
30
0.0000000000
10
305.0315556227
20
211.6610112675
30
0.0000000000
10
305.0241330051
20
211.6839935433
30
0.0000000000
10
305.0177515322
20
211.6968214400
30
0.0000000000
10
305.0154342837
20
211.7009530707
30
0.0000000000
11
305.0341778074
21
211.6319993909
31
0.0000000000
11
305.0306071021
21
211.6609923352
31
0.0000000000
11
305.0217626577
21
211.6882326684
31
0.0000000000
11
305.0154342837
21
211.7009530707
31
0.0000000000
0
SPLINE
5
4F3
100
AcDbEntity
8
0
100
AcDbSpline
6
CONTINUOUS
70
0
71
3
72
8
73
4
74
2
42
0.0000001000
43
0.0000001000
44
0.0000000001
40
0.0000000000
40
0.0000000000
40
0.0000000000
40
0.0000000000
40
1.0000000000
40
1.0000000000
40
1.0000000000
40
1.0000000000
10
305.0154342837
20
211.7009530707
30
0.0000000000
10
305.0131208724
20
211.7050778597
30
0.0000000000
10
305.0106044377
20
211.7090860523
30
0.0000000000
10
305.0078971985
20
211.7129523342
30
0.0000000000
11
305.0154342837
21
211.7009530707
31
0.0000000000
11
305.0078971985
21
211.7129523342
31
0.0000000000
0
SPLINE
5
4F4
100
AcDbEntity
8
0
100
AcDbSpline
6
CONTINUOUS
70
0
71
3
72
9
73
5
74
3
42
0.0000001000
43
0.0000001000
44
0.0000000001
40
0.0000000000
40
0.0000000000
40
0.0000000000
40
0.0000000000
40
0.6089949106
40
1.0000000000
40
1.0000000000
40
1.0000000000
40
1.0000000000
10
305.0078971985
20
211.7129523342
30
0.0000000000
10
304.9955910958
20
211.7305219525
30
0.0000000000
10
304.9608263893
20
211.7476180483
30
0.0000000000
10
304.9254834628
20
211.7518806262
30
0.0000000000
10
304.9116737662
20
211.7521751219
30
0.0000000000
11
305.0078971985
21
211.7129523342
31
0.0000000000
11
304.9530335899
21
211.7465851948
31
0.0000000000
11
304.9116737662
21
211.7521751219
31
0.0000000000
0
SPLINE
5
4F5
100
AcDbEntity
8
0
100
AcDbSpline
6
CONTINUOUS
70
0
71
3
72
9
73
5
74
3
42
0.0000001000
43
0.0000001000
44
0.0000000001
40
0.0000000000
40
0.0000000000
40
0.0000000000
40
0.0000000000
40
0.2972563642
40
1.0000000000
40
1.0000000000
40
1.0000000000
40
1.0000000000
10
304.9116737662
20
211.7521751219
30
0.0000000000
10
304.8955673824
20
211.7525185950
30
0.0000000000
10
304.8414276861
20
211.7473947591
30
0.0000000000
10
304.7891942799
20
211.7317374422
30
0.0000000000
10
304.7538083361
20
211.7179577332
30
0.0000000000
11
304.9116737662
21
211.7521751219
31
0.0000000000
11
304.8635490862
21
211.7485416568
31
0.0000000000
11
304.7538083361
21
211.7179577332
31
0.0000000000
0
SPLINE
5
4F6
100
AcDbEntity
8
0
100
AcDbSpline
6
CONTINUOUS
70
0
71
3
72
10
73
6
74
4
42
0.0000001000
43
0.0000001000
44
0.0000000001
40
0.0000000000
40
0.0000000000
40
0.0000000000
40
0.0000000000
40
0.3732346773
40
0.7815337556
40
1.0000000000
40
1.0000000000
40
1.0000000000
40
1.0000000000
10
292.0908088450
20
193.2223243082
30
0.0000000000
10
292.1027973437
20
193.1785173145
30
0.0000000000
10
292.1278482975
20
193.0867733624
30
0.0000000000
10
292.1593517520
20
192.9692341939
30
0.0000000000
10
292.1786855139
20
192.8954558704
30
0.0000000000
10
292.1853727947
20
192.8697261284
30
0.0000000000
11
292.0908088450
21
193.2223243082
31
0.0000000000
11
292.1266263013
21
193.0908629033
31
0.0000000000
11
292.1651575083
21
192.9468752081
31
0.0000000000
11
292.1853727947
21
192.8697261284
31
0.0000000000
0
SPLINE
5
4F7
100
AcDbEntity
8
0
100
AcDbSpline
6
CONTINUOUS
70
0
71
3
72
9
73
5
74
3
42
0.0000001000
43
0.0000001000
44
0.0000000001
40
0.0000000000
40
0.0000000000
40
0.0000000000
40
0.0000000000
40
0.3184977829
40
1.0000000000
40
1.0000000000
40
1.0000000000
40
1.0000000000
10
292.1853727947
20
192.8697261284
30
0.0000000000
10
292.1923732883
20
192.8427912795
30
0.0000000000
10
292.2141750452
20
192.7581765614
30
0.0000000000
10
292.2353984951
20
192.6734137552
30
0.0000000000
10
292.2495721111
20
192.6155769710
30
0.0000000000
11
292.1853727947
21
192.8697261284
31
0.0000000000
11
292.2062022468
21
192.7888770571
31
0.0000000000
11
292.2495721111
21
192.6155769710
31
0.0000000000
0
SPLINE
5
4F8
100
AcDbEntity
8
0
100
AcDbSpline
6
CONTINUOUS
70
0
71
3
72
9
73
5
74
3
42
0.0000001000
43
0.0000001000
44
0.0000000001
40
0.0000000000
40
0.0000000000
40
0.0000000000
40
0.0000000000
40
0.6083211810
40
1.0000000000
40
1.0000000000
40
1.0000000000
40
1.0000000000
10
314.3428582786
20
211.7129522960
30
0.0000000000
10
314.3551556224
20
211.7305087980
30
0.0000000000
10
314.3899292517
20
211.7476105413
30
0.0000000000
10
314.4252863430
20
211.7518756547
30
0.0000000000
10
314.4391253721
20
211.7521688149
30
0.0000000000
11
314.3428582786
21
211.7129522960
31
0.0000000000
11
314.3976786057
21
211.7465652487
31
0.0000000000
11
314.4391253721
21
211.7521688149
31
0.0000000000
0
SPLINE
5
4F9
100
AcDbEntity
8
0
100
AcDbSpline
6
CONTINUOUS
70
0
71
3
72
9
73
5
74
3
42
0.0000001000
43
0.0000001000
44
0.0000000001
40
0.0000000000
40
0.0000000000
40
0.0000000000
40
0.0000000000
40
0.2979017501
40
1.0000000000
40
1.0000000000
40
1.0000000000
40
1.0000000000
10
314.4391253721
20
211.7521688149
30
0.0000000000
10
314.4552625961
20
211.7525106591
30
0.0000000000
10
314.5093884217
20
211.7473713364
30
0.0000000000
10
314.5615966540
20
211.7317031503
30
0.0000000000
10
314.5969469498
20
211.7179577611
30
0.0000000000
11
314.4391253721
21
211.7521688149
31
0.0000000000
11
314.4873407748
21
211.7485142439
31
0.0000000000
11
314.5969469498
21
211.7179577611
31
0.0000000000
0
SPLINE
5
4FA
100
AcDbEntity
8
0
100
AcDbSpline
6
CONTINUOUS
70
0
71
3
72
14
73
10
74
8
42
0.0000001000
43
0.0000001000
44
0.0000000001
40
0.0000000000
40
0.0000000000
40
0.0000000000
40
0.0000000000
40
0.1128061099
40
0.2358893822
40
0.3679541552
40
0.5087889982
40
0.6590190484
40
0.8215039970
40
1.0000000000
40
1.0000000000
40
1.0000000000
40
1.0000000000
10
295.3117841453
20
172.7200914928
30
0.0000000000
10
295.3173409476
20
172.6523037770
30
0.0000000000
10
295.3280133558
20
172.5104721846
30
0.0000000000
10
295.3408347015
20
172.2889753221
30
0.0000000000
10
295.3493190223
20
172.0503488120
30
0.0000000000
10
295.3520929079
20
171.7952215521
30
0.0000000000
10
295.3508513411
20
171.5217676059
30
0.0000000000
10
295.3554841770
20
171.2255690298
30
0.0000000000
10
295.3749032723
20
171.0204495516
30
0.0000000000
10
295.3913667847
20
170.9140942390
30
0.0000000000
11
295.3117841453
21
172.7200914928
31
0.0000000000
11
295.3269874386
21
172.5166134053
31
0.0000000000
11
295.3397249858
21
172.2943433339
31
0.0000000000
11
295.3481807467
21
172.0556124276
31
0.0000000000
11
295.3513980444
21
171.8008887103
31
0.0000000000
11
295.3517631344
21
171.5291507387
31
0.0000000000
11
295.3590124714
21
171.2353351084
31
0.0000000000
11
295.3913667847
21
170.9140942390
31
0.0000000000
0
SPLINE
5
4FB
100
AcDbEntity
8
0
100
AcDbSpline
6
CONTINUOUS
70
0
71
3
72
10
73
6
74
4
42
0.0000001000
43
0.0000001000
44
0.0000000001
40
0.0000000000
40
0.0000000000
40
0.0000000000
40
0.0000000000
40
0.3288281038
40
0.6611386869
40
1.0000000000
40
1.0000000000
40
1.0000000000
40
1.0000000000
10
314.3428582786
20
211.7129522960
30
0.0000000000
10
314.3374392134
20
211.7052131812
30
0.0000000000
10
314.3280809370
20
211.6885096842
30
0.0000000000
10
314.3191999100
20
211.6610096691
30
0.0000000000
10
314.3168693107
20
211.6417309147
30
0.0000000000
10
314.3165788972
20
211.6319992170
30
0.0000000000
11
314.3428582786
21
211.7129522960
31
0.0000000000
11
314.3289927435
21
211.6882320933
31
0.0000000000
11
314.3201479827
21
211.6609884245
31
0.0000000000
11
314.3165788972
21
211.6319992170
31
0.0000000000
0
SPLINE
5
4FC
100
AcDbEntity
8
0
100
AcDbSpline
6
CONTINUOUS
70
0
71
3
72
9
73
5
74
3
42
0.0000001000
43
0.0000001000
44
0.0000000001
40
0.0000000000
40
0.0000000000
40
0.0000000000
40
0.0000000000
40
0.6191478024
40
1.0000000000
40
1.0000000000
40
1.0000000000
40
1.0000000000
10
314.3165893775
20
211.6319974485
30
0.0000000000
10
314.3307261922
20
211.6545105399
30
0.0000000000
10
314.3671642862
20
211.6815632156
30
0.0000000000
10
314.4073694014
20
211.6974316759
30
0.0000000000
10
314.4230335712
20
211.7022331436
30
0.0000000000
11
314.3165893775
21
211.6319974485
31
0.0000000000
11
314.3772913888
21
211.6837223475
31
0.0000000000
11
314.4230335712
21
211.7022331436
31
0.0000000000
0
SPLINE
5
4FD
100
AcDbEntity
8
0
100
AcDbSpline
6
CONTINUOUS
70
0
71
3
72
8
73
4
74
2
42
0.0000001000
43
0.0000001000
44
0.0000000001
40
0.0000000000
40
0.0000000000
40
0.0000000000
40
0.0000000000
40
1.0000000000
40
1.0000000000
40
1.0000000000
40
1.0000000000
10
314.4230335712
20
211.7022331436
30
0.0000000000
10
314.4405433703
20
211.7076003438
30
0.0000000000
10
314.4584929590
20
211.7114155368
30
0.0000000000
10
314.4766107556
20
211.7142097453
30
0.0000000000
11
314.4230335712
21
211.7022331436
31
0.0000000000
11
314.4766107556
21
211.7142097453
31
0.0000000000
0
SPLINE
5
4FE
100
AcDbEntity
8
0
100
AcDbSpline
6
CONTINUOUS
70
0
71
3
72
8
73
4
74
2
42
0.0000001000
43
0.0000001000
44
0.0000000001
40
0.0000000000
40
0.0000000000
40
0.0000000000
40
0.0000000000
40
1.0000000000
40
1.0000000000
40
1.0000000000
40
1.0000000000
10
314.4766107556
20
211.7142097453
30
0.0000000000
10
314.4960759545
20
211.7172117564
30
0.0000000000
10
314.5157353104
20
211.7190352770
30
0.0000000000
10
314.5354212851
20
211.7196929656
30
0.0000000000
11
314.4766107556
21
211.7142097453
31
0.0000000000
11
314.5354212851
21
211.7196929656
31
0.0000000000
0
SPLINE
5
4FF
100
AcDbEntity
8
0
100
AcDbSpline
6
CONTINUOUS
70
0
71
3
72
8
73
4
74
2
42
0.0000001000
43
0.0000001000
44
0.0000000001
40
0.0000000000
40
0.0000000000
40
0.0000000000
40
0.0000000000
40
1.0000000000
40
1.0000000000
40
1.0000000000
40
1.0000000000
10
314.5354212851
20
211.7196929656
30
0.0000000000
10
314.5559604733
20
211.7203791592
30
0.0000000000
10
314.5765286375
20
211.7197962737
30
0.0000000000
10
314.5969354976
20
211.7179586856
30
0.0000000000
11
314.5354212851
21
211.7196929656
31
0.0000000000
11
314.5969354976
21
211.7179586856
31
0.0000000000
0
SPLINE
5
500
100
AcDbEntity
8
0
100
AcDbSpline
6
CONTINUOUS
70
0
71
3
72
22
73
18
74
16
42
0.0000001000
43
0.0000001000
44
0.0000000001
40
0.0000000000
40
0.0000000000
40
0.0000000000
40
0.0000000000
40
0.0293735442
40
0.0641368217
40
0.1034148135
40
0.1463637560
40
0.1921685958
40
0.2403819458
40
0.2920545891
40
0.3487257821
40
0.4120772297
40
0.4840130461
40
0.5669098996
40
0.6625365875
40
0.7696711369
40
0.8852686493
40
1.0000000000
40
1.0000000000
40
1.0000000000
40
1.0000000000
10
323.9593886106
20
170.9140942390
30
0.0000000000
10
323.9620830206
20
170.9316001019
30
0.0000000000
10
323.9676206533
20
170.9698779932
30
0.0000000000
10
323.9753383091
20
171.0317613566
30
0.0000000000
10
323.9825289335
20
171.1019442415
30
0.0000000000
10
323.9886335961
20
171.1789114015
30
0.0000000000
10
323.9933256144
20
171.2613744173
30
0.0000000000
10
323.9965515739
20
171.3491705415
30
0.0000000000
10
323.9984324285
20
171.4435578945
30
0.0000000000
10
323.9991946295
20
171.5470875800
30
0.0000000000
10
323.9992185173
20
171.6628371101
30
0.0000000000
10
323.9991760058
20
171.7944003334
30
0.0000000000
10
324.0001625478
20
171.9454246188
30
0.0000000000
10
324.0036680291
20
172.1176463117
30
0.0000000000
10
324.0111067807
20
172.3094821017
30
0.0000000000
10
324.0229133872
20
172.5126385878
30
0.0000000000
10
324.0333193366
20
172.6511406953
30
0.0000000000
10
324.0389712500
20
172.7200914928
30
0.0000000000
11
323.9593886106
21
170.9140942390
31
0.0000000000
11
323.9669977317
21
170.9666826122
31
0.0000000000
11
323.9747865134
21
171.0290843102
31
0.0000000000
11
323.9820447113
21
171.0997655293
31
0.0000000000
11
323.9882184207
21
171.1772134218
31
0.0000000000
11
323.9929727740
21
171.2599367279
31
0.0000000000
11
323.9962392645
21
171.3470922892
31
0.0000000000
11
323.9981857061
21
171.4405465489
31
0.0000000000
11
323.9990495159
21
171.5430596893
31
0.0000000000
11
323.9992079772
21
171.6576607739
31
0.0000000000
11
323.9993162989
21
171.7877908327
31
0.0000000000
11
324.0004331544
21
171.9377450215
31
0.0000000000
11
324.0040271603
21
172.1106939842
31
0.0000000000
11
324.0115078567
21
172.3043532927
31
0.0000000000
11
324.0235350103
21
172.5131201618
31
0.0000000000
11
324.0389712500
21
172.7200914928
31
0.0000000000
0
SPLINE
5
501
100
AcDbEntity
8
0
100
AcDbSpline
62
7
6
CONTINUOUS
70
0
71
3
72
9
73
5
74
3
42
0.0000001000
43
0.0000001000
44
0.0000000001
40
0.0000000000
40
0.0000000000
40
0.0000000000
40
0.0000000000
40
0.5138741839
40
1.0000000000
40
1.0000000000
40
1.0000000000
40
1.0000000000
10
327.2632935807
20
192.9379955846
30
0.0000000000
10
327.2975113833
20
193.0143989512
30
0.0000000000
10
327.3570357910
20
193.1661221060
30
0.0000000000
10
327.4037381031
20
193.3229583510
30
0.0000000000
10
327.4178579044
20
193.4008847372
30
0.0000000000
11
327.2632935807
21
192.9379955846
31
0.0000000000
11
327.3553016080
21
193.1716823726
31
0.0000000000
11
327.4178579044
21
193.4008847372
31
0.0000000000
0
SPLINE
5
502
100
AcDbEntity
8
0
100
AcDbSpline
6
CONTINUOUS
70
0
71
3
72
14
73
10
74
8
42
0.0000001000
43
0.0000001000
44
0.0000000001
40
0.0000000000
40
0.0000000000
40
0.0000000000
40
0.0000000000
40
0.0606974003
40
0.1486727384
40
0.2691245859
40
0.4231722062
40
0.6051322316
40
0.8025499884
40
1.0000000000
40
1.0000000000
40
1.0000000000
40
1.0000000000
10
316.8060123994
20
213.7876318622
30
0.0000000000
10
316.8199299661
20
213.6935200239
30
0.0000000000
10
316.8539415903
20
213.4629900925
30
0.0000000000
10
316.9151268337
20
213.0456330152
30
0.0000000000
10
316.9976956324
20
212.4835324657
30
0.0000000000
10
317.1016093223
20
211.7756776284
30
0.0000000000
10
317.2230779797
20
210.9484727919
30
0.0000000000
10
317.3544131319
20
210.0539595958
30
0.0000000000
10
317.4443173865
20
209.4416199293
30
0.0000000000
10
317.4892782884
20
209.1354258357
30
0.0000000000
11
316.8060123994
21
213.7876318622
31
0.0000000000
11
316.8476660904
21
213.5052817231
31
0.0000000000
11
316.9077597658
21
213.0959998418
31
0.0000000000
11
316.9900353731
21
212.5356293477
31
0.0000000000
11
317.0952594650
21
211.8189634606
31
0.0000000000
11
317.2195554811
21
210.9724433607
31
0.0000000000
11
317.3544054648
21
210.0540095675
31
0.0000000000
11
317.4892782884
21
209.1354258357
31
0.0000000000
0
SPLINE
5
503
100
AcDbEntity
8
0
100
AcDbSpline
6
CONTINUOUS
70
0
71
3
72
11
73
7
74
5
42
0.0000001000
43
0.0000001000
44
0.0000000001
40
0.0000000000
40
0.0000000000
40
0.0000000000
40
0.0000000000
40
0.2442977205
40
0.4917151335
40
0.7438322185
40
1.0000000000
40
1.0000000000
40
1.0000000000
40
1.0000000000
10
317.7713733622
20
213.0293581519
30
0.0000000000
10
317.7519169091
20
213.1353639628
30
0.0000000000
10
317.6720461529
20
213.3433344992
30
0.0000000000
10
317.4475069467
20
213.5920324720
30
0.0000000000
10
317.1468519278
20
213.7505342013
30
0.0000000000
10
316.9200833260
20
213.7837173477
30
0.0000000000
10
316.8070897280
20
213.7816095805
30
0.0000000000
11
317.7713733622
21
213.0293581519
31
0.0000000000
11
317.6556291140
21
213.3312610149
31
0.0000000000
11
317.4371637226
21
213.5751913413
31
0.0000000000
11
317.1424238608
21
213.7316197593
31
0.0000000000
11
316.8070897280
21
213.7816095805
31
0.0000000000
0
SPLINE
5
504
100
AcDbEntity
8
0
100
AcDbSpline
6
CONTINUOUS
70
0
71
3
72
13
73
9
74
7
42
0.0000001000
43
0.0000001000
44
0.0000000001
40
0.0000000000
40
0.0000000000
40
0.0000000000
40
0.0000000000
40
0.1604272609
40
0.3224419152
40
0.4888537152
40
0.6600584431
40
0.8329522383
40
1.0000000000
40
1.0000000000
40
1.0000000000
40
1.0000000000
10
316.5653857249
20
214.0373757917
30
0.0000000000
10
316.5855259591
20
214.0373589596
30
0.0000000000
10
316.6262606403
20
214.0309734355
30
0.0000000000
10
316.6821072878
20
214.0036915942
30
0.0000000000
10
316.7297693498
20
213.9619233430
30
0.0000000000
10
316.7672382977
20
213.9092808369
30
0.0000000000
10
316.7931054372
20
213.8501751856
30
0.0000000000
10
316.8032481250
20
213.8084200289
30
0.0000000000
10
316.8060123994
20
213.7876318622
30
0.0000000000
11
316.5653857249
21
214.0373757917
31
0.0000000000
11
316.6250949463
21
214.0281310667
31
0.0000000000
11
316.6800987729
21
214.0017159048
31
0.0000000000
11
316.7275076366
21
213.9607229627
31
0.0000000000
11
316.7651731166
21
213.9083888592
31
0.0000000000
11
316.7915749402
21
213.8488663424
31
0.0000000000
11
316.8060123994
21
213.7876318622
31
0.0000000000
0
SPLINE
5
505
100
AcDbEntity
8
0
100
AcDbSpline
6
CONTINUOUS
70
0
71
3
72
10
73
6
74
4
42
0.0000001000
43
0.0000001000
44
0.0000000001
40
0.0000000000
40
0.0000000000
40
0.0000000000
40
0.0000000000
40
0.3076188481
40
0.6487323856
40
1.0000000000
40
1.0000000000
40
1.0000000000
40
1.0000000000
10
302.7855705024
20
214.0373758229
30
0.0000000000
10
302.8513239059
20
214.0373677256
30
0.0000000000
10
302.9904795014
20
214.0215599659
30
0.0000000000
10
303.1931918230
20
213.9476681470
30
0.0000000000
10
303.3171948839
20
213.8637153206
30
0.0000000000
10
303.3739210895
20
213.8145258924
30
0.0000000000
11
302.7855705024
21
214.0373758229
31
0.0000000000
11
302.9815747535
21
214.0151520671
31
0.0000000000
11
303.1871647032
21
213.9404592573
31
0.0000000000
11
303.3739210895
21
213.8145258924
31
0.0000000000
0
SPLINE
5
506
100
AcDbEntity
8
0
100
AcDbSpline
62
7
6
CONTINUOUS
70
0
71
3
72
9
73
5
74
3
42
0.0000001000
43
0.0000001000
44
0.0000000001
40
0.0000000000
40
0.0000000000
40
0.0000000000
40
0.0000000000
40
0.4855414277
40
1.0000000000
40
1.0000000000
40
1.0000000000
40
1.0000000000
10
291.9329109428
20
193.4008847372
30
0.0000000000
10
291.9469939589
20
193.3230495914
30
0.0000000000
10
291.9937215603
20
193.1662225328
30
0.0000000000
10
292.0531970107
20
193.0144831612
30
0.0000000000
10
292.0874618146
20
192.9379978433
30
0.0000000000
11
291.9329109428
21
193.4008847372
31
0.0000000000
11
291.9953756430
21
193.1719569482
31
0.0000000000
11
292.0874618146
21
192.9379978433
31
0.0000000000
0
SPLINE
5
507
100
AcDbEntity
8
0
100
AcDbSpline
6
CONTINUOUS
70
0
71
3
72
8
73
4
74
2
42
0.0000001000
43
0.0000001000
44
0.0000000001
40
0.0000000000
40
0.0000000000
40
0.0000000000
40
0.0000000000
40
1.0000000000
40
1.0000000000
40
1.0000000000
40
1.0000000000
10
327.1011835637
20
192.6155783283
30
0.0000000000
10
327.1087076538
20
192.6462852658
30
0.0000000000
10
327.1163139170
20
192.6769721781
30
0.0000000000
10
327.1239993437
20
192.7076393093
30
0.0000000000
11
327.1011835637
21
192.6155783283
31
0.0000000000
11
327.1239993437
21
192.7076393093
31
0.0000000000
0
SPLINE
5
508
100
AcDbEntity
8
0
100
AcDbSpline
6
CONTINUOUS
70
0
71
3
72
9
73
5
74
3
42
0.0000001000
43
0.0000001000
44
0.0000000001
40
0.0000000000
40
0.0000000000
40
0.0000000000
40
0.0000000000
40
0.4879874684
40
1.0000000000
40
1.0000000000
40
1.0000000000
40
1.0000000000
10
327.1239993437
20
192.7076393093
30
0.0000000000
10
327.1320473092
20
192.7397530774
30
0.0000000000
10
327.1487173556
20
192.8055172183
30
0.0000000000
10
327.1657374281
20
192.8711914452
30
0.0000000000
10
327.1745363474
20
192.9047953502
30
0.0000000000
11
327.1239993437
21
192.7076393093
31
0.0000000000
11
327.1484002090
21
192.8039158193
31
0.0000000000
11
327.1745363474
21
192.9047953502
31
0.0000000000
0
SPLINE
5
509
100
AcDbEntity
8
0
100
AcDbSpline
6
CONTINUOUS
70
0
71
3
72
9
73
5
74
3
42
0.0000001000
43
0.0000001000
44
0.0000000001
40
0.0000000000
40
0.0000000000
40
0.0000000000
40
0.0000000000
40
0.3268961036
40
1.0000000000
40
1.0000000000
40
1.0000000000
40
1.0000000000
10
327.1745363474
20
192.9047953502
30
0.0000000000
10
327.1836140253
20
192.9394638603
30
0.0000000000
10
327.2116582296
20
193.0454454357
30
0.0000000000
10
327.2404680185
20
193.1512215621
30
0.0000000000
10
327.2599450949
20
193.2223960160
30
0.0000000000
11
327.1745363474
21
192.9047953502
31
0.0000000000
11
327.2020309187
21
193.0087318339
31
0.0000000000
11
327.2599450949
21
193.2223960160
31
0.0000000000
0
SPLINE
5
50A
100
AcDbEntity
8
0
100
AcDbSpline
62
7
6
CONTINUOUS
70
0
71
3
72
9
73
5
74
3
42
0.0000001000
43
0.0000001000
44
0.0000000001
40
0.0000000000
40
0.0000000000
40
0.0000000000
40
0.0000000000
40
0.4947554404
40
1.0000000000
40
1.0000000000
40
1.0000000000
40
1.0000000000
10
292.0874618146
20
192.9379978433
30
0.0000000000
10
292.0879593215
20
192.9848124816
30
0.0000000000
10
292.0890247819
20
193.0794336285
30
0.0000000000
10
292.0901948749
20
193.1740535264
30
0.0000000000
10
292.0908029339
20
193.2218594963
30
0.0000000000
11
292.0874618146
21
192.9379978433
31
0.0000000000
11
292.0890392184
21
193.0784408303
31
0.0000000000
11
292.0908029339
21
193.2218594963
31
0.0000000000
0
SPLINE
5
50B
100
AcDbEntity
8
0
100
AcDbSpline
62
7
6
CONTINUOUS
70
0
71
3
72
9
73
5
74
3
42
0.0000001000
43
0.0000001000
44
0.0000000001
40
0.0000000000
40
0.0000000000
40
0.0000000000
40
0.0000000000
40
0.5107627808
40
1.0000000000
40
1.0000000000
40
1.0000000000
40
1.0000000000
10
327.2600065853
20
193.2176677959
30
0.0000000000
10
327.2606116813
20
193.1700529602
30
0.0000000000
10
327.2617582953
20
193.0768294763
30
0.0000000000
10
327.2628090272
20
192.9836048518
30
0.0000000000
10
327.2632935807
20
192.9379955846
30
0.0000000000
11
327.2600065853
21
193.2176677959
31
0.0000000000
11
327.2617579632
21
193.0748224909
31
0.0000000000
11
327.2632935807
21
192.9379955846
31
0.0000000000
0
SPLINE
5
50C
100
AcDbEntity
8
0
100
AcDbSpline
62
7
6
CONTINUOUS
70
0
71
3
72
9
73
5
74
3
42
0.0000001000
43
0.0000001000
44
0.0000000001
40
0.0000000000
40
0.0000000000
40
0.0000000000
40
0.0000000000
40
0.6643050087
40
1.0000000000
40
1.0000000000
40
1.0000000000
40
1.0000000000
10
303.5658179748
20
213.7567681936
30
0.0000000000
10
303.5485269194
20
213.7710492474
30
0.0000000000
10
303.5194213537
20
213.7890732255
30
0.0000000000
10
303.4876508137
20
213.8009625831
30
0.0000000000
10
303.4767734632
20
213.8042473268
30
0.0000000000
11
303.5658179748
21
213.7567681936
31
0.0000000000
11
303.5086809170
21
213.7922888702
31
0.0000000000
11
303.4767734632
21
213.8042473268
31
0.0000000000
0
SPLINE
5
50D
100
AcDbEntity
8
0
100
AcDbSpline
62
7
6
CONTINUOUS
70
0
71
3
72
9
73
5
74
3
42
0.0000001000
43
0.0000001000
44
0.0000000001
40
0.0000000000
40
0.0000000000
40
0.0000000000
40
0.0000000000
40
0.3303937590
40
1.0000000000
40
1.0000000000
40
1.0000000000
40
1.0000000000
10
303.4767734632
20
213.8042473268
30
0.0000000000
10
303.4658018824
20
213.8075605263
30
0.0000000000
10
303.4319410381
20
213.8154131337
30
0.0000000000
10
303.3969319750
20
213.8165390987
30
0.0000000000
10
303.3738487137
20
213.8145744780
30
0.0000000000
11
303.4767734632
21
213.8042473268
31
0.0000000000
11
303.4433017195
21
213.8120151507
31
0.0000000000
11
303.3738487137
21
213.8145744780
31
0.0000000000
0
SPLINE
5
50E
100
AcDbEntity
8
0
100
AcDbSpline
62
7
6
CONTINUOUS
70
0
71
3
72
11
73
7
74
5
42
0.0000001000
43
0.0000001000
44
0.0000000001
40
0.0000000000
40
0.0000000000
40
0.0000000000
40
0.0000000000
40
0.1441830299
40
0.3643248845
40
0.6758556895
40
1.0000000000
40
1.0000000000
40
1.0000000000
40
1.0000000000
10
305.0479368976
20
210.9204540372
30
0.0000000000
10
305.0479368976
20
210.9365226922
30
0.0000000000
10
305.0233938173
20
210.9751312949
30
0.0000000000
10
304.9534536825
20
211.0055904931
30
0.0000000000
10
304.8612901925
20
211.0312010784
30
0.0000000000
10
304.7899389547
20
211.0350283014
30
0.0000000000
10
304.7538198976
20
211.0343920075
30
0.0000000000
11
305.0479368976
21
210.9204540372
31
0.0000000000
11
305.0264499288
21
210.9636063864
31
0.0000000000
11
304.9625275051
21
211.0000915777
31
0.0000000000
11
304.8619532441
21
211.0271739925
31
0.0000000000
11
304.7538198976
21
211.0343920075
31
0.0000000000
0
SPLINE
5
50F
100
AcDbEntity
8
0
100
AcDbSpline
6
CONTINUOUS
70
0
71
3
72
8
73
4
74
2
42
0.0000001000
43
0.0000001000
44
0.0000000001
40
0.0000000000
40
0.0000000000
40
0.0000000000
40
0.0000000000
40
1.0000000000
40
1.0000000000
40
1.0000000000
40
1.0000000000
10
303.3739210895
20
213.8145258924
30
0.0000000000
10
303.4042483729
20
213.7684341044
30
0.0000000000
10
303.4345787549
20
213.7223443553
30
0.0000000000
10
303.4649107064
20
213.6762556390
30
0.0000000000
11
303.3739210895
21
213.8145258924
31
0.0000000000
11
303.4649107064
21
213.6762556390
31
0.0000000000
0
SPLINE
5
510
100
AcDbEntity
8
0
100
AcDbSpline
6
CONTINUOUS
70
0
71
3
72
8
73
4
74
2
42
0.0000001000
43
0.0000001000
44
0.0000000001
40
0.0000000000
40
0.0000000000
40
0.0000000000
40
0.0000000000
40
1.0000000000
40
1.0000000000
40
1.0000000000
40
1.0000000000
10
303.4649107064
20
213.6762556390
30
0.0000000000
10
303.4690267279
20
213.6700014372
30
0.0000000000
10
303.4731427783
20
213.6637472544
30
0.0000000000
10
303.4772588537
20
213.6574930880
30
0.0000000000
11
303.4649107064
21
213.6762556390
31
0.0000000000
11
303.4772588537
21
213.6574930880
31
0.0000000000
0
SPLINE
5
511
100
AcDbEntity
8
0
100
AcDbSpline
6
CONTINUOUS
70
0
71
3
72
8
73
4
74
2
42
0.0000001000
43
0.0000001000
44
0.0000000001
40
0.0000000000
40
0.0000000000
40
0.0000000000
40
0.0000000000
40
1.0000000000
40
1.0000000000
40
1.0000000000
40
1.0000000000
10
303.4772588537
20
213.6574930880
30
0.0000000000
10
303.5111590884
20
213.6059834140
30
0.0000000000
10
303.5450610242
20
213.5544748595
30
0.0000000000
10
303.5789625267
20
213.5029660198
30
0.0000000000
11
303.4772588537
21
213.6574930880
31
0.0000000000
11
303.5789625267
21
213.5029660198
31
0.0000000000
0
SPLINE
5
512
100
AcDbEntity
8
0
100
AcDbSpline
6
CONTINUOUS
70
0
71
3
72
10
73
6
74
4
42
0.0000001000
43
0.0000001000
44
0.0000000001
40
0.0000000000
40
0.0000000000
40
0.0000000000
40
0.0000000000
40
0.2534960128
40
0.5874139034
40
1.0000000000
40
1.0000000000
40
1.0000000000
40
1.0000000000
10
303.5789625267
20
213.5029660198
30
0.0000000000
10
303.6782397389
20
213.3521274542
30
0.0000000000
10
303.9082813515
20
213.0025909621
30
0.0000000000
10
304.2999410342
20
212.4075757358
30
0.0000000000
10
304.5922355292
20
211.9633411752
30
0.0000000000
10
304.7538198976
20
211.7178402614
30
0.0000000000
11
303.5789625267
21
213.5029660198
31
0.0000000000
11
303.8767913357
21
213.0504484632
31
0.0000000000
11
304.2691136588
21
212.4543738473
31
0.0000000000
11
304.7538198976
21
211.7178402614
31
0.0000000000
0
SPLINE
5
513
100
AcDbEntity
8
0
100
AcDbSpline
6
CONTINUOUS
70
0
71
3
72
10
73
6
74
4
42
0.0000001000
43
0.0000001000
44
0.0000000001
40
0.0000000000
40
0.0000000000
40
0.0000000000
40
0.0000000000
40
0.4119894461
40
0.7462559456
40
1.0000000000
40
1.0000000000
40
1.0000000000
40
1.0000000000
10
314.5969354976
20
211.7179858150
30
0.0000000000
10
314.7582595344
20
211.9630883134
30
0.0000000000
10
315.0504968253
20
212.4070386171
30
0.0000000000
10
315.4420579469
20
213.0019708015
30
0.0000000000
10
315.6722999246
20
213.3517972656
30
0.0000000000
10
315.7716559770
20
213.5027579378
30
0.0000000000
11
314.5969354976
21
211.7179858150
31
0.0000000000
11
315.0809235936
21
212.4532827883
31
0.0000000000
11
315.4735873753
21
213.0498762153
31
0.0000000000
11
315.7716559770
21
213.5027579378
31
0.0000000000
0
SPLINE
5
514
100
AcDbEntity
8
0
100
AcDbSpline
6
CONTINUOUS
70
0
71
3
72
8
73
4
74
2
42
0.0000001000
43
0.0000001000
44
0.0000000001
40
0.0000000000
40
0.0000000000
40
0.0000000000
40
0.0000000000
40
1.0000000000
40
1.0000000000
40
1.0000000000
40
1.0000000000
10
315.7716559770
20
213.5027579378
30
0.0000000000
10
315.8096952107
20
213.5605543997
30
0.0000000000
10
315.8477344131
20
213.6183508823
30
0.0000000000
10
315.8857708563
20
213.6761491806
30
0.0000000000
11
315.7716559770
21
213.5027579378
31
0.0000000000
11
315.8857708563
21
213.6761491806
31
0.0000000000
0
SPLINE
5
515
100
AcDbEntity
8
0
100
AcDbSpline
6
CONTINUOUS
70
0
71
3
72
8
73
4
74
2
42
0.0000001000
43
0.0000001000
44
0.0000000001
40
0.0000000000
40
0.0000000000
40
0.0000000000
40
0.0000000000
40
1.0000000000
40
1.0000000000
40
1.0000000000
40
1.0000000000
10
315.8857708563
20
213.6761491806
30
0.0000000000
10
315.8879646032
20
213.6794826899
30
0.0000000000
10
315.8901583409
20
213.6828162052
30
0.0000000000
10
315.8923520689
20
213.6861497270
30
0.0000000000
11
315.8857708563
21
213.6761491806
31
0.0000000000
11
315.8923520689
21
213.6861497270
31
0.0000000000
0
SPLINE
5
516
100
AcDbEntity
8
0
100
AcDbSpline
6
CONTINUOUS
70
0
71
3
72
8
73
4
74
2
42
0.0000001000
43
0.0000001000
44
0.0000000001
40
0.0000000000
40
0.0000000000
40
0.0000000000
40
0.0000000000
40
1.0000000000
40
1.0000000000
40
1.0000000000
40
1.0000000000
10
315.8923520689
20
213.6861497270
30
0.0000000000
10
315.9205009721
20
213.7289239359
30
0.0000000000
10
315.9486482779
20
213.7716991959
30
0.0000000000
10
315.9767928807
20
213.8144762346
30
0.0000000000
11
315.8923520689
21
213.6861497270
31
0.0000000000
11
315.9767928807
21
213.8144762346
31
0.0000000000
0
SPLINE
5
517
100
AcDbEntity
8
0
100
AcDbSpline
62
7
6
CONTINUOUS
70
0
71
3
72
9
73
5
74
3
42
0.0000001000
43
0.0000001000
44
0.0000000001
40
0.0000000000
40
0.0000000000
40
0.0000000000
40
0.0000000000
40
0.6643059567
40
1.0000000000
40
1.0000000000
40
1.0000000000
40
1.0000000000
10
315.7849376084
20
213.7567685294
30
0.0000000000
10
315.8022286265
20
213.7710495008
30
0.0000000000
10
315.8313340307
20
213.7890734881
30
0.0000000000
10
315.8631044658
20
213.8009625223
30
0.0000000000
10
315.8739817479
20
213.8042471726
30
0.0000000000
11
315.7849376084
21
213.7567685294
31
0.0000000000
11
315.8420744978
21
213.7922890155
31
0.0000000000
11
315.8739817479
21
213.8042471726
31
0.0000000000
0
SPLINE
5
518
100
AcDbEntity
8
0
100
AcDbSpline
62
7
6
CONTINUOUS
70
0
71
3
72
9
73
5
74
3
42
0.0000001000
43
0.0000001000
44
0.0000000001
40
0.0000000000
40
0.0000000000
40
0.0000000000
40
0.0000000000
40
0.3303910715
40
1.0000000000
40
1.0000000000
40
1.0000000000
40
1.0000000000
10
315.8739817479
20
213.8042471726
30
0.0000000000
10
315.8849532795
20
213.8075602837
30
0.0000000000
10
315.9188142429
20
213.8154127606
30
0.0000000000
10
315.9538233447
20
213.8165392694
30
0.0000000000
10
315.9769067419
20
213.8145745865
30
0.0000000000
11
315.8739817479
21
213.8042471726
31
0.0000000000
11
315.9074533282
21
213.8120148653
31
0.0000000000
11
315.9769067419
21
213.8145745865
31
0.0000000000
0
SPLINE
5
519
100
AcDbEntity
8
0
100
AcDbSpline
62
7
6
CONTINUOUS
70
0
71
3
72
11
73
7
74
5
42
0.0000001000
43
0.0000001000
44
0.0000000001
40
0.0000000000
40
0.0000000000
40
0.0000000000
40
0.0000000000
40
0.2503276295
40
0.5239716033
40
0.8309825710
40
1.0000000000
40
1.0000000000
40
1.0000000000
40
1.0000000000
10
327.2302524217
20
194.3812747372
30
0.0000000000
10
327.2331227029
20
194.2989681982
30
0.0000000000
10
327.2390815913
20
194.1266869917
30
0.0000000000
10
327.2474814072
20
193.8534256453
30
0.0000000000
10
327.2535175052
20
193.6068589810
30
0.0000000000
10
327.2564598117
20
193.4502746743
30
0.0000000000
10
327.2573951081
20
193.3946764400
30
0.0000000000
11
327.2302524217
21
194.3812747372
31
0.0000000000
11
327.2386652287
21
194.1343482935
31
0.0000000000
11
327.2468788997
21
193.8643906122
31
0.0000000000
11
327.2542581736
21
193.5614651369
31
0.0000000000
11
327.2573951081
21
193.3946764400
31
0.0000000000
0
SPLINE
5
51A
100
AcDbEntity
8
0
100
AcDbSpline
62
7
6
CONTINUOUS
70
0
71
3
72
8
73
4
74
2
42
0.0000001000
43
0.0000001000
44
0.0000000001
40
0.0000000000
40
0.0000000000
40
0.0000000000
40
0.0000000000
40
1.0000000000
40
1.0000000000
40
1.0000000000
40
1.0000000000
10
327.2573951081
20
193.3946764400
30
0.0000000000
10
327.2583876485
20
193.3356753665
30
0.0000000000
10
327.2592569972
20
193.2766722552
30
0.0000000000
10
327.2600065853
20
193.2176677959
30
0.0000000000
11
327.2573951081
21
193.3946764400
31
0.0000000000
11
327.2600065853
21
193.2176677959
31
0.0000000000
0
SPLINE
5
51B
100
AcDbEntity
8
0
100
AcDbSpline
6
CONTINUOUS
70
0
71
3
72
15
73
11
74
9
42
0.0000001000
43
0.0000001000
44
0.0000000001
40
0.0000000000
40
0.0000000000
40
0.0000000000
40
0.0000000000
40
0.1069391298
40
0.2272542756
40
0.3570022564
40
0.4920536438
40
0.6285040979
40
0.7620010705
40
0.8874831506
40
1.0000000000
40
1.0000000000
40
1.0000000000
40
1.0000000000
10
327.2302521596
20
194.3812747372
30
0.0000000000
10
327.2302515909
20
194.3264193275
30
0.0000000000
10
327.2204091590
20
194.2096241007
30
0.0000000000
10
327.1725063578
20
194.0317693071
30
0.0000000000
10
327.0842175326
20
193.8534944736
30
0.0000000000
10
326.9557392203
20
193.6907083205
30
0.0000000000
10
326.7941953531
20
193.5575569849
30
0.0000000000
10
326.6127040254
20
193.4636580328
30
0.0000000000
10
326.4281272273
20
193.4116762341
30
0.0000000000
10
326.3057865685
20
193.4008850724
30
0.0000000000
10
326.2480700163
20
193.4008847372
30
0.0000000000
11
327.2302521596
21
194.3812747372
31
0.0000000000
11
327.2164156592
21
194.2172912167
31
0.0000000000
11
327.1682684591
21
194.0385106993
31
0.0000000000
11
327.0796517549
21
193.8595869879
31
0.0000000000
11
326.9509016780
21
193.6964437714
31
0.0000000000
11
326.7888722420
21
193.5628837066
31
0.0000000000
11
326.6064190828
21
193.4684666082
31
0.0000000000
11
326.4205481322
21
193.4161196687
31
0.0000000000
11
326.2480700163
21
193.4008847372
31
0.0000000000
0
SPLINE
5
51C
100
AcDbEntity
8
0
100
AcDbSpline
6
CONTINUOUS
70
0
71
3
72
10
73
6
74
4
42
0.0000001000
43
0.0000001000
44
0.0000000001
40
0.0000000000
40
0.0000000000
40
0.0000000000
40
0.0000000000
40
0.3563133693
40
0.6927982924
40
1.0000000000
40
1.0000000000
40
1.0000000000
40
1.0000000000
10
327.1011773468
20
192.6155509524
30
0.0000000000
10
327.0068625069
20
192.5700417478
30
0.0000000000
10
326.8160088892
20
192.4961330823
30
0.0000000000
10
326.5277947635
20
192.4335951364
30
0.0000000000
10
326.3383565725
20
192.4204955399
30
0.0000000000
10
326.2480700163
20
192.4204947372
30
0.0000000000
11
327.1011773468
21
192.6155509524
31
0.0000000000
11
326.8082133123
21
192.5021072881
31
0.0000000000
11
326.5182841121
21
192.4391843715
31
0.0000000000
11
326.2480700163
21
192.4204947372
31
0.0000000000
0
SPLINE
5
51D
100
AcDbEntity
8
0
100
AcDbSpline
6
CONTINUOUS
70
0
71
3
72
11
73
7
74
5
42
0.0000001000
43
0.0000001000
44
0.0000000001
40
0.0000000000
40
0.0000000000
40
0.0000000000
40
0.0000000000
40
0.2659573745
40
0.5273328180
40
0.7745483428
40
1.0000000000
40
1.0000000000
40
1.0000000000
40
1.0000000000
10
315.9767928807
20
213.8144762346
30
0.0000000000
10
316.0197937084
20
213.8517644325
30
0.0000000000
10
316.1119625725
20
213.9181724468
30
0.0000000000
10
316.2628608841
20
213.9889896155
30
0.0000000000
10
316.4156380904
20
214.0289558553
30
0.0000000000
10
316.5169787071
20
214.0373698101
30
0.0000000000
10
316.5652268142
20
214.0373758221
30
0.0000000000
11
315.9767928807
21
213.8144762346
31
0.0000000000
11
316.1154511879
21
213.9141216153
31
0.0000000000
11
316.2674074447
21
213.9853164029
31
0.0000000000
11
316.4209785879
21
214.0254025600
31
0.0000000000
11
316.5652268142
21
214.0373758221
31
0.0000000000
0
SPLINE
5
51E
100
AcDbEntity
8
0
100
AcDbSpline
6
CONTINUOUS
70
0
71
3
72
14
73
10
74
8
42
0.0000001000
43
0.0000001000
44
0.0000000001
40
0.0000000000
40
0.0000000000
40
0.0000000000
40
0.0000000000
40
0.1980945026
40
0.3957041992
40
0.5777214393
40
0.7319349874
40
0.8525569675
40
0.9404050125
40
1.0000000000
40
1.0000000000
40
1.0000000000
40
1.0000000000
10
301.8614771069
20
209.1354258357
30
0.0000000000
10
301.9065710965
20
209.4425267372
30
0.0000000000
10
301.9966387575
20
210.0559784196
30
0.0000000000
10
302.1281374230
20
210.9516072967
30
0.0000000000
10
302.2496644146
20
211.7792060920
30
0.0000000000
10
302.3536353375
20
212.4874572861
30
0.0000000000
10
302.4362294570
20
213.0497115680
30
0.0000000000
10
302.4971492839
20
213.4653010087
30
0.0000000000
10
302.5308783407
20
213.6938539015
30
0.0000000000
10
302.5444716609
20
213.7862385080
30
0.0000000000
11
301.8614771069
21
209.1354258357
31
0.0000000000
11
301.9967493469
21
210.0567299686
31
0.0000000000
11
302.1316896637
21
210.9757794775
31
0.0000000000
11
302.2559873453
21
211.8223103746
31
0.0000000000
11
302.3612930885
21
212.5395318257
31
0.0000000000
11
302.4436600799
21
213.1005245833
31
0.0000000000
11
302.5036486372
21
213.5090910281
31
0.0000000000
11
302.5444716609
21
213.7862385080
31
0.0000000000
0
SPLINE
5
51F
100
AcDbEntity
8
0
100
AcDbSpline
6
CONTINUOUS
70
0
71
3
72
12
73
8
74
6
42
0.0000001000
43
0.0000001000
44
0.0000000001
40
0.0000000000
40
0.0000000000
40
0.0000000000
40
0.0000000000
40
0.2229636792
40
0.4457176243
40
0.6523358039
40
0.8371667576
40
1.0000000000
40
1.0000000000
40
1.0000000000
40
1.0000000000
10
302.5444716609
20
213.7862385080
30
0.0000000000
10
302.5484070445
20
213.8140345179
30
0.0000000000
10
302.5628252684
20
213.8688982858
30
0.0000000000
10
302.6027377223
20
213.9417275279
30
0.0000000000
10
302.6579543500
20
213.9975239547
30
0.0000000000
10
302.7208664268
20
214.0303439433
30
0.0000000000
10
302.7649176667
20
214.0373675149
30
0.0000000000
10
302.7854201025
20
214.0373758159
30
0.0000000000
11
302.5444716609
21
213.7862385080
31
0.0000000000
11
302.5660482081
21
213.8676473608
31
0.0000000000
11
302.6070434320
21
213.9411252652
31
0.0000000000
11
302.6624870499
21
213.9960534359
31
0.0000000000
11
302.7246607135
21
214.0278132788
31
0.0000000000
11
302.7854201025
21
214.0373758159
31
0.0000000000
0
SPLINE
5
520
100
AcDbEntity
8
0
100
AcDbSpline
6
CONTINUOUS
70
0
71
3
72
11
73
7
74
5
42
0.0000001000
43
0.0000001000
44
0.0000000001
40
0.0000000000
40
0.0000000000
40
0.0000000000
40
0.0000000000
40
0.2443897401
40
0.4917434669
40
0.7438257623
40
1.0000000000
40
1.0000000000
40
1.0000000000
40
1.0000000000
10
301.5798963234
20
213.0322816815
30
0.0000000000
10
301.5992946875
20
213.1383404993
30
0.0000000000
10
301.6790974524
20
213.3463711665
30
0.0000000000
10
301.9036476361
20
213.5950719080
30
0.0000000000
10
302.2043118172
20
213.7534883699
30
0.0000000000
10
302.4310823639
20
213.7865950844
30
0.0000000000
10
302.5440792402
20
213.7844503134
30
0.0000000000
11
301.5798963234
21
213.0322816815
31
0.0000000000
11
301.6955720375
21
213.3343446773
31
0.0000000000
11
301.9139836107
21
213.5782144286
31
0.0000000000
11
302.2087179110
21
213.7345621814
31
0.0000000000
11
302.5440792402
21
213.7844503134
31
0.0000000000
0
SPLINE
5
521
100
AcDbEntity
8
0
100
AcDbSpline
6
CONTINUOUS
70
0
71
3
72
10
73
6
74
4
42
0.0000001000
43
0.0000001000
44
0.0000000001
40
0.0000000000
40
0.0000000000
40
0.0000000000
40
0.0000000000
40
0.3070898534
40
0.6435878100
40
1.0000000000
40
1.0000000000
40
1.0000000000
40
1.0000000000
10
293.1026853790
20
192.4204947372
30
0.0000000000
10
293.0124317254
20
192.4204954720
30
0.0000000000
10
292.8230229250
20
192.4335885856
30
0.0000000000
10
292.5348058022
20
192.4961125538
30
0.0000000000
10
292.3439190716
20
192.5700287686
30
0.0000000000
10
292.2495780825
20
192.6155505355
30
0.0000000000
11
293.1026853790
21
192.4204947372
31
0.0000000000
11
292.8325692949
21
192.4391708992
31
0.0000000000
11
292.5426259367
21
192.5020823176
31
0.0000000000
11
292.2495780825
21
192.6155505355
31
0.0000000000
0
SPLINE
5
522
100
AcDbEntity
8
0
100
AcDbSpline
6
CONTINUOUS
70
0
71
3
72
15
73
11
74
9
42
0.0000001000
43
0.0000001000
44
0.0000000001
40
0.0000000000
40
0.0000000000
40
0.0000000000
40
0.0000000000
40
0.1124634776
40
0.2379435798
40
0.3714711204
40
0.5079662900
40
0.6430583824
40
0.7728263123
40
0.8931263504
40
1.0000000000
40
1.0000000000
40
1.0000000000
40
1.0000000000
10
293.1026853790
20
193.4008847372
30
0.0000000000
10
293.0449962183
20
193.4008850442
30
0.0000000000
10
292.9226843535
20
193.4116685443
30
0.0000000000
10
292.7381154208
20
193.4636310292
30
0.0000000000
10
292.5565839510
20
193.5575362260
30
0.0000000000
10
292.3949925061
20
193.6907257131
30
0.0000000000
10
292.2664902420
20
193.8535635040
30
0.0000000000
10
292.1782106904
20
194.0318696031
30
0.0000000000
10
292.1303366433
20
194.2096994856
30
0.0000000000
10
292.1205038032
20
194.3264529294
30
0.0000000000
10
292.1205032283
20
194.3812747372
30
0.0000000000
11
293.1026853790
21
193.4008847372
31
0.0000000000
11
292.9302884806
21
193.4161052111
31
0.0000000000
11
292.7444160325
21
193.4684354299
31
0.0000000000
11
292.5619151853
21
193.5628626180
31
0.0000000000
11
292.3998321781
21
193.6964657968
31
0.0000000000
11
292.2710536916
21
193.8596663251
31
0.0000000000
11
292.1824433239
21
194.0386273777
31
0.0000000000
11
292.1343227902
21
194.2173909516
31
0.0000000000
11
292.1205032283
21
194.3812747372
31
0.0000000000
0
SPLINE
5
523
100
AcDbEntity
8
0
100
AcDbSpline
62
7
6
CONTINUOUS
70
0
71
3
72
8
73
4
74
2
42
0.0000001000
43
0.0000001000
44
0.0000000001
40
0.0000000000
40
0.0000000000
40
0.0000000000
40
0.0000000000
40
1.0000000000
40
1.0000000000
40
1.0000000000
40
1.0000000000
10
292.0908029339
20
193.2218594963
30
0.0000000000
10
292.0917869710
20
193.2992051556
30
0.0000000000
10
292.0929842793
20
193.3765484943
30
0.0000000000
10
292.0943955588
20
193.4538880061
30
0.0000000000
11
292.0908029339
21
193.2218594963
31
0.0000000000
11
292.0943955588
21
193.4538880061
31
0.0000000000
0
SPLINE
5
524
100
AcDbEntity
8
0
100
AcDbSpline
62
7
6
CONTINUOUS
70
0
71
3
72
10
73
6
74
4
42
0.0000001000
43
0.0000001000
44
0.0000000001
40
0.0000000000
40
0.0000000000
40
0.0000000000
40
0.0000000000
40
0.2319465896
40
0.6413288112
40
1.0000000000
40
1.0000000000
40
1.0000000000
40
1.0000000000
10
292.0943955588
20
193.4538880061
30
0.0000000000
10
292.0957042770
20
193.5256070521
30
0.0000000000
10
292.0998316244
20
193.7239000301
30
0.0000000000
10
292.1084673385
20
194.0330372935
30
0.0000000000
10
292.1166372490
20
194.2704214028
30
0.0000000000
10
292.1205029737
20
194.3812747372
30
0.0000000000
11
292.0943955588
21
193.4538880061
31
0.0000000000
11
292.0988742761
21
193.6690340701
31
0.0000000000
11
292.1093419928
21
194.0486998094
31
0.0000000000
11
292.1205029737
21
194.3812747372
31
0.0000000000
0
SPLINE
5
525
100
AcDbEntity
8
0
100
AcDbSpline
62
7
6
CONTINUOUS
70
0
71
3
72
13
73
9
74
7
42
0.0000001000
43
0.0000001000
44
0.0000000001
40
0.0000000000
40
0.0000000000
40
0.0000000000
40
0.0000000000
40
0.0793040248
40
0.2243100568
40
0.4053590171
40
0.6041824346
40
0.8071215467
40
1.0000000000
40
1.0000000000
40
1.0000000000
40
1.0000000000
10
303.6669995048
20
210.6263370372
30
0.0000000000
10
303.6502897906
20
210.6263370372
30
0.0000000000
10
303.6143287910
20
210.6673257338
30
0.0000000000
10
303.5517894288
20
210.7187354451
30
0.0000000000
10
303.4710071474
20
210.7969235647
30
0.0000000000
10
303.3795463928
20
210.8780552837
30
0.0000000000
10
303.2837707313
20
210.9591068436
30
0.0000000000
10
303.2179181968
20
211.0102903539
30
0.0000000000
10
303.1851958976
20
211.0343920075
30
0.0000000000
11
303.6669995048
21
210.6263370372
31
0.0000000000
11
303.6250312822
21
210.6537523473
31
0.0000000000
11
303.5573743501
21
210.7155920112
31
0.0000000000
11
303.4734818523
21
210.7934339060
31
0.0000000000
11
303.3797854695
21
210.8771966015
31
0.0000000000
11
303.2815982072
21
210.9597505858
31
0.0000000000
11
303.1851958976
21
211.0343920075
31
0.0000000000
0
SPLINE
5
526
100
AcDbEntity
8
0
100
AcDbSpline
6
CONTINUOUS
70
0
71
3
72
9
73
5
74
3
42
0.0000001000
43
0.0000001000
44
0.0000000001
40
0.0000000000
40
0.0000000000
40
0.0000000000
40
0.0000000000
40
0.4238665985
40
1.0000000000
40
1.0000000000
40
1.0000000000
40
1.0000000000
10
314.3028184976
20
211.5939233813
30
0.0000000000
10
314.3028029368
20
211.5997069031
30
0.0000000000
10
314.3054443881
20
211.6134375720
30
0.0000000000
10
314.3124810214
20
211.6252952413
30
0.0000000000
10
314.3165893775
20
211.6319974485
30
0.0000000000
11
314.3028184976
21
211.5939233813
31
0.0000000000
11
314.3058318339
21
211.6110103384
31
0.0000000000
11
314.3165893775
21
211.6319974485
31
0.0000000000
0
SPLINE
5
527
100
AcDbEntity
8
0
100
AcDbSpline
62
7
6
CONTINUOUS
70
0
71
3
72
13
73
9
74
7
42
0.0000001000
43
0.0000001000
44
0.0000000001
40
0.0000000000
40
0.0000000000
40
0.0000000000
40
0.0000000000
40
0.1928784533
40
0.3958175654
40
0.5946409829
40
0.7756899432
40
0.9206959752
40
1.0000000000
40
1.0000000000
40
1.0000000000
40
1.0000000000
10
316.1655594976
20
211.0343920075
30
0.0000000000
10
316.1328371985
20
211.0102903539
30
0.0000000000
10
316.0669846640
20
210.9591068436
30
0.0000000000
10
315.9712090025
20
210.8780552837
30
0.0000000000
10
315.8797482479
20
210.7969235647
30
0.0000000000
10
315.7989659665
20
210.7187354451
30
0.0000000000
10
315.7364266043
20
210.6673257338
30
0.0000000000
10
315.7004656047
20
210.6263370372
30
0.0000000000
10
315.6837558905
20
210.6263370372
30
0.0000000000
11
316.1655594976
21
211.0343920075
31
0.0000000000
11
316.0691571881
21
210.9597505858
31
0.0000000000
11
315.9709699258
21
210.8771966015
31
0.0000000000
11
315.8772735430
21
210.7934339060
31
0.0000000000
11
315.7933810452
21
210.7155920112
31
0.0000000000
11
315.7257241131
21
210.6537523473
31
0.0000000000
11
315.6837558905
21
210.6263370372
31
0.0000000000
0
SPLINE
5
528
100
AcDbEntity
8
0
100
AcDbSpline
62
7
6
CONTINUOUS
70
0
71
3
72
11
73
7
74
5
42
0.0000001000
43
0.0000001000
44
0.0000000001
40
0.0000000000
40
0.0000000000
40
0.0000000000
40
0.0000000000
40
0.2554095685
40
0.5150452118
40
0.7810121160
40
1.0000000000
40
1.0000000000
40
1.0000000000
40
1.0000000000
10
176.8437225594
20
84.4165057024
30
0.0000000000
10
176.8827663797
20
84.4165057024
30
0.0000000000
10
176.9623926777
20
84.4004164128
30
0.0000000000
10
177.0632144750
20
84.3305948066
30
0.0000000000
10
177.1248654549
20
84.2310708284
30
0.0000000000
10
177.1377762654
20
84.1560140333
30
0.0000000000
10
177.1378197409
20
84.1223886790
30
0.0000000000
11
176.8437225594
21
84.4165057024
31
0.0000000000
11
176.9585083828
21
84.3931820266
31
0.0000000000
11
177.0564599381
21
84.3254837968
31
0.0000000000
11
177.1205611107
21
84.2217125476
31
0.0000000000
11
177.1378197409
21
84.1223886790
31
0.0000000000
0
SPLINE
5
529
100
AcDbEntity
8
0
100
AcDbSpline
62
7
6
CONTINUOUS
70
0
71
3
72
12
73
8
74
6
42
0.0000001000
43
0.0000001000
44
0.0000000001
40
0.0000000000
40
0.0000000000
40
0.0000000000
40
0.0000000000
40
0.2531663614
40
0.4973379523
40
0.7374798648
40
0.9890333076
40
1.0000000000
40
1.0000000000
40
1.0000000000
40
1.0000000000
10
176.8437225594
20
93.6713873024
30
0.0000000000
10
176.8824641002
20
93.6713873024
30
0.0000000000
10
176.9594374871
20
93.6868389246
30
0.0000000000
10
177.0554164500
20
93.7511417942
30
0.0000000000
10
177.1206375988
20
93.8462597326
30
0.0000000000
10
177.1375271126
20
93.9232911027
30
0.0000000000
10
177.1378364176
20
93.9638113627
30
0.0000000000
10
177.1378345495
20
93.9655042969
30
0.0000000000
11
176.8437225594
21
93.6713873024
31
0.0000000000
11
176.9576559650
21
93.6943512298
31
0.0000000000
11
177.0508305979
21
93.7566716658
31
0.0000000000
11
177.1131718361
21
93.8475979965
31
0.0000000000
11
177.1377957219
21
93.9604264275
31
0.0000000000
11
177.1378345495
21
93.9655042969
31
0.0000000000
0
SPLINE
5
52A
100
AcDbEntity
8
0
100
AcDbSpline
62
7
6
CONTINUOUS
70
0
71
3
72
12
73
8
74
6
42
0.0000001000
43
0.0000001000
44
0.0000000001
40
0.0000000000
40
0.0000000000
40
0.0000000000
40
0.0000000000
40
0.2531663614
40
0.4973379523
40
0.7374798648
40
0.9890333076
40
1.0000000000
40
1.0000000000
40
1.0000000000
40
1.0000000000
10
58.1518170503
20
93.6713873024
30
0.0000000000
10
58.1130755095
20
93.6713873024
30
0.0000000000
10
58.0361021227
20
93.6868389246
30
0.0000000000
10
57.9401231598
20
93.7511417942
30
0.0000000000
10
57.8749020110
20
93.8462597326
30
0.0000000000
10
57.8580124972
20
93.9232911027
30
0.0000000000
10
57.8577031922
20
93.9638113627
30
0.0000000000
10
57.8577050602
20
93.9655042969
30
0.0000000000
11
58.1518170503
21
93.6713873024
31
0.0000000000
11
58.0378836448
21
93.6943512298
31
0.0000000000
11
57.9447090119
21
93.7566716658
31
0.0000000000
11
57.8823677736
21
93.8475979965
31
0.0000000000
11
57.8577438879
21
93.9604264275
31
0.0000000000
11
57.8577050602
21
93.9655042969
31
0.0000000000
0
SPLINE
5
52B
100
AcDbEntity
8
0
100
AcDbSpline
62
7
6
CONTINUOUS
70
0
71
3
72
11
73
7
74
5
42
0.0000001000
43
0.0000001000
44
0.0000000001
40
0.0000000000
40
0.0000000000
40
0.0000000000
40
0.0000000000
40
0.2554095685
40
0.5150452118
40
0.7810121160
40
1.0000000000
40
1.0000000000
40
1.0000000000
40
1.0000000000
10
58.1518170503
20
84.4165057024
30
0.0000000000
10
58.1127732301
20
84.4165057024
30
0.0000000000
10
58.0331469321
20
84.4004164128
30
0.0000000000
10
57.9323251348
20
84.3305948066
30
0.0000000000
10
57.8706741549
20
84.2310708284
30
0.0000000000
10
57.8577633444
20
84.1560140333
30
0.0000000000
10
57.8577198688
20
84.1223886790
30
0.0000000000
11
58.1518170503
21
84.4165057024
31
0.0000000000
11
58.0370312270
21
84.3931820266
31
0.0000000000
11
57.9390796716
21
84.3254837968
31
0.0000000000
11
57.8749784991
21
84.2217125476
31
0.0000000000
11
57.8577198688
21
84.1223886790
31
0.0000000000
0
SPLINE
5
52C
100
AcDbEntity
8
0
100
AcDbSpline
62
7
6
CONTINUOUS
70
0
71
3
72
11
73
7
74
5
42
0.0000001000
43
0.0000001000
44
0.0000000001
40
0.0000000000
40
0.0000000000
40
0.0000000000
40
0.0000000000
40
0.0764036467
40
0.2929625851
40
0.6168418367
40
1.0000000000
40
1.0000000000
40
1.0000000000
40
1.0000000000
10
171.6105615109
20
84.4165057024
30
0.0000000000
10
171.6030702415
20
84.4165057024
30
0.0000000000
10
171.6184980937
20
84.3701808463
30
0.0000000000
10
171.6033274139
20
84.3255928828
30
0.0000000000
10
171.6101974027
20
84.2269920745
30
0.0000000000
10
171.6079947907
20
84.1599568177
30
0.0000000000
10
171.6079947907
20
84.1223887024
30
0.0000000000
11
171.6105615109
21
84.4165057024
31
0.0000000000
11
171.6095779233
21
84.3940534284
31
0.0000000000
11
171.6087465494
21
84.3303589623
31
0.0000000000
11
171.6081907150
21
84.2350928780
31
0.0000000000
11
171.6079947907
21
84.1223887024
31
0.0000000000
0
SPLINE
5
52D
100
AcDbEntity
8
0
100
AcDbSpline
62
7
6
CONTINUOUS
70
0
71
3
72
11
73
7
74
5
42
0.0000001000
43
0.0000001000
44
0.0000000001
40
0.0000000000
40
0.0000000000
40
0.0000000000
40
0.0000000000
40
0.3831581633
40
0.7070374149
40
0.9235963533
40
1.0000000000
40
1.0000000000
40
1.0000000000
40
1.0000000000
10
171.6079947907
20
93.9655043024
30
0.0000000000
10
171.6079947907
20
93.9279361871
30
0.0000000000
10
171.6101974027
20
93.8609009303
30
0.0000000000
10
171.6033274139
20
93.7623001219
30
0.0000000000
10
171.6184980937
20
93.7177121584
30
0.0000000000
10
171.6030702415
20
93.6713873024
30
0.0000000000
10
171.6105615109
20
93.6713873024
30
0.0000000000
11
171.6079947907
21
93.9655043024
31
0.0000000000
11
171.6081907150
21
93.8528001268
31
0.0000000000
11
171.6087465494
21
93.7575340424
31
0.0000000000
11
171.6095779233
21
93.6938395763
31
0.0000000000
11
171.6105615109
21
93.6713873024
31
0.0000000000
0
SPLINE
5
52E
100
AcDbEntity
8
0
100
AcDbSpline
62
7
6
CONTINUOUS
70
0
71
3
72
11
73
7
74
5
42
0.0000001000
43
0.0000001000
44
0.0000000001
40
0.0000000000
40
0.0000000000
40
0.0000000000
40
0.0000000000
40
0.3831581633
40
0.7070374149
40
0.9235963533
40
1.0000000000
40
1.0000000000
40
1.0000000000
40
1.0000000000
10
63.3875448191
20
84.1223887024
30
0.0000000000
10
63.3875448191
20
84.1599568177
30
0.0000000000
10
63.3853422071
20
84.2269920745
30
0.0000000000
10
63.3922121958
20
84.3255928828
30
0.0000000000
10
63.3770415161
20
84.3701808463
30
0.0000000000
10
63.3924693683
20
84.4165057024
30
0.0000000000
10
63.3849780989
20
84.4165057024
30
0.0000000000
11
63.3875448191
21
84.1223887024
31
0.0000000000
11
63.3873488948
21
84.2350928780
31
0.0000000000
11
63.3867930604
21
84.3303589623
31
0.0000000000
11
63.3859616864
21
84.3940534284
31
0.0000000000
11
63.3849780989
21
84.4165057024
31
0.0000000000
0
SPLINE
5
52F
100
AcDbEntity
8
0
100
AcDbSpline
62
7
6
CONTINUOUS
70
0
71
3
72
14
73
10
74
8
42
0.0000001000
43
0.0000001000
44
0.0000000001
40
0.0000000000
40
0.0000000000
40
0.0000000000
40
0.0000000000
40
0.1536403092
40
0.3309000621
40
0.5119325193
40
0.6859509103
40
0.8316510025
40
0.9405468245
40
1.0000000000
40
1.0000000000
40
1.0000000000
40
1.0000000000
10
63.3604273166
20
82.9615104942
30
0.0000000000
10
63.3596392264
20
82.8584237251
30
0.0000000000
10
63.3584760371
20
82.6363983268
30
0.0000000000
10
63.3576949506
20
82.2929019841
30
0.0000000000
10
63.3577805194
20
81.9357301231
30
0.0000000000
10
63.3588048707
20
81.5997399098
30
0.0000000000
10
63.3603900459
20
81.3121426396
30
0.0000000000
10
63.3629948099
20
81.1014551283
30
0.0000000000
10
63.3646465284
20
80.9884807638
30
0.0000000000
10
63.3665412096
20
80.9486338117
30
0.0000000000
11
63.3604273166
21
82.9615104942
31
0.0000000000
11
63.3587009871
21
82.6522459680
31
0.0000000000
11
63.3578486082
21
82.2954330235
31
0.0000000000
11
63.3579556297
21
81.9310248337
31
0.0000000000
11
63.3590193403
21
81.5807371662
31
0.0000000000
11
63.3609093617
21
81.2874571243
31
0.0000000000
11
63.3635117596
21
81.0682713773
31
0.0000000000
11
63.3665412096
21
80.9486338117
31
0.0000000000
0
SPLINE
5
530
100
AcDbEntity
8
0
100
AcDbSpline
6
CONTINUOUS
70
0
71
3
72
14
73
10
74
8
42
0.0000001000
43
0.0000001000
44
0.0000000001
40
0.0000000000
40
0.0000000000
40
0.0000000000
40
0.0000000000
40
0.0456302041
40
0.1313047989
40
0.2619983759
40
0.4281932798
40
0.6147563034
40
0.8079239815
40
1.0000000000
40
1.0000000000
40
1.0000000000
40
1.0000000000
10
177.4976378049
20
81.2300459116
30
0.0000000000
10
177.4976120793
20
81.2831916355
30
0.0000000000
10
177.3772554182
20
81.4131559200
30
0.0000000000
10
177.0984221567
20
81.5199502938
30
0.0000000000
10
176.6651071384
20
81.6404506325
30
0.0000000000
10
176.1109882282
20
81.7363435852
30
0.0000000000
10
175.4796850288
20
81.8162717988
30
0.0000000000
10
174.8162477092
20
81.8747359890
30
0.0000000000
10
174.3683148016
20
81.9020585622
30
0.0000000000
10
174.1448720554
20
81.9130293918
30
0.0000000000
11
177.4976378049
21
81.2300459116
31
0.0000000000
11
177.4116198553
21
81.3642887140
31
0.0000000000
11
177.1440131970
21
81.4984573884
31
0.0000000000
11
176.7045409229
21
81.6225582700
31
0.0000000000
11
176.1335335595
21
81.7282365171
31
0.0000000000
11
175.4869690620
21
81.8112567943
31
0.0000000000
11
174.8147410415
21
81.8718138493
31
0.0000000000
11
174.1448720554
21
81.9130293918
31
0.0000000000
0
SPLINE
5
531
100
AcDbEntity
8
0
100
AcDbSpline
62
7
6
CONTINUOUS
70
0
71
3
72
14
73
10
74
8
42
0.0000001000
43
0.0000001000
44
0.0000000001
40
0.0000000000
40
0.0000000000
40
0.0000000000
40
0.0000000000
40
0.0598808134
40
0.1689939450
40
0.3147501108
40
0.4886682291
40
0.6695064917
40
0.8465479989
40
1.0000000000
40
1.0000000000
40
1.0000000000
40
1.0000000000
10
171.6290311433
20
80.9493284714
30
0.0000000000
10
171.6309059703
20
80.9894497210
30
0.0000000000
10
171.6325743588
20
81.1028161616
30
0.0000000000
10
171.6351580576
20
81.3139023484
30
0.0000000000
10
171.6367439688
20
81.6015158992
30
0.0000000000
10
171.6377603956
20
81.9372303513
30
0.0000000000
10
171.6378433782
20
82.2939348804
30
0.0000000000
10
171.6370612191
20
82.6369096316
30
0.0000000000
10
171.6358991455
20
82.8585856372
30
0.0000000000
10
171.6351122932
20
82.9615104942
30
0.0000000000
11
171.6290311433
21
80.9493284714
31
0.0000000000
11
171.6320530126
21
81.0697856637
31
0.0000000000
11
171.6346465835
21
81.2893331055
31
0.0000000000
11
171.6365289692
21
81.5826247244
31
0.0000000000
11
171.6375864976
21
81.9325896392
31
0.0000000000
11
171.6376899348
21
82.2964811887
31
0.0000000000
11
171.6368367351
21
82.6527317152
31
0.0000000000
11
171.6351122932
21
82.9615104942
31
0.0000000000
0
SPLINE
5
532
100
AcDbEntity
8
0
100
AcDbSpline
6
CONTINUOUS
70
0
71
3
72
12
73
8
74
6
42
0.0000001000
43
0.0000001000
44
0.0000000001
40
0.0000000000
40
0.0000000000
40
0.0000000000
40
0.0000000000
40
0.1707398693
40
0.3692179162
40
0.5822944502
40
0.7967906495
40
1.0000000000
40
1.0000000000
40
1.0000000000
40
1.0000000000
10
174.1448720554
20
81.9130293918
30
0.0000000000
10
174.0556515929
20
81.9172384530
30
0.0000000000
10
173.8630457233
20
81.9334610126
30
0.0000000000
10
173.5610551336
20
81.9739299051
30
0.0000000000
10
173.2380932825
20
82.0285735604
30
0.0000000000
10
172.9139338832
20
82.0903425646
30
0.0000000000
10
172.6996571218
20
82.1331769447
30
0.0000000000
10
172.5954192400
20
82.1540416207
30
0.0000000000
11
174.1448720554
21
81.9130293918
31
0.0000000000
11
173.8777554063
21
81.9342604972
31
0.0000000000
11
173.5688894671
21
81.9746175970
31
0.0000000000
11
173.2390349248
21
82.0295795965
31
0.0000000000
11
172.9082344104
21
82.0919569576
31
0.0000000000
11
172.5954192400
21
82.1540416207
31
0.0000000000
0
SPLINE
5
533
100
AcDbEntity
8
0
100
AcDbSpline
6
CONTINUOUS
70
0
71
3
72
11
73
7
74
5
42
0.0000001000
43
0.0000001000
44
0.0000000001
40
0.0000000000
40
0.0000000000
40
0.0000000000
40
0.0000000000
40
0.1532377054
40
0.3830080153
40
0.6750125440
40
1.0000000000
40
1.0000000000
40
1.0000000000
40
1.0000000000
10
173.8353287522
20
80.9484680204
30
0.0000000000
10
173.8823222492
20
80.9730772810
30
0.0000000000
10
173.9674220256
20
81.0847324190
30
0.0000000000
10
174.0536421440
20
81.3004370545
30
0.0000000000
10
174.1203950532
20
81.5877496461
30
0.0000000000
10
174.1437964330
20
81.8003146085
30
0.0000000000
10
174.1501861453
20
81.9126358114
30
0.0000000000
11
173.8353287522
21
80.9484680204
31
0.0000000000
11
173.9446263573
21
81.0641402889
31
0.0000000000
11
174.0407452808
21
81.2825481356
31
0.0000000000
11
174.1121419528
21
81.5772784366
31
0.0000000000
11
174.1501861453
21
81.9126358114
31
0.0000000000
0
SPLINE
5
534
100
AcDbEntity
8
0
100
AcDbSpline
6
CONTINUOUS
70
0
71
3
72
12
73
8
74
6
42
0.0000001000
43
0.0000001000
44
0.0000000001
40
0.0000000000
40
0.0000000000
40
0.0000000000
40
0.0000000000
40
0.1392678169
40
0.3218909049
40
0.5395344178
40
0.7728569643
40
1.0000000000
40
1.0000000000
40
1.0000000000
40
1.0000000000
10
173.8347940626
20
80.9486338216
30
0.0000000000
10
173.7572699194
20
80.9723344481
30
0.0000000000
10
173.5905298442
20
81.0648388541
30
0.0000000000
10
173.3518661902
20
81.2697189476
30
0.0000000000
10
173.0991597192
20
81.5390768776
30
0.0000000000
10
172.8455503369
20
81.8415741227
30
0.0000000000
10
172.6782721141
20
82.0510162517
30
0.0000000000
10
172.5952903040
20
82.1539502377
30
0.0000000000
11
173.8347940626
21
80.9486338216
31
0.0000000000
11
173.6175462838
21
81.0579444564
31
0.0000000000
11
173.3709822078
21
81.2602029140
31
0.0000000000
11
173.1080239259
21
81.5346127505
31
0.0000000000
11
172.8445059536
21
81.8453663165
31
0.0000000000
11
172.5952903040
21
82.1539502377
31
0.0000000000
0
SPLINE
5
535
100
AcDbEntity
8
0
100
AcDbSpline
6
CONTINUOUS
70
0
71
3
72
14
73
10
74
8
42
0.0000001000
43
0.0000001000
44
0.0000000001
40
0.0000000000
40
0.0000000000
40
0.0000000000
40
0.0000000000
40
0.0531082384
40
0.1423907541
40
0.2742230890
40
0.4398728225
40
0.6248018424
40
0.8157373340
40
1.0000000000
40
1.0000000000
40
1.0000000000
40
1.0000000000
10
176.5172478049
20
80.2657622773
30
0.0000000000
10
176.5172053711
20
80.3161965741
30
0.0000000000
10
176.4310373879
20
80.4409958927
30
0.0000000000
10
176.1981424439
20
80.5573726399
30
0.0000000000
10
175.8490063563
20
80.6761094820
30
0.0000000000
10
175.4009744867
20
80.7736755221
30
0.0000000000
10
174.8927027674
20
80.8532612602
30
0.0000000000
10
174.3638038913
20
80.9112568430
30
0.0000000000
10
174.0084390242
20
80.9379587143
30
0.0000000000
10
173.8337800212
20
80.9486399812
30
0.0000000000
11
176.5172478049
21
80.2657622773
31
0.0000000000
11
176.4480923960
21
80.4003360871
31
0.0000000000
11
176.2323537667
21
80.5350831555
31
0.0000000000
11
175.8780131871
21
80.6596075206
31
0.0000000000
11
175.4181067293
21
80.7654497510
31
0.0000000000
11
174.8978277176
21
80.8484270402
31
0.0000000000
11
174.3572221532
21
80.9088022396
31
0.0000000000
11
173.8337800212
21
80.9486399812
31
0.0000000000
0
SPLINE
5
536
100
AcDbEntity
8
0
100
AcDbSpline
62
7
6
CONTINUOUS
70
0
71
3
72
9
73
5
74
3
42
0.0000001000
43
0.0000001000
44
0.0000000001
40
0.0000000000
40
0.0000000000
40
0.0000000000
40
0.0000000000
40
0.5475820434
40
1.0000000000
40
1.0000000000
40
1.0000000000
40
1.0000000000
10
63.3781193475
20
93.7068476078
30
0.0000000000
10
63.3782000473
20
93.7003725888
30
0.0000000000
10
63.3813428033
20
93.6917786655
30
0.0000000000
10
63.3737506777
20
93.6713873024
30
0.0000000000
10
63.3791008210
20
93.6713873024
30
0.0000000000
11
63.3781193475
21
93.7068476078
31
0.0000000000
11
63.3784230685
21
93.6874234164
31
0.0000000000
11
63.3791008210
21
93.6713873024
31
0.0000000000
0
SPLINE
5
537
100
AcDbEntity
8
0
100
AcDbSpline
6
CONTINUOUS
70
0
71
3
72
11
73
7
74
5
42
0.0000001000
43
0.0000001000
44
0.0000000001
40
0.0000000000
40
0.0000000000
40
0.0000000000
40
0.0000000000
40
0.2519072974
40
0.5027021574
40
0.7519139492
40
1.0000000000
40
1.0000000000
40
1.0000000000
40
1.0000000000
10
176.5172478049
20
80.2657622773
30
0.0000000000
10
176.6446771299
20
80.2657622794
30
0.0000000000
10
176.9016936416
20
80.3156570642
30
0.0000000000
10
177.2275160570
20
80.5296413141
30
0.0000000000
10
177.4463191893
20
80.8501731734
30
0.0000000000
10
177.4976378049
20
81.1045495942
30
0.0000000000
10
177.4976378049
20
81.2300459110
30
0.0000000000
11
176.5172478049
21
80.2657622773
31
0.0000000000
11
176.8924231032
21
80.3391624909
31
0.0000000000
11
177.2104848003
21
80.5481910555
31
0.0000000000
11
177.4230088562
21
80.8610276869
31
0.0000000000
11
177.4976378049
21
81.2300459110
31
0.0000000000
0
SPLINE
5
538
100
AcDbEntity
8
0
100
AcDbSpline
6
CONTINUOUS
70
0
71
3
72
12
73
8
74
6
42
0.0000001000
43
0.0000001000
44
0.0000000001
40
0.0000000000
40
0.0000000000
40
0.0000000000
40
0.0000000000
40
0.2621570224
40
0.5023417563
40
0.7087138367
40
0.8748824171
40
1.0000000000
40
1.0000000000
40
1.0000000000
40
1.0000000000
10
62.3999243008
20
82.1540793634
30
0.0000000000
10
62.3041108547
20
82.0353290508
30
0.0000000000
10
62.1222037025
20
81.8063952405
30
0.0000000000
10
61.8548951733
20
81.4921458755
30
0.0000000000
10
61.6069124592
20
81.2350189920
30
0.0000000000
10
61.3826598636
20
81.0508537873
30
0.0000000000
10
61.2307844638
20
80.9695903651
30
0.0000000000
10
61.1610425085
20
80.9486338117
30
0.0000000000
11
62.3999243008
21
82.1540793634
31
0.0000000000
11
62.1121873201
21
81.7980679751
31
0.0000000000
11
61.8385832824
21
81.4802229648
31
0.0000000000
11
61.5853944946
21
81.2238159852
31
0.0000000000
11
61.3574521472
21
81.0442962962
31
0.0000000000
11
61.1610425085
21
80.9486338117
31
0.0000000000
0
SPLINE
5
539
100
AcDbEntity
8
0
100
AcDbSpline
6
CONTINUOUS
70
0
71
3
72
13
73
9
74
7
42
0.0000001000
43
0.0000001000
44
0.0000000001
40
0.0000000000
40
0.0000000000
40
0.0000000000
40
0.0000000000
40
0.1962056472
40
0.3843739358
40
0.5616208036
40
0.7254630383
40
0.8729021005
40
1.0000000000
40
1.0000000000
40
1.0000000000
40
1.0000000000
10
62.4001107461
20
82.1539918679
30
0.0000000000
10
62.2997536739
20
82.1339006249
30
0.0000000000
10
62.1031257936
20
82.0946644981
30
0.0000000000
10
61.8153971120
20
82.0394953586
30
0.0000000000
10
61.5434350441
20
81.9918908807
30
0.0000000000
10
61.2913998652
20
81.9539505843
30
0.0000000000
10
61.0642359789
20
81.9273999416
30
0.0000000000
10
60.9213872841
20
81.9162551012
30
0.0000000000
10
60.8551534882
20
81.9133118006
30
0.0000000000
11
62.4001107461
21
82.1539918679
31
0.0000000000
11
62.0989376565
21
82.0942292538
31
0.0000000000
11
61.8096528845
21
82.0392254271
31
0.0000000000
11
61.5363580653
21
81.9918165634
31
0.0000000000
11
61.2827404501
21
81.9541510834
31
0.0000000000
11
61.0535262898
21
81.9277492599
31
0.0000000000
11
60.8551534882
21
81.9133118006
31
0.0000000000
0
SPLINE
5
53A
100
AcDbEntity
8
0
100
AcDbSpline
6
CONTINUOUS
70
0
71
3
72
14
73
10
74
8
42
0.0000001000
43
0.0000001000
44
0.0000000001
40
0.0000000000
40
0.0000000000
40
0.0000000000
40
0.0000000000
40
0.1888851625
40
0.3776762800
40
0.5605871551
40
0.7253947995
40
0.8573640031
40
0.9469256930
40
1.0000000000
40
1.0000000000
40
1.0000000000
40
1.0000000000
10
61.1586363461
20
80.9486396546
30
0.0000000000
10
60.9797970609
20
80.9376010600
30
0.0000000000
10
60.6224995501
20
80.9103933519
30
0.0000000000
10
60.0937918926
20
80.8519983761
30
0.0000000000
10
59.5908245591
20
80.7728933156
30
0.0000000000
10
59.1458283688
20
80.6758658321
30
0.0000000000
10
58.7974834335
20
80.5573995896
30
0.0000000000
10
58.5644383821
20
80.4410242406
30
0.0000000000
10
58.4783289602
20
80.3161094410
30
0.0000000000
10
58.4782918049
20
80.2657622773
30
0.0000000000
11
61.1586363461
21
80.9486396546
31
0.0000000000
11
60.6226854524
21
80.9073515923
31
0.0000000000
11
60.0887879574
21
80.8472361251
31
0.0000000000
11
59.5747962120
21
80.7649486968
31
0.0000000000
11
59.1177463924
21
80.6596717394
31
0.0000000000
11
58.7634132221
21
80.5351857118
31
0.0000000000
11
58.5472484735
21
80.4001442788
31
0.0000000000
11
58.4782918049
21
80.2657622773
31
0.0000000000
0
SPLINE
5
53B
100
AcDbEntity
8
0
100
AcDbSpline
6
CONTINUOUS
70
0
71
3
72
14
73
10
74
8
42
0.0000001000
43
0.0000001000
44
0.0000000001
40
0.0000000000
40
0.0000000000
40
0.0000000000
40
0.0000000000
40
0.1937161531
40
0.3852177849
40
0.5703785545
40
0.7363921964
40
0.8677840699
40
0.9541496465
40
1.0000000000
40
1.0000000000
40
1.0000000000
40
1.0000000000
10
60.8551534882
20
81.9133118006
30
0.0000000000
10
60.6295204061
20
81.9021614816
30
0.0000000000
10
60.1810437252
20
81.8748969415
30
0.0000000000
10
59.5184280774
20
81.8164811669
30
0.0000000000
10
58.8900596245
20
81.7371175203
30
0.0000000000
10
58.3362133625
20
81.6416891389
30
0.0000000000
10
57.9007721007
20
81.5211635422
30
0.0000000000
10
57.6197880206
20
81.4142560911
30
0.0000000000
10
57.4979248763
20
81.2835157958
30
0.0000000000
10
57.4979018049
20
81.2300459116
30
0.0000000000
11
60.8551534882
21
81.9133118006
31
0.0000000000
11
60.1787094579
21
81.8716581097
31
0.0000000000
11
59.5114322812
21
81.8115644342
31
0.0000000000
11
58.8688845324
21
81.7292888270
31
0.0000000000
11
58.2976890072
21
81.6240647351
31
0.0000000000
11
57.8551317458
21
81.4997687189
31
0.0000000000
11
57.5847383348
21
81.3649187352
31
0.0000000000
11
57.4979018049
21
81.2300459116
31
0.0000000000
0
SPLINE
5
53C
100
AcDbEntity
8
0
100
AcDbSpline
6
CONTINUOUS
70
0
71
3
72
11
73
7
74
5
42
0.0000001000
43
0.0000001000
44
0.0000000001
40
0.0000000000
40
0.0000000000
40
0.0000000000
40
0.0000000000
40
0.1529970340
40
0.3827585711
40
0.6748533301
40
1.0000000000
40
1.0000000000
40
1.0000000000
40
1.0000000000
10
61.1496949731
20
80.9479508378
30
0.0000000000
10
61.1028916536
20
80.9726592432
30
0.0000000000
10
61.0182825808
20
81.0844223278
30
0.0000000000
10
60.9326331874
20
81.3000967162
30
0.0000000000
10
60.8664562831
20
81.5874053958
30
0.0000000000
10
60.8433862029
20
81.7999317159
30
0.0000000000
10
60.8371583528
20
81.9122344721
30
0.0000000000
11
61.1496949731
21
80.9479508378
31
0.0000000000
11
61.0410083912
21
81.0636950860
31
0.0000000000
11
60.9454792666
21
81.2821604774
31
0.0000000000
11
60.8746720259
21
81.5769003392
31
0.0000000000
11
60.8371583528
21
81.9122344721
31
0.0000000000
0
SPLINE
5
53D
100
AcDbEntity
8
0
100
AcDbSpline
6
CONTINUOUS
70
0
71
3
72
11
73
7
74
5
42
0.0000001000
43
0.0000001000
44
0.0000000001
40
0.0000000000
40
0.0000000000
40
0.0000000000
40
0.0000000000
40
0.2519098873
40
0.5027052563
40
0.7519159500
40
1.0000000000
40
1.0000000000
40
1.0000000000
40
1.0000000000
10
58.4782918049
20
80.2657622773
30
0.0000000000
10
58.3508611692
20
80.2657622773
30
0.0000000000
10
58.0938430043
20
80.3156579124
30
0.0000000000
10
57.7680206584
20
80.5296442260
30
0.0000000000
10
57.5492196584
20
80.8501758177
30
0.0000000000
10
57.4979018049
20
81.1045506063
30
0.0000000000
10
57.4979018049
20
81.2300459116
30
0.0000000000
11
58.4782918049
21
80.2657622773
31
0.0000000000
11
58.1031127948
21
80.3391639982
31
0.0000000000
11
57.7850513879
21
80.5481944144
31
0.0000000000
11
57.5725295501
21
80.8610305401
31
0.0000000000
11
57.4979018049
21
81.2300459116
31
0.0000000000
0
SPLINE
5
53E
100
AcDbEntity
8
0
100
AcDbSpline
62
7
6
CONTINUOUS
70
0
71
3
72
11
73
7
74
5
42
0.0000001000
43
0.0000001000
44
0.0000000001
40
0.0000000000
40
0.0000000000
40
0.0000000000
40
0.0000000000
40
0.3826545503
40
0.7070770283
40
0.9238676602
40
1.0000000000
40
1.0000000000
40
1.0000000000
40
1.0000000000
10
106.1423585760
20
72.2792775024
30
0.0000000000
10
106.1401758161
20
72.1542272709
30
0.0000000000
10
106.1361424670
20
71.9231568549
30
0.0000000000
10
106.1308724884
20
71.6212399832
30
0.0000000000
10
106.1273509912
20
71.4194935480
30
0.0000000000
10
106.1256800833
20
71.3237672972
30
0.0000000000
10
106.1252458049
20
71.2988875024
30
0.0000000000
11
106.1423585760
21
72.2792775024
31
0.0000000000
11
106.1358102963
21
71.9041268078
31
0.0000000000
11
106.1302585287
21
71.5860662546
31
0.0000000000
11
106.1265486402
21
71.3735268870
31
0.0000000000
11
106.1252458049
21
71.2988875024
31
0.0000000000
0
SPLINE
5
53F
100
AcDbEntity
8
0
100
AcDbSpline
6
CONTINUOUS
70
0
71
3
72
12
73
8
74
6
42
0.0000001000
43
0.0000001000
44
0.0000000001
40
0.0000000000
40
0.0000000000
40
0.0000000000
40
0.0000000000
40
0.2621570224
40
0.5023417563
40
0.7087138367
40
0.8748824171
40
1.0000000000
40
1.0000000000
40
1.0000000000
40
1.0000000000
10
172.5956153090
20
95.9338136414
30
0.0000000000
10
172.6914287551
20
96.0525639539
30
0.0000000000
10
172.8733359072
20
96.2814977642
30
0.0000000000
10
173.1406444365
20
96.5957471292
30
0.0000000000
10
173.3886271506
20
96.8528740127
30
0.0000000000
10
173.6128797462
20
97.0370392175
30
0.0000000000
10
173.7647551460
20
97.1183026397
30
0.0000000000
10
173.8344971013
20
97.1392591930
30
0.0000000000
11
172.5956153090
21
95.9338136414
31
0.0000000000
11
172.8833522897
21
96.2898250297
31
0.0000000000
11
173.1569563274
21
96.6076700399
31
0.0000000000
11
173.4101451151
21
96.8640770195
31
0.0000000000
11
173.6380874626
21
97.0435967085
31
0.0000000000
11
173.8344971013
21
97.1392591930
31
0.0000000000
0
SPLINE
5
540
100
AcDbEntity
8
0
100
AcDbSpline
6
CONTINUOUS
70
0
71
3
72
13
73
9
74
7
42
0.0000001000
43
0.0000001000
44
0.0000000001
40
0.0000000000
40
0.0000000000
40
0.0000000000
40
0.0000000000
40
0.1962160371
40
0.3843942709
40
0.5616505064
40
0.7255034063
40
0.8729430496
40
1.0000000000
40
1.0000000000
40
1.0000000000
40
1.0000000000
10
172.5954288787
20
95.9339011306
30
0.0000000000
10
172.6957859583
20
95.9539923751
30
0.0000000000
10
172.8924138402
20
95.9932285190
30
0.0000000000
10
173.1801425265
20
96.0483976390
30
0.0000000000
10
173.4521056112
20
96.0960023454
30
0.0000000000
10
173.7041381221
20
96.1339420395
30
0.0000000000
10
173.9312745379
20
96.1604900537
30
0.0000000000
10
174.0740946718
20
96.1716327565
30
0.0000000000
10
174.1403036356
20
96.1745747568
30
0.0000000000
11
172.5954288787
21
95.9339011306
31
0.0000000000
11
172.8966019887
21
95.9936637579
31
0.0000000000
11
173.1858867524
21
96.0486675826
31
0.0000000000
11
173.4591815635
21
96.0960764444
31
0.0000000000
11
173.7128022831
21
96.1337423366
31
0.0000000000
11
173.9420052142
21
96.1601429731
31
0.0000000000
11
174.1403036356
21
96.1745747568
31
0.0000000000
0
SPLINE
5
541
100
AcDbEntity
8
0
100
AcDbSpline
6
CONTINUOUS
70
0
71
3
72
14
73
10
74
8
42
0.0000001000
43
0.0000001000
44
0.0000000001
40
0.0000000000
40
0.0000000000
40
0.0000000000
40
0.0000000000
40
0.1903686851
40
0.3802258461
40
0.5636436432
40
0.7278749714
40
0.8586608072
40
0.9473407999
40
1.0000000000
40
1.0000000000
40
1.0000000000
40
1.0000000000
10
173.8369183359
20
97.1392533501
30
0.0000000000
10
174.0171655479
20
97.1503785410
30
0.0000000000
10
174.3768793301
20
97.1778107639
30
0.0000000000
10
174.9084593273
20
97.2367411352
30
0.0000000000
10
175.4123066929
20
97.3163874282
30
0.0000000000
10
175.8560418397
20
97.4137701042
30
0.0000000000
10
176.2017542736
20
97.5320556131
30
0.0000000000
10
176.4324546093
20
97.6481696689
30
0.0000000000
10
176.5172056262
20
97.7721764342
30
0.0000000000
10
176.5172478049
20
97.8221307274
30
0.0000000000
11
173.8369183359
21
97.1392533501
31
0.0000000000
11
174.3770831047
21
97.1809363008
31
0.0000000000
11
174.9139786555
21
97.2416270759
31
0.0000000000
11
175.4293329691
21
97.3245882893
31
0.0000000000
11
175.8846416908
21
97.4301530486
31
0.0000000000
11
176.2355430851
21
97.5542651077
31
0.0000000000
11
176.4491852522
21
97.6886152317
31
0.0000000000
11
176.5172478049
21
97.8221307274
31
0.0000000000
0
SPLINE
5
542
100
AcDbEntity
8
0
100
AcDbSpline
6
CONTINUOUS
70
0
71
3
72
14
73
10
74
8
42
0.0000001000
43
0.0000001000
44
0.0000000001
40
0.0000000000
40
0.0000000000
40
0.0000000000
40
0.0000000000
40
0.1952138016
40
0.3877722590
40
0.5734606498
40
0.7389487043
40
0.8691833821
40
0.9545850466
40
1.0000000000
40
1.0000000000
40
1.0000000000
40
1.0000000000
10
174.1403036356
20
96.1745747568
30
0.0000000000
10
174.3676924980
20
96.1858110196
30
0.0000000000
10
174.8191632442
20
96.2132981235
30
0.0000000000
10
175.4853795855
20
96.2722442681
30
0.0000000000
10
176.1149454025
20
96.3521600328
30
0.0000000000
10
176.6674402136
20
96.4479703224
30
0.0000000000
10
177.0995966553
20
96.5683468508
30
0.0000000000
10
177.3778288335
20
96.6750849581
30
0.0000000000
10
177.4976121289
20
96.8048823257
30
0.0000000000
10
177.4976378049
20
96.8578470931
30
0.0000000000
11
174.1403036356
21
96.1745747568
31
0.0000000000
11
174.8220070719
21
96.2166218745
31
0.0000000000
11
175.4929792511
21
96.2772818460
31
0.0000000000
11
176.1373332190
21
96.3602389256
31
0.0000000000
11
176.7066248694
21
96.4658054706
31
0.0000000000
11
177.1450775044
21
96.5898246952
31
0.0000000000
11
177.4120755557
21
96.7239571879
31
0.0000000000
11
177.4976378049
21
96.8578470931
31
0.0000000000
0
SPLINE
5
543
100
AcDbEntity
8
0
100
AcDbSpline
6
CONTINUOUS
70
0
71
3
72
11
73
7
74
5
42
0.0000001000
43
0.0000001000
44
0.0000000001
40
0.0000000000
40
0.0000000000
40
0.0000000000
40
0.0000000000
40
0.1529967737
40
0.3827581980
40
0.6748530662
40
1.0000000000
40
1.0000000000
40
1.0000000000
40
1.0000000000
10
173.8458446367
20
97.1399421669
30
0.0000000000
10
173.8926480529
20
97.1152340775
30
0.0000000000
10
173.9772574744
20
97.0034711952
30
0.0000000000
10
174.0629070879
20
96.7877968883
30
0.0000000000
10
174.1290842380
20
96.5004879936
30
0.0000000000
10
174.1521543980
20
96.2879614385
30
0.0000000000
10
174.1583822741
20
96.1756585327
30
0.0000000000
11
173.8458446367
21
97.1399421669
31
0.0000000000
11
173.9545315130
21
97.0241984503
31
0.0000000000
11
174.0500609508
21
96.8057331855
31
0.0000000000
11
174.1208684515
21
96.5109931043
31
0.0000000000
11
174.1583822741
21
96.1756585327
31
0.0000000000
0
SPLINE
5
544
100
AcDbEntity
8
0
100
AcDbSpline
6
CONTINUOUS
70
0
71
3
72
11
73
7
74
5
42
0.0000001000
43
0.0000001000
44
0.0000000001
40
0.0000000000
40
0.0000000000
40
0.0000000000
40
0.0000000000
40
0.2519098873
40
0.5027052565
40
0.7519159501
40
1.0000000000
40
1.0000000000
40
1.0000000000
40
1.0000000000
10
176.5172478049
20
97.8221307274
30
0.0000000000
10
176.6446784406
20
97.8221307274
30
0.0000000000
10
176.9016966056
20
97.7722350923
30
0.0000000000
10
177.2275189515
20
97.5582487785
30
0.0000000000
10
177.4463199514
20
97.2377171869
30
0.0000000000
10
177.4976378049
20
96.9833423983
30
0.0000000000
10
177.4976378049
20
96.8578470931
30
0.0000000000
11
176.5172478049
21
97.8221307274
31
0.0000000000
11
176.8924268151
21
97.7487290065
31
0.0000000000
11
177.2104882220
21
97.5396985902
31
0.0000000000
11
177.4230100597
21
97.2268624644
31
0.0000000000
11
177.4976378049
21
96.8578470931
31
0.0000000000
0
SPLINE
5
545
100
AcDbEntity
8
0
100
AcDbSpline
62
7
6
CONTINUOUS
70
0
71
3
72
14
73
10
74
8
42
0.0000001000
43
0.0000001000
44
0.0000000001
40
0.0000000000
40
0.0000000000
40
0.0000000000
40
0.0000000000
40
0.1536403092
40
0.3309000621
40
0.5119325193
40
0.6859509103
40
0.8316510025
40
0.9405468245
40
1.0000000000
40
1.0000000000
40
1.0000000000
40
1.0000000000
10
171.6351122932
20
95.1263825105
30
0.0000000000
10
171.6359003833
20
95.2294692796
30
0.0000000000
10
171.6370635727
20
95.4514946779
30
0.0000000000
10
171.6378446591
20
95.7949910207
30
0.0000000000
10
171.6377590904
20
96.1521628816
30
0.0000000000
10
171.6367347391
20
96.4881530949
30
0.0000000000
10
171.6351495639
20
96.7757503652
30
0.0000000000
10
171.6325447998
20
96.9864378764
30
0.0000000000
10
171.6308930814
20
97.0994122410
30
0.0000000000
10
171.6289984001
20
97.1392591930
30
0.0000000000
11
171.6351122932
21
95.1263825105
31
0.0000000000
11
171.6368386227
21
95.4356470368
31
0.0000000000
11
171.6376910016
21
95.7924599812
31
0.0000000000
11
171.6375839801
21
96.1568681710
31
0.0000000000
11
171.6365202695
21
96.5071558385
31
0.0000000000
11
171.6346302481
21
96.8004358805
31
0.0000000000
11
171.6320278502
21
97.0196216274
31
0.0000000000
11
171.6289984001
21
97.1392591930
31
0.0000000000
0
SPLINE
5
546
100
AcDbEntity
8
0
100
AcDbSpline
62
7
6
CONTINUOUS
70
0
71
3
72
11
73
7
74
5
42
0.0000001000
43
0.0000001000
44
0.0000000001
40
0.0000000000
40
0.0000000000
40
0.0000000000
40
0.0000000000
40
0.3826545503
40
0.7070770283
40
0.9238676602
40
1.0000000000
40
1.0000000000
40
1.0000000000
40
1.0000000000
10
106.1423585760
20
105.8086155024
30
0.0000000000
10
106.1401758161
20
105.9336657339
30
0.0000000000
10
106.1361424670
20
106.1647361498
30
0.0000000000
10
106.1308724884
20
106.4666530216
30
0.0000000000
10
106.1273509912
20
106.6683994567
30
0.0000000000
10
106.1256800833
20
106.7641257075
30
0.0000000000
10
106.1252458049
20
106.7890055024
30
0.0000000000
11
106.1423585760
21
105.8086155024
31
0.0000000000
11
106.1358102963
21
106.1837661969
31
0.0000000000
11
106.1302585287
21
106.5018267501
31
0.0000000000
11
106.1265486402
21
106.7143661177
31
0.0000000000
11
106.1252458049
21
106.7890055024
31
0.0000000000
0
SPLINE
5
547
100
AcDbEntity
8
0
100
AcDbSpline
6
CONTINUOUS
70
0
71
3
72
14
73
10
74
8
42
0.0000001000
43
0.0000001000
44
0.0000000001
40
0.0000000000
40
0.0000000000
40
0.0000000000
40
0.0000000000
40
0.0535639887
40
0.1438380672
40
0.2767287052
40
0.4428414275
40
0.6273009417
40
0.8171800201
40
1.0000000000
40
1.0000000000
40
1.0000000000
40
1.0000000000
10
58.4782918049
20
97.8221307274
30
0.0000000000
10
58.4783294281
20
97.7712629501
30
0.0000000000
10
58.5660174404
20
97.6454489436
30
0.0000000000
10
58.8013173600
20
97.5288935322
30
0.0000000000
10
59.1529883116
20
97.4100285383
30
0.0000000000
10
59.6021074552
20
97.3128518898
30
0.0000000000
10
60.1094501516
20
97.2338066070
30
0.0000000000
10
60.6355716958
20
97.1763226936
30
0.0000000000
10
60.9885774869
20
97.1498512070
30
0.0000000000
10
61.1618712604
20
97.1392529893
30
0.0000000000
11
58.4782918049
21
97.8221307274
31
0.0000000000
11
58.5484382663
21
97.6866048495
31
0.0000000000
11
58.7670200767
21
97.5510734793
31
0.0000000000
11
59.1244858430
21
97.4263358047
31
0.0000000000
11
59.5858334217
21
97.3208484508
31
0.0000000000
11
60.1048675273
21
97.2385154109
31
0.0000000000
11
60.6425148422
21
97.1787042019
31
0.0000000000
11
61.1618712604
21
97.1392529893
31
0.0000000000
0
SPLINE
5
548
100
AcDbEntity
8
0
100
AcDbSpline
6
CONTINUOUS
70
0
71
3
72
14
73
10
74
8
42
0.0000001000
43
0.0000001000
44
0.0000000001
40
0.0000000000
40
0.0000000000
40
0.0000000000
40
0.0000000000
40
0.0460825715
40
0.1327769476
40
0.2645599875
40
0.4312210462
40
0.6173055958
40
0.8094058767
40
1.0000000000
40
1.0000000000
40
1.0000000000
40
1.0000000000
10
57.4979018049
20
96.8578470931
30
0.0000000000
10
57.4979250519
20
96.8041714239
30
0.0000000000
10
57.6204810128
20
96.6732050330
30
0.0000000000
10
57.9021031292
20
96.5662832493
30
0.0000000000
10
58.3386701628
20
96.4456572376
30
0.0000000000
10
58.8941077858
20
96.3501540436
30
0.0000000000
10
59.5242593321
20
96.2707757464
30
0.0000000000
10
60.1842346379
20
96.2128326017
30
0.0000000000
10
60.6292318133
20
96.1857382264
30
0.0000000000
10
60.8509634002
20
96.1748525392
30
0.0000000000
11
57.4979018049
21
96.8578470931
31
0.0000000000
11
57.5852581048
21
96.7225748532
31
0.0000000000
11
57.8564816598
21
96.5876345363
31
0.0000000000
11
58.2998804297
21
96.4633368548
31
0.0000000000
11
58.8726466491
21
96.3580311115
31
0.0000000000
11
59.5176467940
21
96.2756641201
31
0.0000000000
11
60.1862198149
21
96.2156755628
31
0.0000000000
11
60.8509634002
21
96.1748525392
31
0.0000000000
0
SPLINE
5
549
100
AcDbEntity
8
0
100
AcDbSpline
6
CONTINUOUS
70
0
71
3
72
11
73
7
74
5
42
0.0000001000
43
0.0000001000
44
0.0000000001
40
0.0000000000
40
0.0000000000
40
0.0000000000
40
0.0000000000
40
0.2519060020
40
0.5027005976
40
0.7519129342
40
1.0000000000
40
1.0000000000
40
1.0000000000
40
1.0000000000
10
58.4782918049
20
97.8221307274
30
0.0000000000
10
58.3508631351
20
97.8221307265
30
0.0000000000
10
58.0938474534
20
97.7722363711
30
0.0000000000
10
57.7680250069
20
97.5582531594
30
0.0000000000
10
57.5492208042
20
97.2377211677
30
0.0000000000
10
57.4979018049
20
96.9833439242
30
0.0000000000
10
57.4979018049
20
96.8578470939
30
0.0000000000
11
58.4782918049
21
97.8221307274
31
0.0000000000
11
58.1031183611
21
97.7487312723
31
0.0000000000
11
57.7850565284
21
97.5397036439
31
0.0000000000
11
57.5725313625
21
97.2268667667
31
0.0000000000
11
57.4979018049
21
96.8578470939
31
0.0000000000
0
SPLINE
5
54A
100
AcDbEntity
8
0
100
AcDbSpline
6
CONTINUOUS
70
0
71
3
72
12
73
8
74
6
42
0.0000001000
43
0.0000001000
44
0.0000000001
40
0.0000000000
40
0.0000000000
40
0.0000000000
40
0.0000000000
40
0.1727137374
40
0.3733412633
40
0.5875322752
40
0.8009895809
40
1.0000000000
40
1.0000000000
40
1.0000000000
40
1.0000000000
10
60.8509634002
20
96.1748525392
30
0.0000000000
10
60.9411967306
20
96.1705892838
30
0.0000000000
10
61.1359085304
20
96.1540931512
30
0.0000000000
10
61.4405249587
20
96.1130547132
30
0.0000000000
10
61.7645340514
20
96.0580250320
30
0.0000000000
10
62.0864898099
20
95.9965735134
30
0.0000000000
10
62.2980365870
20
95.9542839927
30
0.0000000000
10
62.4001000793
20
95.9338553914
30
0.0000000000
11
60.8509634002
21
96.1748525392
31
0.0000000000
11
61.1211050591
21
96.1532759919
31
0.0000000000
11
61.4332253021
21
96.1122807680
31
0.0000000000
11
61.7647036846
21
96.0568371501
31
0.0000000000
11
62.0938143736
21
95.9946634865
31
0.0000000000
11
62.4001000793
21
95.9338553914
31
0.0000000000
0
SPLINE
5
54B
100
AcDbEntity
8
0
100
AcDbSpline
6
CONTINUOUS
70
0
71
3
72
11
73
7
74
5
42
0.0000001000
43
0.0000001000
44
0.0000000001
40
0.0000000000
40
0.0000000000
40
0.0000000000
40
0.0000000000
40
0.1532021324
40
0.3829665304
40
0.6749855311
40
1.0000000000
40
1.0000000000
40
1.0000000000
40
1.0000000000
10
61.1602039467
20
97.1394278766
30
0.0000000000
10
61.1132329107
20
97.1148122973
30
0.0000000000
10
61.0281973474
20
97.0031405199
30
0.0000000000
10
60.9420506789
20
96.7874435398
30
0.0000000000
10
60.8753618296
20
96.5001292956
30
0.0000000000
10
60.8519911385
20
96.2875663721
30
0.0000000000
10
60.8456141444
20
96.1752449598
30
0.0000000000
11
61.1602039467
21
97.1394278766
31
0.0000000000
11
61.0509841048
21
97.0237521625
31
0.0000000000
11
60.9549408503
21
96.8053405893
31
0.0000000000
11
60.8836098069
21
96.5106062890
31
0.0000000000
11
60.8456141444
21
96.1752449598
31
0.0000000000
0
SPLINE
5
54C
100
AcDbEntity
8
0
100
AcDbSpline
6
CONTINUOUS
70
0
71
3
72
12
73
8
74
6
42
0.0000001000
43
0.0000001000
44
0.0000000001
40
0.0000000000
40
0.0000000000
40
0.0000000000
40
0.0000000000
40
0.1409611890
40
0.3259082790
40
0.5450856165
40
0.7774980546
40
1.0000000000
40
1.0000000000
40
1.0000000000
40
1.0000000000
10
61.1607362246
20
97.1392591867
30
0.0000000000
10
61.2391969090
20
97.1152557005
30
0.0000000000
10
61.4078646387
20
97.0212306700
30
0.0000000000
10
61.6484204887
20
96.8136244250
30
0.0000000000
10
61.9018204370
20
96.5425810256
30
0.0000000000
10
62.1536893749
20
96.2416923119
30
0.0000000000
10
62.3189540699
20
96.0347842448
30
0.0000000000
10
62.4002194877
20
95.9339397202
30
0.0000000000
11
61.1607362246
21
97.1392591867
31
0.0000000000
11
61.3804539413
21
97.0282891813
31
0.0000000000
11
61.6296553952
21
96.8228578768
31
0.0000000000
11
61.8939507821
21
96.5460303721
31
0.0000000000
11
62.1561628833
21
96.2362633056
31
0.0000000000
11
62.4002194877
21
95.9339397202
31
0.0000000000
0
SPLINE
5
54D
100
AcDbEntity
8
0
100
AcDbSpline
6
CONTINUOUS
70
0
71
3
72
9
73
5
74
3
42
0.0000001000
43
0.0000001000
44
0.0000000001
40
0.0000000000
40
0.0000000000
40
0.0000000000
40
0.0000000000
40
0.4517049594
40
1.0000000000
40
1.0000000000
40
1.0000000000
40
1.0000000000
10
58.5026842726
20
93.6713873024
30
0.0000000000
10
58.4973450199
20
93.6713873024
30
0.0000000000
10
58.5057780656
20
93.6917869765
30
0.0000000000
10
58.5026511263
20
93.7003667237
30
0.0000000000
10
58.5026842726
20
93.7068476078
30
0.0000000000
11
58.5026842726
21
93.6713873024
31
0.0000000000
11
58.5026048481
21
93.6874048635
31
0.0000000000
11
58.5026842726
21
93.7068476078
31
0.0000000000
0
SPLINE
5
54E
100
AcDbEntity
8
0
100
AcDbSpline
6
CONTINUOUS
70
0
71
3
72
9
73
5
74
3
42
0.0000001000
43
0.0000001000
44
0.0000000001
40
0.0000000000
40
0.0000000000
40
0.0000000000
40
0.0000000000
40
0.4961308653
40
1.0000000000
40
1.0000000000
40
1.0000000000
40
1.0000000000
10
58.5026842726
20
93.7068476078
30
0.0000000000
10
58.4974989316
20
93.7068481093
30
0.0000000000
10
58.4870459632
20
93.7074859399
30
0.0000000000
10
58.4767330601
20
93.7096696938
30
0.0000000000
10
58.4717732147
20
93.7114397179
30
0.0000000000
11
58.5026842726
21
93.7068476078
31
0.0000000000
11
58.4871613276
21
93.7078615268
31
0.0000000000
11
58.4717732147
21
93.7114397179
31
0.0000000000
0
SPLINE
5
54F
100
AcDbEntity
8
0
100
AcDbSpline
62
7
6
CONTINUOUS
70
0
71
3
72
9
73
5
74
3
42
0.0000001000
43
0.0000001000
44
0.0000000001
40
0.0000000000
40
0.0000000000
40
0.0000000000
40
0.0000000000
40
0.4667997008
40
1.0000000000
40
1.0000000000
40
1.0000000000
40
1.0000000000
10
58.5026842726
20
93.6713873024
30
0.0000000000
10
58.4898381357
20
93.6714860193
30
0.0000000000
10
58.4623501708
20
93.6738291149
30
0.0000000000
10
58.4353044487
20
93.6800285435
30
0.0000000000
10
58.4215563559
20
93.6851581554
30
0.0000000000
11
58.5026842726
21
93.6713873024
31
0.0000000000
11
58.4642717537
21
93.6745138345
31
0.0000000000
11
58.4215563559
21
93.6851581554
31
0.0000000000
0
SPLINE
5
550
100
AcDbEntity
8
0
100
AcDbSpline
6
CONTINUOUS
70
0
71
3
72
8
73
4
74
2
42
0.0000001000
43
0.0000001000
44
0.0000000001
40
0.0000000000
40
0.0000000000
40
0.0000000000
40
0.0000000000
40
1.0000000000
40
1.0000000000
40
1.0000000000
40
1.0000000000
10
58.4215563559
20
93.6851581554
30
0.0000000000
10
58.4043620387
20
93.6914796507
30
0.0000000000
10
58.3878712892
20
93.6999059091
30
0.0000000000
10
58.3723788154
20
93.7099911132
30
0.0000000000
11
58.4215563559
21
93.6851581554
31
0.0000000000
11
58.3723788154
21
93.7099911132
31
0.0000000000
0
SPLINE
5
551
100
AcDbEntity
8
0
100
AcDbSpline
6
CONTINUOUS
70
0
71
3
72
9
73
5
74
3
42
0.0000001000
43
0.0000001000
44
0.0000000001
40
0.0000000000
40
0.0000000000
40
0.0000000000
40
0.0000000000
40
0.4902207500
40
1.0000000000
40
1.0000000000
40
1.0000000000
40
1.0000000000
10
58.3723788154
20
93.7099911132
30
0.0000000000
10
58.3564290991
20
93.7203739705
30
0.0000000000
10
58.3260516718
20
93.7451407147
30
0.0000000000
10
58.3014152203
20
93.7751998463
30
0.0000000000
10
58.2904063859
20
93.7915611433
30
0.0000000000
11
58.3723788154
21
93.7099911132
31
0.0000000000
11
58.3280254592
21
93.7459281617
31
0.0000000000
11
58.2904063859
21
93.7915611433
31
0.0000000000
0
SPLINE
5
552
100
AcDbEntity
8
0
100
AcDbSpline
6
CONTINUOUS
70
0
71
3
72
9
73
5
74
3
42
0.0000001000
43
0.0000001000
44
0.0000000001
40
0.0000000000
40
0.0000000000
40
0.0000000000
40
0.0000000000
40
0.3286696098
40
1.0000000000
40
1.0000000000
40
1.0000000000
40
1.0000000000
10
58.2904063859
20
93.7915611433
30
0.0000000000
10
58.2790744634
20
93.8084026129
30
0.0000000000
10
58.2495941832
20
93.8629895040
30
0.0000000000
10
58.2359097387
20
93.9243470959
30
0.0000000000
10
58.2333619356
20
93.9655043024
30
0.0000000000
11
58.2904063859
21
93.7915611433
31
0.0000000000
11
58.2614022438
21
93.8450161135
31
0.0000000000
11
58.2333619356
21
93.9655043024
31
0.0000000000
0
SPLINE
5
553
100
AcDbEntity
8
0
100
AcDbSpline
6
CONTINUOUS
70
0
71
3
72
10
73
6
74
4
42
0.0000001000
43
0.0000001000
44
0.0000000001
40
0.0000000000
40
0.0000000000
40
0.0000000000
40
0.0000000000
40
0.2830868974
40
0.6139776204
40
1.0000000000
40
1.0000000000
40
1.0000000000
40
1.0000000000
10
58.4215531917
20
93.6851463926
30
0.0000000000
10
58.4269836742
20
93.6854606921
30
0.0000000000
10
58.4386505172
20
93.6883419378
30
0.0000000000
10
58.4556170142
20
93.6976276885
30
0.0000000000
10
58.4663477484
20
93.7063774156
30
0.0000000000
10
58.4717810646
20
93.7114270015
30
0.0000000000
11
58.4215531917
21
93.6851463926
31
0.0000000000
11
58.4374764573
21
93.6887170979
31
0.0000000000
11
58.4543764034
21
93.6975615423
31
0.0000000000
11
58.4717810646
21
93.7114270015
31
0.0000000000
0
SPLINE
5
554
100
AcDbEntity
8
0
100
AcDbSpline
6
CONTINUOUS
70
0
71
3
72
8
73
4
74
2
42
0.0000001000
43
0.0000001000
44
0.0000000001
40
0.0000000000
40
0.0000000000
40
0.0000000000
40
0.0000000000
40
1.0000000000
40
1.0000000000
40
1.0000000000
40
1.0000000000
10
58.4717810646
20
93.7114270015
30
0.0000000000
10
58.4532890503
20
93.7171491381
30
0.0000000000
10
58.4353076547
20
93.7246919771
30
0.0000000000
10
58.4180615810
20
93.7337388584
30
0.0000000000
11
58.4717810646
21
93.7114270015
31
0.0000000000
11
58.4180615810
21
93.7337388584
31
0.0000000000
0
SPLINE
5
555
100
AcDbEntity
8
0
100
AcDbSpline
6
CONTINUOUS
70
0
71
3
72
8
73
4
74
2
42
0.0000001000
43
0.0000001000
44
0.0000000001
40
0.0000000000
40
0.0000000000
40
0.0000000000
40
0.0000000000
40
1.0000000000
40
1.0000000000
40
1.0000000000
40
1.0000000000
10
58.4180615810
20
93.7337388584
30
0.0000000000
10
58.4002222206
20
93.7430969639
30
0.0000000000
10
58.3831696443
20
93.7540643737
30
0.0000000000
10
58.3671525524
20
93.7662906101
30
0.0000000000
11
58.4180615810
21
93.7337388584
31
0.0000000000
11
58.3671525524
21
93.7662906101
31
0.0000000000
0
SPLINE
5
556
100
AcDbEntity
8
0
100
AcDbSpline
6
CONTINUOUS
70
0
71
3
72
8
73
4
74
2
42
0.0000001000
43
0.0000001000
44
0.0000000001
40
0.0000000000
40
0.0000000000
40
0.0000000000
40
0.0000000000
40
1.0000000000
40
1.0000000000
40
1.0000000000
40
1.0000000000
10
58.3671525524
20
93.7662906101
30
0.0000000000
10
58.3507601279
20
93.7788033469
30
0.0000000000
10
58.3354522860
20
93.7926345984
30
0.0000000000
10
58.3213643614
20
93.8076150691
30
0.0000000000
11
58.3671525524
21
93.7662906101
31
0.0000000000
11
58.3213643614
21
93.8076150691
31
0.0000000000
0
SPLINE
5
557
100
AcDbEntity
8
0
100
AcDbSpline
6
CONTINUOUS
70
0
71
3
72
9
73
5
74
3
42
0.0000001000
43
0.0000001000
44
0.0000000001
40
0.0000000000
40
0.0000000000
40
0.0000000000
40
0.0000000000
40
0.3377107487
40
1.0000000000
40
1.0000000000
40
1.0000000000
40
1.0000000000
10
58.3213643614
20
93.8076150691
30
0.0000000000
10
58.3072928315
20
93.8225781065
30
0.0000000000
10
58.2692293399
20
93.8702804178
30
0.0000000000
10
58.2430199448
20
93.9265566289
30
0.0000000000
10
58.2333523688
20
93.9655158639
30
0.0000000000
11
58.3213643614
21
93.8076150691
31
0.0000000000
11
58.2829358735
21
93.8557751138
31
0.0000000000
11
58.2333523688
21
93.9655158639
31
0.0000000000
0
SPLINE
5
558
100
AcDbEntity
8
0
100
AcDbSpline
62
7
6
CONTINUOUS
70
0
71
3
72
9
73
5
74
3
42
0.0000001000
43
0.0000001000
44
0.0000000001
40
0.0000000000
40
0.0000000000
40
0.0000000000
40
0.0000000000
40
0.4524179566
40
1.0000000000
40
1.0000000000
40
1.0000000000
40
1.0000000000
10
63.3791008210
20
84.4165057024
30
0.0000000000
10
63.3737506777
20
84.4165057024
30
0.0000000000
10
63.3813428033
20
84.3961143392
30
0.0000000000
10
63.3782000473
20
84.3875204160
30
0.0000000000
10
63.3781193475
20
84.3810453969
30
0.0000000000
11
63.3791008210
21
84.4165057024
31
0.0000000000
11
63.3784230685
21
84.4004695884
31
0.0000000000
11
63.3781193475
21
84.3810453969
31
0.0000000000
0
SPLINE
5
559
100
AcDbEntity
8
0
100
AcDbSpline
6
CONTINUOUS
70
0
71
3
72
9
73
5
74
3
42
0.0000001000
43
0.0000001000
44
0.0000000001
40
0.0000000000
40
0.0000000000
40
0.0000000000
40
0.0000000000
40
0.5481196579
40
1.0000000000
40
1.0000000000
40
1.0000000000
40
1.0000000000
10
58.5026842726
20
84.3810453969
30
0.0000000000
10
58.5026340881
20
84.3875241812
30
0.0000000000
10
58.5057046264
20
84.3961051093
30
0.0000000000
10
58.4973456303
20
84.4165057024
30
0.0000000000
10
58.5026870243
20
84.4165057024
30
0.0000000000
11
58.5026842726
21
84.3810453969
31
0.0000000000
11
58.5025662989
21
84.4004819749
31
0.0000000000
11
58.5026870243
21
84.4165057024
31
0.0000000000
0
SPLINE
5
55A
100
AcDbEntity
8
0
100
AcDbSpline
6
CONTINUOUS
70
0
71
3
72
9
73
5
74
3
42
0.0000001000
43
0.0000001000
44
0.0000000001
40
0.0000000000
40
0.0000000000
40
0.0000000000
40
0.0000000000
40
0.4963306817
40
1.0000000000
40
1.0000000000
40
1.0000000000
40
1.0000000000
10
58.5026842726
20
84.3810453969
30
0.0000000000
10
58.4974965216
20
84.3810500195
30
0.0000000000
10
58.4870382296
20
84.3804587889
30
0.0000000000
10
58.4767311225
20
84.3782322310
30
0.0000000000
10
58.4717761028
20
84.3764539454
30
0.0000000000
11
58.5026842726
21
84.3810453969
31
0.0000000000
11
58.4871522227
21
84.3800602744
31
0.0000000000
11
58.4717761028
21
84.3764539454
31
0.0000000000
0
SPLINE
5
55B
100
AcDbEntity
8
0
100
AcDbSpline
6
CONTINUOUS
70
0
71
3
72
8
73
4
74
2
42
0.0000001000
43
0.0000001000
44
0.0000000001
40
0.0000000000
40
0.0000000000
40
0.0000000000
40
0.0000000000
40
1.0000000000
40
1.0000000000
40
1.0000000000
40
1.0000000000
10
58.4717810393
20
84.3764659215
30
0.0000000000
10
58.4533184523
20
84.3707518982
30
0.0000000000
10
58.4353659005
20
84.3632220899
30
0.0000000000
10
58.4181458384
20
84.3541926880
30
0.0000000000
11
58.4717810393
21
84.3764659215
31
0.0000000000
11
58.4181458384
21
84.3541926880
31
0.0000000000
0
SPLINE
5
55C
100
AcDbEntity
8
0
100
AcDbSpline
6
CONTINUOUS
70
0
71
3
72
8
73
4
74
2
42
0.0000001000
43
0.0000001000
44
0.0000000001
40
0.0000000000
40
0.0000000000
40
0.0000000000
40
0.0000000000
40
1.0000000000
40
1.0000000000
40
1.0000000000
40
1.0000000000
10
58.4181458384
20
84.3541926880
30
0.0000000000
10
58.4003025582
20
84.3448364995
30
0.0000000000
10
58.3832457469
20
84.3338702086
30
0.0000000000
10
58.3672228966
20
84.3216455943
30
0.0000000000
11
58.4181458384
21
84.3541926880
31
0.0000000000
11
58.3672228966
21
84.3216455943
31
0.0000000000
0
SPLINE
5
55D
100
AcDbEntity
8
0
100
AcDbSpline
6
CONTINUOUS
70
0
71
3
72
8
73
4
74
2
42
0.0000001000
43
0.0000001000
44
0.0000000001
40
0.0000000000
40
0.0000000000
40
0.0000000000
40
0.0000000000
40
1.0000000000
40
1.0000000000
40
1.0000000000
40
1.0000000000
10
58.3672228966
20
84.3216455943
30
0.0000000000
10
58.3507895327
20
84.3091077792
30
0.0000000000
10
58.3354437898
20
84.2952463370
30
0.0000000000
10
58.3213237792
20
84.2802307695
30
0.0000000000
11
58.3672228966
21
84.3216455943
31
0.0000000000
11
58.3213237792
21
84.2802307695
31
0.0000000000
0
SPLINE
5
55E
100
AcDbEntity
8
0
100
AcDbSpline
6
CONTINUOUS
70
0
71
3
72
9
73
5
74
3
42
0.0000001000
43
0.0000001000
44
0.0000000001
40
0.0000000000
40
0.0000000000
40
0.0000000000
40
0.0000000000
40
0.3383821343
40
1.0000000000
40
1.0000000000
40
1.0000000000
40
1.0000000000
10
58.3213237792
20
84.2802307695
30
0.0000000000
10
58.3072290773
20
84.2652421159
30
0.0000000000
10
58.2691852259
20
84.2175485655
30
0.0000000000
10
58.2430076020
20
84.1612840219
30
0.0000000000
10
58.2333523491
20
84.1223772502
30
0.0000000000
11
58.3213237792
21
84.2802307695
31
0.0000000000
11
58.2828410704
21
84.2319834252
31
0.0000000000
11
58.2333523491
21
84.1223772502
31
0.0000000000
0
SPLINE
5
55F
100
AcDbEntity
8
0
100
AcDbSpline
6
CONTINUOUS
70
0
71
3
72
10
73
6
74
4
42
0.0000001000
43
0.0000001000
44
0.0000000001
40
0.0000000000
40
0.0000000000
40
0.0000000000
40
0.0000000000
40
0.4471675061
40
0.8304897987
40
1.0000000000
40
1.0000000000
40
1.0000000000
40
1.0000000000
10
58.4717810393
20
84.3764659215
30
0.0000000000
10
58.4663476374
20
84.3815155238
30
0.0000000000
10
58.4556165100
20
84.3902654159
30
0.0000000000
10
58.4409698543
20
84.3982817544
30
0.0000000000
10
58.4321173837
20
84.4010088475
30
0.0000000000
10
58.4293616636
20
84.4016275207
30
0.0000000000
11
58.4717810393
21
84.3764659215
31
0.0000000000
11
58.4543761548
21
84.3903314565
31
0.0000000000
11
58.4374750823
21
84.3991762174
31
0.0000000000
11
58.4293616636
21
84.4016275207
31
0.0000000000
0
SPLINE
5
560
100
AcDbEntity
8
0
100
AcDbSpline
6
CONTINUOUS
70
0
71
3
72
8
73
4
74
2
42
0.0000001000
43
0.0000001000
44
0.0000000001
40
0.0000000000
40
0.0000000000
40
0.0000000000
40
0.0000000000
40
1.0000000000
40
1.0000000000
40
1.0000000000
40
1.0000000000
10
58.4293616636
20
84.4016275207
30
0.0000000000
10
58.4267869780
20
84.4022055508
30
0.0000000000
10
58.4241761844
20
84.4025937091
30
0.0000000000
10
58.4215534636
20
84.4027453028
30
0.0000000000
11
58.4293616636
21
84.4016275207
31
0.0000000000
11
58.4215534636
21
84.4027453028
31
0.0000000000
0
SPLINE
5
561
100
AcDbEntity
8
0
100
AcDbSpline
6
CONTINUOUS
70
0
71
3
72
8
73
4
74
2
42
0.0000001000
43
0.0000001000
44
0.0000000001
40
0.0000000000
40
0.0000000000
40
0.0000000000
40
0.0000000000
40
1.0000000000
40
1.0000000000
40
1.0000000000
40
1.0000000000
10
58.4215562831
20
84.4027348225
30
0.0000000000
10
58.4043901255
20
84.3964237407
30
0.0000000000
10
58.3879255032
20
84.3880148528
30
0.0000000000
10
58.3724554559
20
84.3779516462
30
0.0000000000
11
58.4215562831
21
84.4027348225
31
0.0000000000
11
58.3724554559
21
84.3779516462
31
0.0000000000
0
SPLINE
5
562
100
AcDbEntity
8
0
100
AcDbSpline
6
CONTINUOUS
70
0
71
3
72
9
73
5
74
3
42
0.0000001000
43
0.0000001000
44
0.0000000001
40
0.0000000000
40
0.0000000000
40
0.0000000000
40
0.0000000000
40
0.4896246713
40
1.0000000000
40
1.0000000000
40
1.0000000000
40
1.0000000000
10
58.3724554559
20
84.3779516462
30
0.0000000000
10
58.3565042778
20
84.3675754659
30
0.0000000000
10
58.3260855146
20
84.3427911748
30
0.0000000000
10
58.3014175040
20
84.3126982380
30
0.0000000000
10
58.2903853454
20
84.2962972222
30
0.0000000000
11
58.3724554559
21
84.3779516462
31
0.0000000000
11
58.3280953652
21
84.3420328112
31
0.0000000000
11
58.2903853454
21
84.2962972222
31
0.0000000000
0
SPLINE
5
563
100
AcDbEntity
8
0
100
AcDbSpline
6
CONTINUOUS
70
0
71
3
72
9
73
5
74
3
42
0.0000001000
43
0.0000001000
44
0.0000000001
40
0.0000000000
40
0.0000000000
40
0.0000000000
40
0.0000000000
40
0.3294648347
40
1.0000000000
40
1.0000000000
40
1.0000000000
40
1.0000000000
10
58.2903853454
20
84.2962972222
30
0.0000000000
10
58.2790304525
20
84.2794164115
30
0.0000000000
10
58.2495747095
20
84.2248278534
30
0.0000000000
10
58.2359229679
20
84.1634869576
30
0.0000000000
10
58.2333619295
20
84.1223887024
30
0.0000000000
11
58.2903853454
21
84.2962972222
31
0.0000000000
11
58.2613366677
21
84.2427134444
31
0.0000000000
11
58.2333619295
21
84.1223887024
31
0.0000000000
0
SPLINE
5
564
100
AcDbEntity
8
0
100
AcDbSpline
6
CONTINUOUS
70
0
71
3
72
10
73
6
74
4
42
0.0000001000
43
0.0000001000
44
0.0000000001
40
0.0000000000
40
0.0000000000
40
0.0000000000
40
0.0000000000
40
0.4120812006
40
0.8112781999
40
1.0000000000
40
1.0000000000
40
1.0000000000
40
1.0000000000
10
176.7621782590
20
84.1223887024
30
0.0000000000
10
176.7596210400
20
84.1634877263
30
0.0000000000
10
176.7415954496
20
84.2444656263
30
0.0000000000
10
176.6854320000
20
84.3297740743
30
0.0000000000
10
176.6390327963
20
84.3675783386
30
0.0000000000
10
176.6230811972
20
84.3779544429
30
0.0000000000
11
176.7621782590
21
84.1223887024
31
0.0000000000
11
176.7342041191
21
84.2427152155
31
0.0000000000
11
176.6674424127
21
84.3420354456
31
0.0000000000
11
176.6230811972
21
84.3779544429
31
0.0000000000
0
SPLINE
5
565
100
AcDbEntity
8
0
100
AcDbSpline
6
CONTINUOUS
70
0
71
3
72
8
73
4
74
2
42
0.0000001000
43
0.0000001000
44
0.0000000001
40
0.0000000000
40
0.0000000000
40
0.0000000000
40
0.0000000000
40
1.0000000000
40
1.0000000000
40
1.0000000000
40
1.0000000000
10
176.6230811972
20
84.3779544429
30
0.0000000000
10
176.6076107370
20
84.3880175787
30
0.0000000000
10
176.5911456408
20
84.3964261731
30
0.0000000000
10
176.5739788992
20
84.4027364489
30
0.0000000000
11
176.6230811972
21
84.3779544429
31
0.0000000000
11
176.5739788992
21
84.4027364489
31
0.0000000000
0
SPLINE
5
566
100
AcDbEntity
8
0
100
AcDbSpline
6
CONTINUOUS
70
0
71
3
72
10
73
6
74
4
42
0.0000001000
43
0.0000001000
44
0.0000000001
40
0.0000000000
40
0.0000000000
40
0.0000000000
40
0.0000000000
40
0.3962292620
40
0.8020050519
40
1.0000000000
40
1.0000000000
40
1.0000000000
40
1.0000000000
10
176.7621866732
20
84.1223860541
30
0.0000000000
10
176.7525353358
20
84.1612857519
30
0.0000000000
10
176.7174845903
20
84.2366188594
30
0.0000000000
10
176.6472577922
20
84.3113919465
30
0.0000000000
10
176.5952406662
20
84.3448352587
30
0.0000000000
10
176.5773960948
20
84.3541920501
30
0.0000000000
11
176.7621866732
21
84.1223860541
31
0.0000000000
11
176.7127097828
21
84.2319718677
31
0.0000000000
11
176.6283225728
21
84.3216426140
31
0.0000000000
11
176.5773960948
21
84.3541920501
31
0.0000000000
0
SPLINE
5
567
100
AcDbEntity
8
0
100
AcDbSpline
6
CONTINUOUS
70
0
71
3
72
8
73
4
74
2
42
0.0000001000
43
0.0000001000
44
0.0000000001
40
0.0000000000
40
0.0000000000
40
0.0000000000
40
0.0000000000
40
1.0000000000
40
1.0000000000
40
1.0000000000
40
1.0000000000
10
176.5773960948
20
84.3541920501
30
0.0000000000
10
176.5601748116
20
84.3632220206
30
0.0000000000
10
176.5422209558
20
84.3707522211
30
0.0000000000
10
176.5237570389
20
84.3764664174
30
0.0000000000
11
176.5773960948
21
84.3541920501
31
0.0000000000
11
176.5237570389
21
84.3764664174
31
0.0000000000
0
SPLINE
5
568
100
AcDbEntity
8
0
100
AcDbSpline
6
CONTINUOUS
70
0
71
3
72
10
73
6
74
4
42
0.0000001000
43
0.0000001000
44
0.0000000001
40
0.0000000000
40
0.0000000000
40
0.0000000000
40
0.0000000000
40
0.4485088474
40
0.8310878651
40
1.0000000000
40
1.0000000000
40
1.0000000000
40
1.0000000000
10
176.5237570372
20
84.3764555984
30
0.0000000000
10
176.5291398647
20
84.3814680669
30
0.0000000000
10
176.5397781554
20
84.3901091302
30
0.0000000000
10
176.5543703699
20
84.3978603889
30
0.0000000000
10
176.5631809696
20
84.4003176514
30
0.0000000000
10
176.5659152180
20
84.4008417357
30
0.0000000000
11
176.5237570372
21
84.3764555984
31
0.0000000000
11
176.5410557752
21
84.3901541643
31
0.0000000000
11
176.5578554909
21
84.3986419212
31
0.0000000000
11
176.5659152180
21
84.4008417357
31
0.0000000000
0
SPLINE
5
569
100
AcDbEntity
8
0
100
AcDbSpline
6
CONTINUOUS
70
0
71
3
72
8
73
4
74
2
42
0.0000001000
43
0.0000001000
44
0.0000000001
40
0.0000000000
40
0.0000000000
40
0.0000000000
40
0.0000000000
40
1.0000000000
40
1.0000000000
40
1.0000000000
40
1.0000000000
10
176.5659152180
20
84.4008417357
30
0.0000000000
10
176.5684770016
20
84.4013327629
30
0.0000000000
10
176.5710701369
20
84.4016231780
30
0.0000000000
10
176.5736651202
20
84.4016652493
30
0.0000000000
11
176.5659152180
21
84.4008417357
31
0.0000000000
11
176.5736651202
21
84.4016652493
31
0.0000000000
0
SPLINE
5
56A
100
AcDbEntity
8
0
100
AcDbSpline
6
CONTINUOUS
70
0
71
3
72
9
73
5
74
3
42
0.0000001000
43
0.0000001000
44
0.0000000001
40
0.0000000000
40
0.0000000000
40
0.0000000000
40
0.0000000000
40
0.5279950711
40
1.0000000000
40
1.0000000000
40
1.0000000000
40
1.0000000000
10
176.5739788992
20
84.4027364489
30
0.0000000000
10
176.5604035347
20
84.4079310612
30
0.0000000000
10
176.5333698433
20
84.4142854310
30
0.0000000000
10
176.5058492503
20
84.4165200299
30
0.0000000000
10
176.4928553371
20
84.4165057024
30
0.0000000000
11
176.5739788992
21
84.4027364489
31
0.0000000000
11
176.5317204853
21
84.4134927083
31
0.0000000000
11
176.4928553371
21
84.4165057024
31
0.0000000000
0
SPLINE
5
56B
100
AcDbEntity
8
0
100
AcDbSpline
6
CONTINUOUS
70
0
71
3
72
9
73
5
74
3
42
0.0000001000
43
0.0000001000
44
0.0000000001
40
0.0000000000
40
0.0000000000
40
0.0000000000
40
0.0000000000
40
0.5036686672
40
1.0000000000
40
1.0000000000
40
1.0000000000
40
1.0000000000
10
176.5237619787
20
84.3764544869
30
0.0000000000
10
176.5188071788
20
84.3782325633
30
0.0000000000
10
176.5085005808
20
84.3804588397
30
0.0000000000
10
176.4980428282
20
84.3810500371
30
0.0000000000
10
176.4928553371
20
84.3810453969
30
0.0000000000
11
176.5237619787
21
84.3764544869
31
0.0000000000
11
176.5083866126
21
84.3800603843
31
0.0000000000
11
176.4928553371
21
84.3810453969
31
0.0000000000
0
SPLINE
5
56C
100
AcDbEntity
8
0
100
AcDbSpline
62
7
6
CONTINUOUS
70
0
71
3
72
9
73
5
74
3
42
0.0000001000
43
0.0000001000
44
0.0000000001
40
0.0000000000
40
0.0000000000
40
0.0000000000
40
0.0000000000
40
0.5475820434
40
1.0000000000
40
1.0000000000
40
1.0000000000
40
1.0000000000
10
171.6174202623
20
84.3810453969
30
0.0000000000
10
171.6173395624
20
84.3875204160
30
0.0000000000
10
171.6141968064
20
84.3961143392
30
0.0000000000
10
171.6217889321
20
84.4165057024
30
0.0000000000
10
171.6164387888
20
84.4165057024
30
0.0000000000
11
171.6174202623
21
84.3810453969
31
0.0000000000
11
171.6171165413
21
84.4004695884
31
0.0000000000
11
171.6164387888
21
84.4165057024
31
0.0000000000
0
SPLINE
5
56D
100
AcDbEntity
8
0
100
AcDbSpline
62
7
6
CONTINUOUS
70
0
71
3
72
9
73
5
74
3
42
0.0000001000
43
0.0000001000
44
0.0000000001
40
0.0000000000
40
0.0000000000
40
0.0000000000
40
0.0000000000
40
0.4524179566
40
1.0000000000
40
1.0000000000
40
1.0000000000
40
1.0000000000
10
171.6164387888
20
93.6713873024
30
0.0000000000
10
171.6217889321
20
93.6713873024
30
0.0000000000
10
171.6141968064
20
93.6917786655
30
0.0000000000
10
171.6173395624
20
93.7003725888
30
0.0000000000
10
171.6174202623
20
93.7068476078
30
0.0000000000
11
171.6164387888
21
93.6713873024
31
0.0000000000
11
171.6171165413
21
93.6874234164
31
0.0000000000
11
171.6174202623
21
93.7068476078
31
0.0000000000
0
SPLINE
5
56E
100
AcDbEntity
8
0
100
AcDbSpline
62
7
6
CONTINUOUS
70
0
71
3
72
11
73
7
74
5
42
0.0000001000
43
0.0000001000
44
0.0000000001
40
0.0000000000
40
0.0000000000
40
0.0000000000
40
0.0000000000
40
0.1996169529
40
0.4428885321
40
0.7100588451
40
1.0000000000
40
1.0000000000
40
1.0000000000
40
1.0000000000
10
61.0142648074
20
95.1535016255
30
0.0000000000
10
61.0182274554
20
95.1463504848
30
0.0000000000
10
61.0349673501
20
95.1358725336
30
0.0000000000
10
61.0631999815
20
95.1298939344
30
0.0000000000
10
61.0959823516
20
95.1268016368
30
0.0000000000
10
61.1187845465
20
95.1263825105
30
0.0000000000
10
61.1306595894
20
95.1263825105
30
0.0000000000
11
61.0142648074
21
95.1535016255
31
0.0000000000
11
61.0334940249
21
95.1382763268
31
0.0000000000
11
61.0623885695
21
95.1306234247
31
0.0000000000
11
61.0950459761
21
95.1272882356
31
0.0000000000
11
61.1306595894
21
95.1263825105
31
0.0000000000
0
SPLINE
5
56F
100
AcDbEntity
8
0
100
AcDbSpline
6
CONTINUOUS
70
0
71
3
72
9
73
5
74
3
42
0.0000001000
43
0.0000001000
44
0.0000000001
40
0.0000000000
40
0.0000000000
40
0.0000000000
40
0.0000000000
40
0.5482266664
40
1.0000000000
40
1.0000000000
40
1.0000000000
40
1.0000000000
10
176.4928553371
20
93.7068476078
30
0.0000000000
10
176.4929523426
20
93.7003676872
30
0.0000000000
10
176.4900381968
20
93.6917867537
30
0.0000000000
10
176.4981923553
20
93.6713873024
30
0.0000000000
10
176.4928518939
20
93.6713873024
30
0.0000000000
11
176.4928553371
21
93.7068476078
31
0.0000000000
11
176.4930837240
21
93.6874070092
31
0.0000000000
11
176.4928518939
21
93.6713873024
31
0.0000000000
0
SPLINE
5
570
100
AcDbEntity
8
0
100
AcDbSpline
6
CONTINUOUS
70
0
71
3
72
9
73
5
74
3
42
0.0000001000
43
0.0000001000
44
0.0000000001
40
0.0000000000
40
0.0000000000
40
0.0000000000
40
0.0000000000
40
0.5116821540
40
1.0000000000
40
1.0000000000
40
1.0000000000
40
1.0000000000
10
176.4928553371
20
93.6713873024
30
0.0000000000
10
176.5069427403
20
93.6713830898
30
0.0000000000
10
176.5344756473
20
93.6737619353
30
0.0000000000
10
176.5614426470
20
93.6803001563
30
0.0000000000
10
176.5739789999
20
93.6851565928
30
0.0000000000
11
176.4928553371
21
93.6713873024
31
0.0000000000
11
176.5349707696
21
93.6749065174
31
0.0000000000
11
176.5739789999
21
93.6851565928
31
0.0000000000
0
SPLINE
5
571
100
AcDbEntity
8
0
100
AcDbSpline
6
CONTINUOUS
70
0
71
3
72
9
73
5
74
3
42
0.0000001000
43
0.0000001000
44
0.0000000001
40
0.0000000000
40
0.0000000000
40
0.0000000000
40
0.0000000000
40
0.5420445665
40
1.0000000000
40
1.0000000000
40
1.0000000000
40
1.0000000000
10
176.4928553371
20
93.7068476078
30
0.0000000000
10
176.4985207953
20
93.7068398303
30
0.0000000000
10
176.5089881126
20
93.7074874564
30
0.0000000000
10
176.5192574541
20
93.7098166079
30
0.0000000000
10
176.5237609252
20
93.7114383110
30
0.0000000000
11
176.4928553371
21
93.7068476078
31
0.0000000000
11
176.5098101325
21
93.7080359676
31
0.0000000000
11
176.5237609252
21
93.7114383110
31
0.0000000000
0
SPLINE
5
572
100
AcDbEntity
8
0
100
AcDbSpline
6
CONTINUOUS
70
0
71
3
72
8
73
4
74
2
42
0.0000001000
43
0.0000001000
44
0.0000000001
40
0.0000000000
40
0.0000000000
40
0.0000000000
40
0.0000000000
40
1.0000000000
40
1.0000000000
40
1.0000000000
40
1.0000000000
10
176.5237570738
20
93.7114254881
30
0.0000000000
10
176.5422003377
20
93.7171330094
30
0.0000000000
10
176.5601344517
20
93.7246527210
30
0.0000000000
10
176.5773378475
20
93.7336692914
30
0.0000000000
11
176.5237570738
21
93.7114254881
31
0.0000000000
11
176.5773378475
21
93.7336692914
31
0.0000000000
0
SPLINE
5
573
100
AcDbEntity
8
0
100
AcDbSpline
6
CONTINUOUS
70
0
71
3
72
8
73
4
74
2
42
0.0000001000
43
0.0000001000
44
0.0000000001
40
0.0000000000
40
0.0000000000
40
0.0000000000
40
0.0000000000
40
1.0000000000
40
1.0000000000
40
1.0000000000
40
1.0000000000
10
176.5773378475
20
93.7336692914
30
0.0000000000
10
176.5951830372
20
93.7430222361
30
0.0000000000
10
176.6122419711
20
93.7539858073
30
0.0000000000
10
176.6282673469
20
93.7662080494
30
0.0000000000
11
176.5773378475
21
93.7336692914
31
0.0000000000
11
176.6282673469
21
93.7662080494
31
0.0000000000
0
SPLINE
5
574
100
AcDbEntity
8
0
100
AcDbSpline
6
CONTINUOUS
70
0
71
3
72
8
73
4
74
2
42
0.0000001000
43
0.0000001000
44
0.0000000001
40
0.0000000000
40
0.0000000000
40
0.0000000000
40
0.0000000000
40
1.0000000000
40
1.0000000000
40
1.0000000000
40
1.0000000000
10
176.6282673469
20
93.7662080494
30
0.0000000000
10
176.6447316262
20
93.7787650346
30
0.0000000000
10
176.6601049578
20
93.7926505798
30
0.0000000000
10
176.6742482510
20
93.8076940699
30
0.0000000000
11
176.6282673469
21
93.7662080494
31
0.0000000000
11
176.6742482510
21
93.8076940699
31
0.0000000000
0
SPLINE
5
575
100
AcDbEntity
8
0
100
AcDbSpline
6
CONTINUOUS
70
0
71
3
72
9
73
5
74
3
42
0.0000001000
43
0.0000001000
44
0.0000000001
40
0.0000000000
40
0.0000000000
40
0.0000000000
40
0.0000000000
40
0.3390033987
40
1.0000000000
40
1.0000000000
40
1.0000000000
40
1.0000000000
10
176.6742482510
20
93.8076940699
30
0.0000000000
10
176.6883634579
20
93.8227076861
30
0.0000000000
10
176.7263868200
20
93.8703973753
30
0.0000000000
10
176.7525464294
20
93.9266471203
30
0.0000000000
10
176.7621867305
20
93.9655070172
30
0.0000000000
11
176.6742482510
21
93.8076940699
31
0.0000000000
11
176.7127801342
21
93.8560253695
31
0.0000000000
11
176.7621867305
21
93.9655070172
31
0.0000000000
0
SPLINE
5
576
100
AcDbEntity
8
0
100
AcDbSpline
6
CONTINUOUS
70
0
71
3
72
10
73
6
74
4
42
0.0000001000
43
0.0000001000
44
0.0000000001
40
0.0000000000
40
0.0000000000
40
0.0000000000
40
0.0000000000
40
0.4471708623
40
0.8304944631
40
1.0000000000
40
1.0000000000
40
1.0000000000
40
1.0000000000
10
176.5237570738
20
93.7114254881
30
0.0000000000
10
176.5291902186
20
93.7063757306
30
0.0000000000
10
176.5399208259
20
93.6976255244
30
0.0000000000
10
176.5545667518
20
93.6896084551
30
0.0000000000
10
176.5634189342
20
93.6868811747
30
0.0000000000
10
176.5661745145
20
93.6862624649
30
0.0000000000
11
176.5237570738
21
93.7114254881
31
0.0000000000
11
176.5411611594
21
93.6975593484
31
0.0000000000
11
176.5580615412
21
93.6887138948
31
0.0000000000
11
176.5661745145
21
93.6862624649
31
0.0000000000
0
SPLINE
5
577
100
AcDbEntity
8
0
100
AcDbSpline
6
CONTINUOUS
70
0
71
3
72
8
73
4
74
2
42
0.0000001000
43
0.0000001000
44
0.0000000001
40
0.0000000000
40
0.0000000000
40
0.0000000000
40
0.0000000000
40
1.0000000000
40
1.0000000000
40
1.0000000000
40
1.0000000000
10
176.5661745145
20
93.6862624649
30
0.0000000000
10
176.5687490346
20
93.6856844086
30
0.0000000000
10
176.5713596677
20
93.6852962215
30
0.0000000000
10
176.5739822292
20
93.6851445880
30
0.0000000000
11
176.5661745145
21
93.6862624649
31
0.0000000000
11
176.5739822292
21
93.6851445880
31
0.0000000000
0
SPLINE
5
578
100
AcDbEntity
8
0
100
AcDbSpline
6
CONTINUOUS
70
0
71
3
72
8
73
4
74
2
42
0.0000001000
43
0.0000001000
44
0.0000000001
40
0.0000000000
40
0.0000000000
40
0.0000000000
40
0.0000000000
40
1.0000000000
40
1.0000000000
40
1.0000000000
40
1.0000000000
10
176.5739789999
20
93.6851565928
30
0.0000000000
10
176.5911262961
20
93.6914601491
30
0.0000000000
10
176.6075735064
20
93.6998568731
30
0.0000000000
10
176.6230286831
20
93.7099047944
30
0.0000000000
11
176.5739789999
21
93.6851565928
31
0.0000000000
11
176.6230286831
21
93.7099047944
31
0.0000000000
0
SPLINE
5
579
100
AcDbEntity
8
0
100
AcDbSpline
6
CONTINUOUS
70
0
71
3
72
9
73
5
74
3
42
0.0000001000
43
0.0000001000
44
0.0000000001
40
0.0000000000
40
0.0000000000
40
0.0000000000
40
0.0000000000
40
0.4892092396
40
1.0000000000
40
1.0000000000
40
1.0000000000
40
1.0000000000
10
176.6230286831
20
93.7099047944
30
0.0000000000
10
176.6389816491
20
93.7202763451
30
0.0000000000
10
176.6694307862
20
93.7450731506
30
0.0000000000
10
176.6941219006
20
93.7751899430
30
0.0000000000
10
176.7051710255
20
93.7916189207
30
0.0000000000
11
176.6230286831
21
93.7099047944
31
0.0000000000
11
176.6673956048
21
93.7458112073
31
0.0000000000
11
176.7051710255
21
93.7916189207
31
0.0000000000
0
SPLINE
5
57A
100
AcDbEntity
8
0
100
AcDbSpline
6
CONTINUOUS
70
0
71
3
72
9
73
5
74
3
42
0.0000001000
43
0.0000001000
44
0.0000000001
40
0.0000000000
40
0.0000000000
40
0.0000000000
40
0.0000000000
40
0.3300211615
40
1.0000000000
40
1.0000000000
40
1.0000000000
40
1.0000000000
10
176.7051710255
20
93.7916189207
30
0.0000000000
10
176.7165423703
20
93.8085270083
30
0.0000000000
10
176.7459828859
20
93.8631161130
30
0.0000000000
10
176.7596185929
20
93.9244463885
30
0.0000000000
10
176.7621782685
20
93.9655043024
30
0.0000000000
11
176.7051710255
21
93.7916189207
31
0.0000000000
11
176.7342529922
21
93.8452923354
31
0.0000000000
11
176.7621782685
21
93.9655043024
31
0.0000000000
0
SPLINE
5
57B
100
AcDbEntity
8
0
100
AcDbSpline
62
7
6
CONTINUOUS
70
0
71
3
72
11
73
7
74
5
42
0.0000001000
43
0.0000001000
44
0.0000000001
40
0.0000000000
40
0.0000000000
40
0.0000000000
40
0.0000000000
40
0.1995537153
40
0.4428446546
40
0.7100360630
40
1.0000000000
40
1.0000000000
40
1.0000000000
40
1.0000000000
10
61.0142740546
20
82.9343971462
30
0.0000000000
10
61.0182346724
20
82.9415456488
30
0.0000000000
10
61.0349713471
20
82.9520220414
30
0.0000000000
10
61.0632008547
20
82.9579989202
30
0.0000000000
10
61.0959829432
20
82.9610914457
30
0.0000000000
10
61.1187849913
20
82.9615104942
30
0.0000000000
10
61.1306599479
20
82.9615104942
30
0.0000000000
11
61.0142740546
21
82.9343971462
31
0.0000000000
11
61.0334949960
21
82.9496169904
31
0.0000000000
11
61.0623894056
21
82.9572696718
31
0.0000000000
11
61.0950465930
21
82.9606047865
31
0.0000000000
11
61.1306599479
21
82.9615104942
31
0.0000000000
0
SPLINE
5
57C
100
AcDbEntity
8
0
100
AcDbSpline
62
7
6
CONTINUOUS
70
0
71
3
72
11
73
7
74
5
42
0.0000001000
43
0.0000001000
44
0.0000000001
40
0.0000000000
40
0.0000000000
40
0.0000000000
40
0.0000000000
40
0.1997113724
40
0.4429568478
40
0.7100957767
40
1.0000000000
40
1.0000000000
40
1.0000000000
40
1.0000000000
10
173.9813043774
20
82.9343929383
30
0.0000000000
10
173.9773357362
20
82.9415452399
30
0.0000000000
10
173.9605941092
20
82.9520223685
30
0.0000000000
10
173.9323586241
20
82.9580003235
30
0.0000000000
10
173.8995801685
20
82.9610914846
30
0.0000000000
10
173.8767805461
20
82.9615104942
30
0.0000000000
10
173.8649069368
20
82.9615104942
30
0.0000000000
11
173.9813043774
21
82.9343929383
31
0.0000000000
11
173.9620623071
21
82.9496209554
31
0.0000000000
11
173.9331701199
21
82.9572710079
31
0.0000000000
11
173.9005162560
21
82.9606050825
31
0.0000000000
11
173.8649069368
21
82.9615104942
31
0.0000000000
0
SPLINE
5
57D
100
AcDbEntity
8
0
100
AcDbSpline
62
7
6
CONTINUOUS
70
0
71
3
72
11
73
7
74
5
42
0.0000001000
43
0.0000001000
44
0.0000000001
40
0.0000000000
40
0.0000000000
40
0.0000000000
40
0.0000000000
40
0.1995616105
40
0.4428528293
40
0.7100417090
40
1.0000000000
40
1.0000000000
40
1.0000000000
40
1.0000000000
10
173.9812852003
20
95.1534848898
30
0.0000000000
10
173.9773212093
20
95.1463388703
30
0.0000000000
10
173.9605849722
20
95.1358682714
30
0.0000000000
10
173.9323578258
20
95.1298927292
30
0.0000000000
10
173.8995795076
20
95.1268014621
30
0.0000000000
10
173.8767801854
20
95.1263825105
30
0.0000000000
10
173.8649067088
20
95.1263825105
30
0.0000000000
11
173.9812852003
21
95.1534848898
31
0.0000000000
11
173.9620611270
21
95.1382715937
31
0.0000000000
11
173.9331691523
21
95.1306218628
31
0.0000000000
11
173.9005156303
21
95.1272878970
31
0.0000000000
11
173.8649067088
21
95.1263825105
31
0.0000000000
0
SPLINE
5
57E
100
AcDbEntity
8
0
100
AcDbSpline
6
CONTINUOUS
70
0
71
3
72
12
73
8
74
6
42
0.0000001000
43
0.0000001000
44
0.0000000001
40
0.0000000000
40
0.0000000000
40
0.0000000000
40
0.0000000000
40
0.2037771991
40
0.4068806783
40
0.6081836997
40
0.8061563594
40
1.0000000000
40
1.0000000000
40
1.0000000000
40
1.0000000000
10
173.8649401938
20
82.9615104942
30
0.0000000000
10
174.0688878360
20
83.0024126245
30
0.0000000000
10
174.4723229343
20
83.1047197482
30
0.0000000000
10
175.0554148240
20
83.3214251172
30
0.0000000000
10
175.6038266030
20
83.6031860646
30
0.0000000000
10
176.1022951963
20
83.9501270661
30
0.0000000000
10
176.3934016003
20
84.2275979592
30
0.0000000000
10
176.5237619787
20
84.3764544869
30
0.0000000000
11
173.8649401938
21
82.9615104942
31
0.0000000000
11
174.4696446247
21
83.1155922141
31
0.0000000000
11
175.0522108044
21
83.3334330598
31
0.0000000000
11
175.5997551494
21
83.6166381928
31
0.0000000000
11
176.0960172108
21
83.9648682137
31
0.0000000000
11
176.5237619787
21
84.3764544869
31
0.0000000000
0
SPLINE
5
57F
100
AcDbEntity
8
0
100
AcDbSpline
62
7
6
CONTINUOUS
70
0
71
3
72
10
73
6
74
4
42
0.0000001000
43
0.0000001000
44
0.0000000001
40
0.0000000000
40
0.0000000000
40
0.0000000000
40
0.0000000000
40
0.3079910113
40
0.6475666201
40
1.0000000000
40
1.0000000000
40
1.0000000000
40
1.0000000000
10
173.9813004398
20
82.9343961554
30
0.0000000000
10
173.9915926580
20
82.9158438826
30
0.0000000000
10
174.0110775150
20
82.8756273122
30
0.0000000000
10
174.0359677205
20
82.8113464779
30
0.0000000000
10
174.0502750837
20
82.7658262791
30
0.0000000000
10
174.0566609109
20
82.7424038213
30
0.0000000000
11
173.9813004398
21
82.9343961554
31
0.0000000000
11
174.0093655614
21
82.8772699952
31
0.0000000000
11
174.0349453138
21
82.8119232122
31
0.0000000000
11
174.0566609109
21
82.7424038213
31
0.0000000000
0
SPLINE
5
580
100
AcDbEntity
8
0
100
AcDbSpline
6
CONTINUOUS
70
0
71
3
72
12
73
8
74
6
42
0.0000001000
43
0.0000001000
44
0.0000000001
40
0.0000000000
40
0.0000000000
40
0.0000000000
40
0.0000000000
40
0.2057029963
40
0.4101642564
40
0.6117942963
40
0.8088939186
40
1.0000000000
40
1.0000000000
40
1.0000000000
40
1.0000000000
10
174.0568792990
20
82.7424926563
30
0.0000000000
10
174.2638332189
20
82.7850085818
30
0.0000000000
10
174.6728871571
20
82.8888344844
30
0.0000000000
10
175.2646426474
20
83.1033950996
30
0.0000000000
10
175.8215884024
20
83.3780766378
30
0.0000000000
10
176.3286292232
20
83.7126653680
30
0.0000000000
10
176.6276002946
20
83.9794930720
30
0.0000000000
10
176.7621665647
20
84.1223887024
30
0.0000000000
11
174.0568792990
21
82.7424926563
31
0.0000000000
11
174.6710257820
21
82.8992148864
31
0.0000000000
11
175.2628605412
21
83.1151634856
31
0.0000000000
11
175.8192764056
21
83.3915467074
31
0.0000000000
11
176.3248255860
21
83.7280816540
31
0.0000000000
11
176.7621665647
21
84.1223887024
31
0.0000000000
0
SPLINE
5
581
100
AcDbEntity
8
0
100
AcDbSpline
6
CONTINUOUS
70
0
71
3
72
10
73
6
74
4
42
0.0000001000
43
0.0000001000
44
0.0000000001
40
0.0000000000
40
0.0000000000
40
0.0000000000
40
0.0000000000
40
0.3279780878
40
0.6729843740
40
1.0000000000
40
1.0000000000
40
1.0000000000
40
1.0000000000
10
172.5954192400
20
82.1540416207
30
0.0000000000
10
172.7541438676
20
82.2209720971
30
0.0000000000
10
173.0797334656
20
82.3585507388
30
0.0000000000
10
173.5656333896
20
82.5579669156
30
0.0000000000
10
173.8952835470
20
82.6843023590
30
0.0000000000
10
174.0568792990
20
82.7424926563
30
0.0000000000
11
172.5954192400
21
82.1540416207
31
0.0000000000
11
173.0718309381
21
82.3542681389
31
0.0000000000
11
173.5751959909
21
82.5595312647
31
0.0000000000
11
174.0568792990
21
82.7424926563
31
0.0000000000
0
SPLINE
5
582
100
AcDbEntity
8
0
100
AcDbSpline
6
CONTINUOUS
70
0
71
3
72
10
73
6
74
4
42
0.0000001000
43
0.0000001000
44
0.0000000001
40
0.0000000000
40
0.0000000000
40
0.0000000000
40
0.0000000000
40
0.3299143014
40
0.6755499148
40
1.0000000000
40
1.0000000000
40
1.0000000000
40
1.0000000000
10
172.5952903040
20
82.1539502377
30
0.0000000000
10
172.7459592075
20
82.2428756406
30
0.0000000000
10
173.0542865262
20
82.4252922461
30
0.0000000000
10
173.5141871305
20
82.6893617395
30
0.0000000000
10
173.8275525430
20
82.8571679699
30
0.0000000000
10
173.9813043774
20
82.9343929383
30
0.0000000000
11
172.5952903040
21
82.1539502377
31
0.0000000000
11
173.0476736717
21
82.4200872332
31
0.0000000000
11
173.5253118990
21
82.6925236337
31
0.0000000000
11
173.9813043774
21
82.9343929383
31
0.0000000000
0
SPLINE
5
583
100
AcDbEntity
8
0
100
AcDbSpline
62
7
6
CONTINUOUS
70
0
71
3
72
8
73
4
74
2
42
0.0000001000
43
0.0000001000
44
0.0000000001
40
0.0000000000
40
0.0000000000
40
0.0000000000
40
0.0000000000
40
1.0000000000
40
1.0000000000
40
1.0000000000
40
1.0000000000
10
177.1148737140
20
93.9655043024
30
0.0000000000
10
177.1146254721
20
93.9277335013
30
0.0000000000
10
177.1077319451
20
93.8897111942
30
0.0000000000
10
177.0943609438
20
93.8540615744
30
0.0000000000
11
177.1148737140
21
93.9655043024
31
0.0000000000
11
177.0943609438
21
93.8540615744
31
0.0000000000
0
SPLINE
5
584
100
AcDbEntity
8
0
100
AcDbSpline
62
7
6
CONTINUOUS
70
0
71
3
72
10
73
6
74
4
42
0.0000001000
43
0.0000001000
44
0.0000000001
40
0.0000000000
40
0.0000000000
40
0.0000000000
40
0.0000000000
40
0.3584046148
40
0.6895258017
40
1.0000000000
40
1.0000000000
40
1.0000000000
40
1.0000000000
10
177.0943609438
20
93.8540615744
30
0.0000000000
10
177.0804924736
20
93.8170856088
30
0.0000000000
10
177.0404048749
20
93.7508591974
30
0.0000000000
10
176.9484561436
20
93.6863601438
30
0.0000000000
10
176.8776602371
20
93.6713873024
30
0.0000000000
10
176.8437225594
20
93.6713873024
30
0.0000000000
11
177.0943609438
21
93.8540615744
31
0.0000000000
11
177.0325199545
21
93.7541157602
31
0.0000000000
11
176.9434142187
21
93.6920625708
31
0.0000000000
11
176.8437225594
21
93.6713873024
31
0.0000000000
0
SPLINE
5
585
100
AcDbEntity
8
0
100
AcDbSpline
6
CONTINUOUS
70
0
71
3
72
11
73
7
74
5
42
0.0000001000
43
0.0000001000
44
0.0000000001
40
0.0000000000
40
0.0000000000
40
0.0000000000
40
0.0000000000
40
0.2402431566
40
0.4888703227
40
0.7431264974
40
1.0000000000
40
1.0000000000
40
1.0000000000
40
1.0000000000
10
176.7622572698
20
93.9655043024
30
0.0000000000
10
176.5931650924
20
94.1450680236
30
0.0000000000
10
176.2084998293
20
94.4733539288
30
0.0000000000
10
175.5486242545
20
94.8620443984
30
0.0000000000
10
174.8240050910
20
95.1570750703
30
0.0000000000
10
174.3154556276
20
95.2922655748
30
0.0000000000
10
174.0571287227
20
95.3453354961
30
0.0000000000
11
176.7622572698
21
93.9655043024
31
0.0000000000
11
176.2031575536
21
94.4501950875
31
0.0000000000
11
175.5455369231
21
94.8425394788
31
0.0000000000
11
174.8212904481
21
95.1403971770
31
0.0000000000
11
174.0571287227
21
95.3453354961
31
0.0000000000
0
SPLINE
5
586
100
AcDbEntity
8
0
100
AcDbSpline
62
7
6
CONTINUOUS
70
0
71
3
72
10
73
6
74
4
42
0.0000001000
43
0.0000001000
44
0.0000000001
40
0.0000000000
40
0.0000000000
40
0.0000000000
40
0.0000000000
40
0.3079919070
40
0.6475688143
40
1.0000000000
40
1.0000000000
40
1.0000000000
40
1.0000000000
10
173.9812993674
20
95.1534960662
30
0.0000000000
10
173.9915939508
20
95.1720473482
30
0.0000000000
10
174.0110766997
20
95.2122654070
30
0.0000000000
10
174.0359843353
20
95.2765405790
30
0.0000000000
10
174.0502751169
20
95.3220666172
30
0.0000000000
10
174.0566613343
20
95.3454890722
30
0.0000000000
11
173.9812993674
21
95.1534960662
31
0.0000000000
11
174.0093678833
21
95.2106214985
31
0.0000000000
11
174.0349548924
21
95.2759665080
31
0.0000000000
11
174.0566613343
21
95.3454890722
31
0.0000000000
0
SPLINE
5
587
100
AcDbEntity
8
0
100
AcDbSpline
6
CONTINUOUS
70
0
71
3
72
12
73
8
74
6
42
0.0000001000
43
0.0000001000
44
0.0000000001
40
0.0000000000
40
0.0000000000
40
0.0000000000
40
0.0000000000
40
0.1938406516
40
0.3918140140
40
0.5931177824
40
0.7962220135
40
1.0000000000
40
1.0000000000
40
1.0000000000
40
1.0000000000
10
176.5237609252
20
93.7114383110
30
0.0000000000
10
176.3934025622
20
93.8602925144
30
0.0000000000
10
176.1022992027
20
94.1377630167
30
0.0000000000
10
175.6038321845
20
94.4847036079
30
0.0000000000
10
175.0554188425
20
94.7664661928
30
0.0000000000
10
174.4723249752
20
94.9831728027
30
0.0000000000
10
174.0688883895
20
95.0854802896
30
0.0000000000
10
173.8649399728
20
95.1263825105
30
0.0000000000
11
176.5237609252
21
93.7114383110
31
0.0000000000
11
176.0960238956
21
94.1230193159
31
0.0000000000
11
175.5997607680
21
94.4712514290
31
0.0000000000
11
175.0522147699
21
94.7544581738
31
0.0000000000
11
174.4696466614
21
94.9723002082
31
0.0000000000
11
173.8649399728
21
95.1263825105
31
0.0000000000
0
SPLINE
5
588
100
AcDbEntity
8
0
100
AcDbSpline
6
CONTINUOUS
70
0
71
3
72
11
73
7
74
5
42
0.0000001000
43
0.0000001000
44
0.0000000001
40
0.0000000000
40
0.0000000000
40
0.0000000000
40
0.0000000000
40
0.2480635314
40
0.5076587033
40
0.7630482047
40
1.0000000000
40
1.0000000000
40
1.0000000000
40
1.0000000000
10
173.9812852003
20
95.1534848898
30
0.0000000000
10
173.8637588539
20
95.2125204504
30
0.0000000000
10
173.6256816410
20
95.3382018822
30
0.0000000000
10
173.2729551124
20
95.5363686539
30
0.0000000000
10
172.9284703594
20
95.7370511309
30
0.0000000000
10
172.7037882937
20
95.8699286306
30
0.0000000000
10
172.5956153090
20
95.9338136414
30
0.0000000000
11
173.9812852003
21
95.1534848898
31
0.0000000000
11
173.6319031376
21
95.3368177289
31
0.0000000000
11
173.2715514015
21
95.5384008878
31
0.0000000000
11
172.9202587477
21
95.7423695481
31
0.0000000000
11
172.5956153090
21
95.9338136414
31
0.0000000000
0
SPLINE
5
589
100
AcDbEntity
8
0
100
AcDbSpline
6
CONTINUOUS
70
0
71
3
72
11
73
7
74
5
42
0.0000001000
43
0.0000001000
44
0.0000000001
40
0.0000000000
40
0.0000000000
40
0.0000000000
40
0.0000000000
40
0.2505481452
40
0.5101998598
40
0.7643285405
40
1.0000000000
40
1.0000000000
40
1.0000000000
40
1.0000000000
10
174.0571287227
20
95.3453354961
30
0.0000000000
10
173.9332992199
20
95.3899309328
30
0.0000000000
10
173.6825438496
20
95.4846502009
30
0.0000000000
10
173.3099700165
20
95.6343463478
30
0.0000000000
10
172.9465091886
20
95.7856557285
30
0.0000000000
10
172.7094910344
20
95.8857732325
30
0.0000000000
10
172.5954288787
20
95.9339011306
30
0.0000000000
11
174.0571287227
21
95.3453354961
31
0.0000000000
11
173.6875142215
21
95.4842153335
31
0.0000000000
11
173.3076036998
21
95.6362206623
31
0.0000000000
11
172.9376979047
21
95.7897132556
31
0.0000000000
11
172.5954288787
21
95.9339011306
31
0.0000000000
0
SPLINE
5
58A
100
AcDbEntity
8
0
100
AcDbSpline
62
7
6
CONTINUOUS
70
0
71
3
72
15
73
11
74
9
42
0.0000001000
43
0.0000001000
44
0.0000000001
40
0.0000000000
40
0.0000000000
40
0.0000000000
40
0.0000000000
40
0.0467736703
40
0.1222100749
40
0.2240465600
40
0.3492225093
40
0.4939741283
40
0.6539478140
40
0.8243316314
40
1.0000000000
40
1.0000000000
40
1.0000000000
40
1.0000000000
10
171.5032659451
20
99.7835264808
30
0.0000000000
10
171.5021947957
20
99.8060537734
30
0.0000000000
10
171.5007056960
20
99.8649682500
30
0.0000000000
10
171.4987869101
20
99.9729757945
30
0.0000000000
10
171.4970899252
20
100.1187992523
30
0.0000000000
10
171.4955716675
20
100.2980448730
30
0.0000000000
10
171.4943437550
20
100.5053260720
30
0.0000000000
10
171.4934322743
20
100.7344064854
30
0.0000000000
10
171.4928739984
20
100.9783952071
30
0.0000000000
10
171.4927490549
20
101.1452503518
30
0.0000000000
10
171.4927490549
20
101.2299519322
30
0.0000000000
11
171.5032659451
21
99.7835264808
31
0.0000000000
11
171.5011197582
21
99.8511506654
31
0.0000000000
11
171.4991078141
21
99.9602510664
31
0.0000000000
11
171.4972906319
21
100.1075465918
31
0.0000000000
11
171.4957228777
21
100.2886071330
31
0.0000000000
11
171.4944517168
21
100.4979868586
31
0.0000000000
11
171.4935153971
21
100.7293873068
31
0.0000000000
11
171.4929420926
21
100.9758472644
31
0.0000000000
11
171.4927490549
21
101.2299519322
31
0.0000000000
0
SPLINE
5
58B
100
AcDbEntity
8
0
100
AcDbSpline
62
7
6
CONTINUOUS
70
0
71
3
72
11
73
7
74
5
42
0.0000001000
43
0.0000001000
44
0.0000000001
40
0.0000000000
40
0.0000000000
40
0.0000000000
40
0.0000000000
40
0.2352850230
40
0.4850236668
40
0.7510491537
40
1.0000000000
40
1.0000000000
40
1.0000000000
40
1.0000000000
10
58.1518170503
20
93.6713873024
30
0.0000000000
10
58.1172122547
20
93.6713873024
30
0.0000000000
10
58.0451762031
20
93.6869324029
30
0.0000000000
10
57.9528953230
20
93.7531509255
30
0.0000000000
10
57.8943369780
20
93.8527103781
30
0.0000000000
10
57.8809369287
20
93.9288905943
30
0.0000000000
10
57.8806658958
20
93.9655043024
30
0.0000000000
11
58.1518170503
21
93.6713873024
31
0.0000000000
11
58.0502506331
21
93.6928742713
31
0.0000000000
11
57.9604946218
21
93.7567966949
31
0.0000000000
11
57.8999768530
21
93.8573709559
31
0.0000000000
11
57.8806658958
21
93.9655043024
31
0.0000000000
0
SPLINE
5
58C
100
AcDbEntity
8
0
100
AcDbSpline
6
CONTINUOUS
70
0
71
3
72
12
73
8
74
6
42
0.0000001000
43
0.0000001000
44
0.0000000001
40
0.0000000000
40
0.0000000000
40
0.0000000000
40
0.0000000000
40
0.2037178119
40
0.4068209174
40
0.6081375194
40
0.8061734893
40
1.0000000000
40
1.0000000000
40
1.0000000000
40
1.0000000000
10
61.1303582991
20
95.1263825105
30
0.0000000000
10
60.9264859158
20
95.0854931373
30
0.0000000000
10
60.5231614584
20
94.9831284956
30
0.0000000000
10
59.9401479020
20
94.7664905489
30
0.0000000000
10
59.3917143825
20
94.4846997708
30
0.0000000000
10
58.8932264305
20
94.1377590953
30
0.0000000000
10
58.6021138688
20
93.8602704483
30
0.0000000000
10
58.4717732147
20
93.7114397179
30
0.0000000000
11
61.1303582991
21
95.1263825105
31
0.0000000000
11
60.5258897283
21
94.9723021654
31
0.0000000000
11
59.9433676221
21
94.7544806017
31
0.0000000000
11
59.3958281702
21
94.4712766538
31
0.0000000000
11
58.8994441004
21
94.1229625792
31
0.0000000000
11
58.4717732147
21
93.7114397179
31
0.0000000000
0
SPLINE
5
58D
100
AcDbEntity
8
0
100
AcDbSpline
62
7
6
CONTINUOUS
70
0
71
3
72
10
73
6
74
4
42
0.0000001000
43
0.0000001000
44
0.0000000001
40
0.0000000000
40
0.0000000000
40
0.0000000000
40
0.0000000000
40
0.3079766801
40
0.6475224855
40
1.0000000000
40
1.0000000000
40
1.0000000000
40
1.0000000000
10
61.0142590259
20
95.1535062252
30
0.0000000000
10
61.0039760059
20
95.1720604095
30
0.0000000000
10
60.9844736130
20
95.2122684911
30
0.0000000000
10
60.9598894003
20
95.2766513277
30
0.0000000000
10
60.9452207698
20
95.3220520161
30
0.0000000000
10
60.9388349368
20
95.3454754863
30
0.0000000000
11
61.0142590259
21
95.1535062252
31
0.0000000000
11
60.9862350911
21
95.2106432830
31
0.0000000000
11
60.9607716723
21
95.2760224805
31
0.0000000000
11
60.9388349368
21
95.3454754863
31
0.0000000000
0
SPLINE
5
58E
100
AcDbEntity
8
0
100
AcDbSpline
6
CONTINUOUS
70
0
71
3
72
11
73
7
74
5
42
0.0000001000
43
0.0000001000
44
0.0000000001
40
0.0000000000
40
0.0000000000
40
0.0000000000
40
0.0000000000
40
0.2569629198
40
0.5111743585
40
0.7597686506
40
1.0000000000
40
1.0000000000
40
1.0000000000
40
1.0000000000
10
60.9386411897
20
95.3454031106
30
0.0000000000
10
60.6802037593
20
95.2923149226
30
0.0000000000
10
60.1715768002
20
95.1570775225
30
0.0000000000
10
59.4468878770
20
94.8620339392
30
0.0000000000
10
58.7870403389
20
94.4733582671
30
0.0000000000
10
58.4023878195
20
94.1450705360
30
0.0000000000
10
58.2332885284
20
93.9655043024
30
0.0000000000
11
60.9386411897
21
95.3454031106
31
0.0000000000
11
60.1741594312
21
95.1403616733
31
0.0000000000
11
59.4499854301
21
94.8425328643
31
0.0000000000
11
58.7924014727
21
94.4502105413
31
0.0000000000
11
58.2332885284
21
93.9655043024
31
0.0000000000
0
SPLINE
5
58F
100
AcDbEntity
8
0
100
AcDbSpline
62
7
6
CONTINUOUS
70
0
71
3
72
15
73
11
74
9
42
0.0000001000
43
0.0000001000
44
0.0000000001
40
0.0000000000
40
0.0000000000
40
0.0000000000
40
0.0000000000
40
0.1756684085
40
0.3460523070
40
0.5060260615
40
0.6507776883
40
0.7759535813
40
0.8777899900
40
0.9532263438
40
1.0000000000
40
1.0000000000
40
1.0000000000
40
1.0000000000
10
63.5027905549
20
101.2299519322
30
0.0000000000
10
63.5027905549
20
101.1452503326
30
0.0000000000
10
63.5026656113
20
100.9783951296
30
0.0000000000
10
63.5021073350
20
100.7344063163
30
0.0000000000
10
63.5011958537
20
100.5053258269
30
0.0000000000
10
63.4999679404
20
100.2980446181
30
0.0000000000
10
63.4984496826
20
100.1187990576
30
0.0000000000
10
63.4967526981
20
99.9729756883
30
0.0000000000
10
63.4948339129
20
99.8649682119
30
0.0000000000
10
63.4933448138
20
99.8060537666
30
0.0000000000
10
63.4922736647
20
99.7835264808
30
0.0000000000
11
63.5027905549
21
101.2299519322
31
0.0000000000
11
63.5025975171
21
100.9758472066
31
0.0000000000
11
63.5020242121
21
100.7293871318
31
0.0000000000
11
63.5010878916
21
100.4979865842
31
0.0000000000
11
63.4998167300
21
100.2886068471
31
0.0000000000
11
63.4982489758
21
100.1075463874
31
0.0000000000
11
63.4964317942
21
99.9602509725
31
0.0000000000
11
63.4944198511
21
99.8511506450
31
0.0000000000
11
63.4922736647
21
99.7835264808
31
0.0000000000
0
SPLINE
5
590
100
AcDbEntity
8
0
100
AcDbSpline
6
CONTINUOUS
70
0
71
3
72
10
73
6
74
4
42
0.0000001000
43
0.0000001000
44
0.0000000001
40
0.0000000000
40
0.0000000000
40
0.0000000000
40
0.0000000000
40
0.3211627397
40
0.6664358400
40
1.0000000000
40
1.0000000000
40
1.0000000000
40
1.0000000000
10
62.4001000793
20
95.9338553914
30
0.0000000000
10
62.2446756902
20
95.8683113776
30
0.0000000000
10
61.9222557748
20
95.7320686005
30
0.0000000000
10
61.4364237661
20
95.5324914189
30
0.0000000000
10
61.1034719564
20
95.4047609948
30
0.0000000000
10
60.9386411897
20
95.3454031106
30
0.0000000000
11
62.4001000793
21
95.9338553914
31
0.0000000000
11
61.9336054014
21
95.7377494465
31
0.0000000000
11
61.4299200443
21
95.5321594969
31
0.0000000000
11
60.9386411897
21
95.3454031106
31
0.0000000000
0
SPLINE
5
591
100
AcDbEntity
8
0
100
AcDbSpline
6
CONTINUOUS
70
0
71
3
72
11
73
7
74
5
42
0.0000001000
43
0.0000001000
44
0.0000000001
40
0.0000000000
40
0.0000000000
40
0.0000000000
40
0.0000000000
40
0.2399136606
40
0.4955960180
40
0.7539571138
40
1.0000000000
40
1.0000000000
40
1.0000000000
40
1.0000000000
10
62.4002194877
20
95.9339397202
30
0.0000000000
10
62.2906580210
20
95.8692702453
30
0.0000000000
10
62.0644417841
20
95.7354990837
30
0.0000000000
10
61.7189420236
20
95.5342797997
30
0.0000000000
10
61.3674763238
20
95.3369182431
30
0.0000000000
10
61.1308566716
20
95.2120659317
30
0.0000000000
10
61.0142648074
20
95.1535016255
30
0.0000000000
11
62.4002194877
21
95.9339397202
31
0.0000000000
11
62.0714309028
21
95.7401079111
31
0.0000000000
11
61.7196412949
21
95.5359138695
31
0.0000000000
11
61.3608930353
21
95.3353252715
31
0.0000000000
11
61.0142648074
21
95.1535016255
31
0.0000000000
0
SPLINE
5
592
100
AcDbEntity
8
0
100
AcDbSpline
6
CONTINUOUS
70
0
71
3
72
11
73
7
74
5
42
0.0000001000
43
0.0000001000
44
0.0000000001
40
0.0000000000
40
0.0000000000
40
0.0000000000
40
0.0000000000
40
0.2398283091
40
0.4885661160
40
0.7429316268
40
1.0000000000
40
1.0000000000
40
1.0000000000
40
1.0000000000
10
58.2333787454
20
84.1223887024
30
0.0000000000
10
58.4021842375
20
83.9431395618
30
0.0000000000
10
58.7864754645
20
83.6149214895
30
0.0000000000
10
59.4461312634
20
83.2262170875
30
0.0000000000
10
60.1711127125
20
82.9309508304
30
0.0000000000
10
60.6799580651
20
82.7956373114
30
0.0000000000
10
60.9384821844
20
82.7425313193
30
0.0000000000
11
58.2333787454
21
84.1223887024
31
0.0000000000
11
58.7913979747
21
83.6384006065
31
0.0000000000
11
59.4492261037
21
83.2457368247
31
0.0000000000
11
60.1737511529
21
82.9476682231
31
0.0000000000
11
60.9384821844
21
82.7425313193
31
0.0000000000
0
SPLINE
5
593
100
AcDbEntity
8
0
100
AcDbSpline
62
7
6
CONTINUOUS
70
0
71
3
72
10
73
6
74
4
42
0.0000001000
43
0.0000001000
44
0.0000000001
40
0.0000000000
40
0.0000000000
40
0.0000000000
40
0.0000000000
40
0.3079769186
40
0.6475229517
40
1.0000000000
40
1.0000000000
40
1.0000000000
40
1.0000000000
10
61.0142606926
20
82.9343865916
30
0.0000000000
10
61.0039771556
20
82.9158326251
30
0.0000000000
10
60.9844750772
20
82.8756242808
30
0.0000000000
10
60.9598877208
20
82.8112424678
30
0.0000000000
10
60.9452214822
20
82.7658409044
30
0.0000000000
10
60.9388354932
20
82.7424174582
30
0.0000000000
11
61.0142606926
21
82.9343865916
31
0.0000000000
11
60.9862360049
21
82.8772497022
31
0.0000000000
11
60.9607711158
21
82.8118708718
31
0.0000000000
11
60.9388354932
21
82.7424174582
31
0.0000000000
0
SPLINE
5
594
100
AcDbEntity
8
0
100
AcDbSpline
6
CONTINUOUS
70
0
71
3
72
12
73
8
74
6
42
0.0000001000
43
0.0000001000
44
0.0000000001
40
0.0000000000
40
0.0000000000
40
0.0000000000
40
0.0000000000
40
0.1938183295
40
0.3918562306
40
0.5931748732
40
0.7962800645
40
1.0000000000
40
1.0000000000
40
1.0000000000
40
1.0000000000
10
58.4717761028
20
84.3764539454
30
0.0000000000
10
58.6021112124
20
84.2276295726
30
0.0000000000
10
58.8932153526
20
83.9501419302
30
0.0000000000
10
59.3916990009
20
83.6032024703
30
0.0000000000
10
59.9401367084
20
83.3214070684
30
0.0000000000
10
60.5231557075
20
83.1047659600
30
0.0000000000
10
60.9264841544
20
83.0024002160
30
0.0000000000
10
61.1303585873
20
82.9615104942
30
0.0000000000
11
58.4717761028
21
84.3764539454
31
0.0000000000
11
58.8994257115
21
83.9649454705
31
0.0000000000
11
59.3958126772
21
83.6166256826
31
0.0000000000
11
59.9433565703
21
83.3334172982
31
0.0000000000
11
60.5258840211
21
83.1155925579
31
0.0000000000
11
61.1303585873
21
82.9615104942
31
0.0000000000
0
SPLINE
5
595
100
AcDbEntity
8
0
100
AcDbSpline
62
7
6
CONTINUOUS
70
0
71
3
72
15
73
11
74
9
42
0.0000001000
43
0.0000001000
44
0.0000000001
40
0.0000000000
40
0.0000000000
40
0.0000000000
40
0.0000000000
40
0.1756684085
40
0.3460523070
40
0.5060260615
40
0.6507776883
40
0.7759535813
40
0.8777899900
40
0.9532263438
40
1.0000000000
40
1.0000000000
40
1.0000000000
40
1.0000000000
10
171.4927490549
20
76.8579410726
30
0.0000000000
10
171.4927490549
20
76.9426426722
30
0.0000000000
10
171.4928739984
20
77.1094978752
30
0.0000000000
10
171.4934322748
20
77.3534866884
30
0.0000000000
10
171.4943437561
20
77.5825671779
30
0.0000000000
10
171.4955716693
20
77.7898483867
30
0.0000000000
10
171.4970899272
20
77.9690939472
30
0.0000000000
10
171.4987869117
20
78.1149173164
30
0.0000000000
10
171.5007056969
20
78.2229247928
30
0.0000000000
10
171.5021947960
20
78.2818392381
30
0.0000000000
10
171.5032659451
20
78.3043665240
30
0.0000000000
11
171.4927490549
21
76.8579410726
31
0.0000000000
11
171.4929420927
21
77.1120457981
31
0.0000000000
11
171.4935153977
21
77.3585058729
31
0.0000000000
11
171.4944517182
21
77.5899064206
31
0.0000000000
11
171.4957228797
21
77.7992861577
31
0.0000000000
11
171.4972906340
21
77.9803466174
31
0.0000000000
11
171.4991078155
21
78.1276420322
31
0.0000000000
11
171.5011197587
21
78.2367423597
31
0.0000000000
11
171.5032659451
21
78.3043665240
31
0.0000000000
0
SPLINE
5
596
100
AcDbEntity
8
0
100
AcDbSpline
6
CONTINUOUS
70
0
71
3
72
11
73
7
74
5
42
0.0000001000
43
0.0000001000
44
0.0000000001
40
0.0000000000
40
0.0000000000
40
0.0000000000
40
0.0000000000
40
0.2477497589
40
0.5072612801
40
0.7627806972
40
1.0000000000
40
1.0000000000
40
1.0000000000
40
1.0000000000
10
61.0142740546
20
82.9343971462
30
0.0000000000
10
61.1316500230
20
82.8754369643
30
0.0000000000
10
61.3695408251
20
82.7498622742
30
0.0000000000
10
61.7221442414
20
82.5517774571
30
0.0000000000
10
62.0667705475
20
82.3510186241
30
0.0000000000
10
62.2916308150
20
82.2180357518
30
0.0000000000
10
62.3999243008
20
82.1540793634
30
0.0000000000
11
61.0142740546
21
82.9343971462
31
0.0000000000
11
61.3632129236
21
82.7513057621
31
0.0000000000
11
61.7234491535
21
82.5498005869
31
0.0000000000
11
62.0749185573
21
82.3457362310
31
0.0000000000
11
62.3999243008
21
82.1540793634
31
0.0000000000
0
SPLINE
5
597
100
AcDbEntity
8
0
100
AcDbSpline
6
CONTINUOUS
70
0
71
3
72
11
73
7
74
5
42
0.0000001000
43
0.0000001000
44
0.0000000001
40
0.0000000000
40
0.0000000000
40
0.0000000000
40
0.0000000000
40
0.2501704626
40
0.5097666228
40
0.7640451588
40
1.0000000000
40
1.0000000000
40
1.0000000000
40
1.0000000000
10
60.9384821844
20
82.7425313193
30
0.0000000000
10
61.0621193508
20
82.6980060366
30
0.0000000000
10
61.3126508368
20
82.6033748903
30
0.0000000000
10
61.6850725367
20
82.4537512191
30
0.0000000000
10
62.0487005981
20
82.3023766300
30
0.0000000000
10
62.2859170076
20
82.2021754818
30
0.0000000000
10
62.4001107461
20
82.1539918679
30
0.0000000000
11
60.9384821844
21
82.7425313193
31
0.0000000000
11
61.3075238098
21
82.6038730121
31
0.0000000000
11
61.6873384442
21
82.4519167553
31
0.0000000000
11
62.0574464328
21
82.2983456121
31
0.0000000000
11
62.4001107461
21
82.1539918679
31
0.0000000000
0
SPLINE
5
598
100
AcDbEntity
8
0
100
AcDbSpline
62
7
6
CONTINUOUS
70
0
71
3
72
9
73
5
74
3
42
0.0000001000
43
0.0000001000
44
0.0000000001
40
0.0000000000
40
0.0000000000
40
0.0000000000
40
0.0000000000
40
0.6777046041
40
1.0000000000
40
1.0000000000
40
1.0000000000
40
1.0000000000
10
57.8806658958
20
82.5537647024
30
0.0000000000
10
57.8709560976
20
82.5851372765
30
0.0000000000
10
57.8605543912
20
82.6328077631
30
0.0000000000
10
57.8577286595
20
82.6813855736
30
0.0000000000
10
57.8576990383
20
82.6970393289
30
0.0000000000
11
57.8806658958
21
82.5537647024
31
0.0000000000
11
57.8603370494
21
82.6501670119
31
0.0000000000
11
57.8576990383
21
82.6970393289
31
0.0000000000
0
SPLINE
5
599
100
AcDbEntity
8
0
100
AcDbSpline
62
7
6
CONTINUOUS
70
0
71
3
72
15
73
11
74
9
42
0.0000001000
43
0.0000001000
44
0.0000000001
40
0.0000000000
40
0.0000000000
40
0.0000000000
40
0.0000000000
40
0.0467736703
40
0.1222100749
40
0.2240465600
40
0.3492225093
40
0.4939741283
40
0.6539478140
40
0.8243316314
40
1.0000000000
40
1.0000000000
40
1.0000000000
40
1.0000000000
10
63.4922736647
20
78.3043665240
30
0.0000000000
10
63.4933448141
20
78.2818392314
30
0.0000000000
10
63.4948339137
20
78.2229247547
30
0.0000000000
10
63.4967526997
20
78.1149172102
30
0.0000000000
10
63.4984496846
20
77.9690937524
30
0.0000000000
10
63.4999679422
20
77.7898481317
30
0.0000000000
10
63.5011958548
20
77.5825669328
30
0.0000000000
10
63.5021073354
20
77.3534865194
30
0.0000000000
10
63.5026656114
20
77.1094977976
30
0.0000000000
10
63.5027905549
20
76.9426426529
30
0.0000000000
10
63.5027905549
20
76.8579410726
30
0.0000000000
11
63.4922736647
21
78.3043665240
31
0.0000000000
11
63.4944198516
21
78.2367423394
31
0.0000000000
11
63.4964317957
21
78.1276419383
31
0.0000000000
11
63.4982489779
21
77.9803464129
31
0.0000000000
11
63.4998167321
21
77.7992858717
31
0.0000000000
11
63.5010878930
21
77.5899061461
31
0.0000000000
11
63.5020242126
21
77.3585056979
31
0.0000000000
11
63.5025975172
21
77.1120457404
31
0.0000000000
11
63.5027905549
21
76.8579410726
31
0.0000000000
0
SPLINE
5
59A
100
AcDbEntity
8
0
100
AcDbSpline
62
7
6
CONTINUOUS
70
0
71
3
72
9
73
5
74
3
42
0.0000001000
43
0.0000001000
44
0.0000000001
40
0.0000000000
40
0.0000000000
40
0.0000000000
40
0.0000000000
40
0.6777046041
40
1.0000000000
40
1.0000000000
40
1.0000000000
40
1.0000000000
10
177.1148737140
20
95.5341283024
30
0.0000000000
10
177.1245835122
20
95.5027557283
30
0.0000000000
10
177.1349852186
20
95.4550852417
30
0.0000000000
10
177.1378109502
20
95.4065074311
30
0.0000000000
10
177.1378405714
20
95.3908536759
30
0.0000000000
11
177.1148737140
21
95.5341283024
31
0.0000000000
11
177.1352025604
21
95.4377259928
31
0.0000000000
11
177.1378405714
21
95.3908536759
31
0.0000000000
0
SPLINE
5
59B
100
AcDbEntity
8
0
100
AcDbSpline
62
7
6
CONTINUOUS
70
0
71
3
72
9
73
5
74
3
42
0.0000001000
43
0.0000001000
44
0.0000000001
40
0.0000000000
40
0.0000000000
40
0.0000000000
40
0.0000000000
40
0.3222953959
40
1.0000000000
40
1.0000000000
40
1.0000000000
40
1.0000000000
10
57.8576990383
20
95.3908536759
30
0.0000000000
10
57.8577286595
20
95.4065074311
30
0.0000000000
10
57.8605543912
20
95.4550852417
30
0.0000000000
10
57.8709560976
20
95.5027557283
30
0.0000000000
10
57.8806658958
20
95.5341283024
30
0.0000000000
11
57.8576990383
21
95.3908536759
31
0.0000000000
11
57.8603370494
21
95.4377259928
31
0.0000000000
11
57.8806658958
21
95.5341283024
31
0.0000000000
0
SPLINE
5
59C
100
AcDbEntity
8
0
100
AcDbSpline
62
7
6
CONTINUOUS
70
0
71
3
72
11
73
7
74
5
42
0.0000001000
43
0.0000001000
44
0.0000000001
40
0.0000000000
40
0.0000000000
40
0.0000000000
40
0.0000000000
40
0.0761323398
40
0.2929229717
40
0.6173454497
40
1.0000000000
40
1.0000000000
40
1.0000000000
40
1.0000000000
10
128.8702938049
20
106.7890055024
30
0.0000000000
10
128.8698595264
20
106.7641257075
30
0.0000000000
10
128.8681886185
20
106.6683994567
30
0.0000000000
10
128.8646671214
20
106.4666530216
30
0.0000000000
10
128.8593971428
20
106.1647361498
30
0.0000000000
10
128.8553637937
20
105.9336657339
30
0.0000000000
10
128.8531810338
20
105.8086155024
30
0.0000000000
11
128.8702938049
21
106.7890055024
31
0.0000000000
11
128.8689909696
21
106.7143661177
31
0.0000000000
11
128.8652810811
21
106.5018267501
31
0.0000000000
11
128.8597293135
21
106.1837661969
31
0.0000000000
11
128.8531810338
21
105.8086155024
31
0.0000000000
0
SPLINE
5
59D
100
AcDbEntity
8
0
100
AcDbSpline
62
7
6
CONTINUOUS
70
0
71
3
72
9
73
5
74
3
42
0.0000001000
43
0.0000001000
44
0.0000000001
40
0.0000000000
40
0.0000000000
40
0.0000000000
40
0.0000000000
40
0.3222953959
40
1.0000000000
40
1.0000000000
40
1.0000000000
40
1.0000000000
10
177.1378405714
20
82.6970393289
30
0.0000000000
10
177.1378109502
20
82.6813855736
30
0.0000000000
10
177.1349852186
20
82.6328077631
30
0.0000000000
10
177.1245835122
20
82.5851372765
30
0.0000000000
10
177.1148737140
20
82.5537647024
30
0.0000000000
11
177.1378405714
21
82.6970393289
31
0.0000000000
11
177.1352025604
21
82.6501670119
31
0.0000000000
11
177.1148737140
21
82.5537647024
31
0.0000000000
0
SPLINE
5
59E
100
AcDbEntity
8
0
100
AcDbSpline
62
7
6
CONTINUOUS
70
0
71
3
72
11
73
7
74
5
42
0.0000001000
43
0.0000001000
44
0.0000000001
40
0.0000000000
40
0.0000000000
40
0.0000000000
40
0.0000000000
40
0.0761323398
40
0.2929229717
40
0.6173454497
40
1.0000000000
40
1.0000000000
40
1.0000000000
40
1.0000000000
10
128.8702938049
20
71.2988875024
30
0.0000000000
10
128.8698595264
20
71.3237672972
30
0.0000000000
10
128.8681886185
20
71.4194935480
30
0.0000000000
10
128.8646671214
20
71.6212399832
30
0.0000000000
10
128.8593971428
20
71.9231568549
30
0.0000000000
10
128.8553637937
20
72.1542272709
30
0.0000000000
10
128.8531810338
20
72.2792775024
30
0.0000000000
11
128.8702938049
21
71.2988875024
31
0.0000000000
11
128.8689909696
21
71.3735268870
31
0.0000000000
11
128.8652810811
21
71.5860662546
31
0.0000000000
11
128.8597293135
21
71.9041268078
31
0.0000000000
11
128.8531810338
21
72.2792775024
31
0.0000000000
0
SPLINE
5
59F
100
AcDbEntity
8
0
100
AcDbSpline
6
CONTINUOUS
70
0
71
3
72
9
73
5
74
3
42
0.0000001000
43
0.0000001000
44
0.0000000001
40
0.0000000000
40
0.0000000000
40
0.0000000000
40
0.0000000000
40
0.4720029502
40
1.0000000000
40
1.0000000000
40
1.0000000000
40
1.0000000000
10
58.5026842726
20
84.4165057024
30
0.0000000000
10
58.4896896759
20
84.4165199810
30
0.0000000000
10
58.4621675125
20
84.4142852156
30
0.0000000000
10
58.4351323757
20
84.4079299944
30
0.0000000000
10
58.4215562831
20
84.4027348225
30
0.0000000000
11
58.5026842726
21
84.4165057024
31
0.0000000000
11
58.4638170944
21
84.4134923662
31
0.0000000000
11
58.4215562831
21
84.4027348225
31
0.0000000000
0
SPLINE
5
5A0
100
AcDbEntity
8
0
100
AcDbSpline
62
7
6
CONTINUOUS
70
0
71
3
72
14
73
10
74
8
42
0.0000001000
43
0.0000001000
44
0.0000000001
40
0.0000000000
40
0.0000000000
40
0.0000000000
40
0.0000000000
40
0.0598808134
40
0.1689939450
40
0.3147501108
40
0.4886682291
40
0.6695064917
40
0.8465479989
40
1.0000000000
40
1.0000000000
40
1.0000000000
40
1.0000000000
10
63.3665084665
20
97.1385645334
30
0.0000000000
10
63.3646336395
20
97.0984432837
30
0.0000000000
10
63.3629652510
20
96.9850768432
30
0.0000000000
10
63.3603815522
20
96.7739906563
30
0.0000000000
10
63.3587956410
20
96.4863771055
30
0.0000000000
10
63.3577792142
20
96.1506626535
30
0.0000000000
10
63.3576962316
20
95.7939581244
30
0.0000000000
10
63.3584783907
20
95.4509833732
30
0.0000000000
10
63.3596404642
20
95.2293073676
30
0.0000000000
10
63.3604273166
20
95.1263825105
30
0.0000000000
11
63.3665084665
21
97.1385645334
31
0.0000000000
11
63.3634865971
21
97.0181073411
31
0.0000000000
11
63.3608930263
21
96.7985598992
31
0.0000000000
11
63.3590106406
21
96.5052682804
31
0.0000000000
11
63.3579531121
21
96.1553033655
31
0.0000000000
11
63.3578496750
21
95.7914118160
31
0.0000000000
11
63.3587028747
21
95.4351612895
31
0.0000000000
11
63.3604273166
21
95.1263825105
31
0.0000000000
0
ENDSEC
0
SECTION
2
OBJECTS
0
DICTIONARY
5
5A1
100
AcDbDictionary
3
ACAD_GROUP
350
5A2
3
ACAD_MLINESTYLE
350
5A3
0
DICTIONARY
5
5A2
102
{ACAD_REACTORS
330
5A1
102
}
100
AcDbDictionary
0
DICTIONARY
5
5A3
102
{ACAD_REACTORS
330
5A1
102
}
100
AcDbDictionary
3
STANDARD
350
5A4
0
MLINESTYLE
5
5A4
102
{ACAD_REACTORS
330
5A3
102
}
100
AcDbMlineStyle
2
STANDARD
70
0
3

62
256
51
90.0
52
90.0
71
2
49
0.5
62
256
6
BYLAYER
49
-0.5
62
256
6
BYLAYER
0
ENDSEC
0
EOF
