999
DXF file: W:\Tecnico\Pubblico\Pubblico di Antonio\Per_Camparini\Disegni1873\catena1873-k473gs3j.dxf
999
Pro/ENGINEER 2002030 by Parametric Technology Corporation
0
SECTION
2
HEADER
9
$ACADVER
1
AC1014
9
$EXTMAX
10
420.0000000000
20
297.0000000000
9
$EXTMIN
10
0.0000000000
20
0.0000000000
9
$LIMMIN
10
0.0000000000
20
0.0000000000
9
$LIMMAX
10
420.0000000000
20
297.0000000000
9
$VIEWCTR
10
210.0000000000
20
148.5000000000
9
$VIEWSIZE
40
297.0000000000
9
$CLAYER
8
0
9
$LTSCALE
40
23.1000000000
9
$CELTYPE
6
BYLAYER
9
$DIMSCALE
40
1
9
$DIMASZ
40
3.5000000000
9
$DIMEXO
40
2.6250000000
9
$DIMDLI
40
15.9600000000
9
$DIMEXE
40
7.5600000000
9
$DIMCEN
40
3.7800000000
9
$DIMLFAC
40
1.0000000000
9
$DIMTXT
40
3.5000000000
9
$DIMTOL
70
1
9
$DIMLIM
70
0
9
$DIMTFAC
40
1.0000000000
9
$DIMTP
40
0.0010000000
9
$DIMTM
40
0.0010000000
9
$HANDSEED
5
594
0
ENDSEC
0
SECTION
2
CLASSES
0
ENDSEC
0
SECTION
2
TABLES
0
TABLE
2
VPORT
5
8
100
AcDbSymbolTable
70
2
0
VPORT
5
1F4
100
AcDbSymbolTableRecord
100
AcDbViewportTableRecord
2
*ACTIVE
70
0
10
0.0
20
0.0
11
1.0
21
1.0
12
210.0000000000
22
148.5000000000
13
0.0
23
0.0
14
1.0
24
1.0
15
0.0
25
0.0
16
0.0
26
0.0
36
1.0
17
0.0
27
0.0
37
0.0
40
297.0000000000
41
1.4141414141
42
50.0
43
0.0
44
0.0
50
0.0
51
0.0
71
0
72
100
73
1
74
1
75
0
76
0
77
0
78
0
0
ENDTAB
0
TABLE
2
LTYPE
5
5
100
AcDbSymbolTable
70
6
0
LTYPE
5
14
100
AcDbSymbolTableRecord
100
AcDbLinetypeTableRecord
2
BYBLOCK
70
0
3

72
65
73
0
40
0.0
0
LTYPE
5
15
100
AcDbSymbolTableRecord
100
AcDbLinetypeTableRecord
2
BYLAYER
70
0
3

72
65
73
0
40
0.0
0
LTYPE
5
16
100
AcDbSymbolTableRecord
100
AcDbLinetypeTableRecord
2
CONTINUOUS
70
64
3
Solid line
72
65
73
0
40
0
0
LTYPE
5
1F5
100
AcDbSymbolTableRecord
100
AcDbLinetypeTableRecord
2
CENTER
70
64
3
____ _ ____ _ ____ _ ____ _ ____ _ ____ _ ____
72
65
73
4
40
0.6
49
0.375
74
0
49
-0.075
74
0
49
0.075
74
0
49
-0.075
74
0
0
LTYPE
5
1F6
100
AcDbSymbolTableRecord
100
AcDbLinetypeTableRecord
2
HIDDEN
70
64
3
- - - - - - - - - - - - - - - - - - - -
72
65
73
2
40
0.2
49
0.1
74
0
49
-0.1
74
0
0
LTYPE
5
1F7
100
AcDbSymbolTableRecord
100
AcDbLinetypeTableRecord
2
PHANTOM
70
64
3
_____ _ _ _____ _ _ _____ _ _ _____
72
65
73
6
40
0.8
49
0.45
74
0
49
-0.05
74
0
49
0.1
74
0
49
-0.05
74
0
49
0.1
74
0
49
-0.05
74
0
0
LTYPE
5
1F8
100
AcDbSymbolTableRecord
100
AcDbLinetypeTableRecord
2
DOT
70
64
3
. . . . . . . . . . . . . . . . . . . .
72
65
73
2
40
0.2
49
0.1
74
0
49
-0.1
74
0
0
LTYPE
5
1F9
100
AcDbSymbolTableRecord
100
AcDbLinetypeTableRecord
2
DASHED
70
64
3
- - - - - - - - - - - - - - - - - - - -
72
65
73
2
40
0.2
49
0.1
74
0
49
-0.1
74
0
0
ENDTAB
0
TABLE
2
LAYER
5
2
100
AcDbSymbolTable
70
36
0
LAYER
5
10
100
AcDbSymbolTableRecord
100
AcDbLayerTableRecord
2
0
70
0
62
7
6
CONTINUOUS
0
LAYER
5
1FA
100
AcDbSymbolTableRecord
100
AcDbLayerTableRecord
2
DEFAULT_1
70
0
62
7
6
CENTER
0
LAYER
5
1FB
100
AcDbSymbolTableRecord
100
AcDbLayerTableRecord
2
DEFAULT_2
70
0
62
8
6
HIDDEN
0
LAYER
5
1FC
100
AcDbSymbolTableRecord
100
AcDbLayerTableRecord
2
DEFAULT_3
70
0
62
7
6
PHANTOM
0
ENDTAB
0
TABLE
2
STYLE
5
3
100
AcDbSymbolTable
70
1
0
STYLE
5
11
100
AcDbSymbolTableRecord
100
AcDbTextStyleTableRecord
2
STANDARD
70
0
40
0.0
41
0.7143000000
50
0.0
71
0
42
0.0
3
txt
4

0
ENDTAB
0
TABLE
2
VIEW
5
6
100
AcDbSymbolTable
70
0
0
ENDTAB
0
TABLE
2
UCS
5
7
100
AcDbSymbolTable
70
0
0
ENDTAB
0
TABLE
2
APPID
5
9
100
AcDbSymbolTable
70
1
0
APPID
5
1FD
100
AcDbSymbolTableRecord
100
AcDbRegAppTableRecord
2
ACAD
70
0
0
ENDTAB
0
TABLE
2
DIMSTYLE
5
A
100
AcDbSymbolTable
70
1
0
DIMSTYLE
105
1FE
100
AcDbSymbolTableRecord
100
AcDbDimStyleTableRecord
2
STANDARD
70
0
3

4

5

6

7

40
1.0
41
3.5000000000
42
0.0625
43
0.38
44
0.18
45
0.0
46
0.0
47
0.0010000000
48
0.0010000000
140
3.5000000000
141
0.09
142
0.0
143
25.4
144
1.0000000000
145
0.0
146
1.0000000000
147
0.09
71
1
72
0
73
0
74
0
75
0
76
0
77
1
78
8
170
0
171
2
172
0
173
0
174
0
175
0
176
0
177
0
178
5
270
2
271
3
272
3
273
2
274
2
340
11
275
0
280
0
281
0
282
0
283
1
284
8
285
0
286
0
287
3
288
0
0
ENDTAB
0
TABLE
2
BLOCK_RECORD
5
1
100
AcDbSymbolTable
70
0
0
BLOCK_RECORD
5
1B
100
AcDbSymbolTableRecord
100
AcDbBlockTableRecord
2
*MODEL_SPACE
0
BLOCK_RECORD
5
1C
100
AcDbSymbolTableRecord
100
AcDbBlockTableRecord
2
*PAPER_SPACE
0
ENDTAB
0
ENDSEC
0
SECTION
2
BLOCKS
0
BLOCK
5
1E
100
AcDbEntity
8
0
100
AcDbBlockBegin
2
*MODEL_SPACE
70
0
10
0.0
20
0.0
30
0.0
3
*MODEL_SPACE
1

0
ENDBLK
5
1F
100
AcDbEntity
8
0
100
AcDbBlockEnd
0
BLOCK
5
20
100
AcDbEntity
8
0
100
AcDbBlockBegin
2
*PAPER_SPACE
70
0
10
0.0
20
0.0
30
0.0
3
*PAPER_SPACE
1

0
ENDBLK
5
21
100
AcDbEntity
8
0
100
AcDbBlockEnd
0
ENDSEC
0
SECTION
2
ENTITIES
0
LINE
5
1FF
100
AcDbEntity
8
0
100
AcDbLine
62
7
6
CONTINUOUS
10
0.0000000000
20
0.0000000000
11
0.0000000000
21
297.0000000000
0
LINE
5
200
100
AcDbEntity
8
0
100
AcDbLine
62
7
6
CONTINUOUS
10
0.0000000000
20
0.0000000000
11
420.0000000000
21
0.0000000000
0
LINE
5
201
100
AcDbEntity
8
0
100
AcDbLine
62
7
6
CONTINUOUS
10
0.0000000000
20
297.0000000000
11
420.0000000000
21
297.0000000000
0
LINE
5
202
100
AcDbEntity
8
0
100
AcDbLine
62
7
6
CONTINUOUS
10
420.0000000000
20
0.0000000000
11
420.0000000000
21
297.0000000000
0
LINE
5
203
100
AcDbEntity
8
0
100
AcDbLine
62
7
6
CONTINUOUS
10
63.0803443880
20
200.2073864526
11
63.0800803880
21
215.4720598126
0
LINE
5
204
100
AcDbEntity
8
0
100
AcDbLine
6
CONTINUOUS
10
64.0607343880
20
215.1385167159
11
64.0607343880
21
203.2465954526
0
LINE
5
205
100
AcDbEntity
8
0
100
AcDbLine
62
7
6
CONTINUOUS
10
68.9402189330
20
219.8635774510
11
69.0852331380
21
203.2465954526
0
LINE
5
206
100
AcDbEntity
8
0
100
AcDbLine
6
CONTINUOUS
10
65.9195265192
20
200.0161161373
11
65.9188690352
21
202.2662054526
0
LINE
5
207
100
AcDbEntity
8
0
100
AcDbLine
62
7
6
CONTINUOUS
10
69.5800803880
20
215.9720598126
11
69.5800803880
21
215.4720598126
0
POLYLINE
5
208
100
AcDbEntity
8
0
100
AcDb2dPolyline
6
CONTINUOUS
66
1
70
0
0
VERTEX
5
209
100
AcDbEntity
8
0
100
AcDbVertex
6
CONTINUOUS
100
AcDb2dVertex
10
65.9530841528
20
203.2465954526
0
VERTEX
5
20A
100
AcDbEntity
8
0
100
AcDbVertex
6
CONTINUOUS
100
AcDb2dVertex
10
65.9464091147
20
203.2277575337
0
VERTEX
5
20B
100
AcDbEntity
8
0
100
AcDbVertex
6
CONTINUOUS
100
AcDb2dVertex
10
65.9399905950
20
203.1719677077
0
VERTEX
5
20C
100
AcDbEntity
8
0
100
AcDbVertex
6
CONTINUOUS
100
AcDb2dVertex
10
65.9340752537
20
203.0813699464
0
VERTEX
5
20D
100
AcDbEntity
8
0
100
AcDbVertex
6
CONTINUOUS
100
AcDb2dVertex
10
65.9288904140
20
202.9594458708
0
VERTEX
5
20E
100
AcDbEntity
8
0
100
AcDbVertex
6
CONTINUOUS
100
AcDb2dVertex
10
65.9246353268
20
202.8108809545
0
VERTEX
5
20F
100
AcDbEntity
8
0
100
AcDbVertex
6
CONTINUOUS
100
AcDb2dVertex
10
65.9214735112
20
202.6413844640
0
VERTEX
5
210
100
AcDbEntity
8
0
100
AcDbVertex
6
CONTINUOUS
100
AcDb2dVertex
10
65.9195264727
20
202.4574700541
0
VERTEX
5
211
100
AcDbEntity
8
0
100
AcDbVertex
6
CONTINUOUS
100
AcDb2dVertex
10
65.9188690352
20
202.2662054526
0
SEQEND
5
212
100
AcDbEntity
8
0
0
POLYLINE
5
213
100
AcDbEntity
8
0
100
AcDb2dPolyline
6
CONTINUOUS
66
1
70
0
0
VERTEX
5
214
100
AcDbEntity
8
0
100
AcDbVertex
6
CONTINUOUS
100
AcDb2dVertex
10
65.9530841528
20
199.2269964526
0
VERTEX
5
215
100
AcDbEntity
8
0
100
AcDbVertex
6
CONTINUOUS
100
AcDb2dVertex
10
65.9464093606
20
199.2458329991
0
VERTEX
5
216
100
AcDbEntity
8
0
100
AcDbVertex
6
CONTINUOUS
100
AcDb2dVertex
10
65.9399909886
20
199.3016196280
0
VERTEX
5
217
100
AcDbEntity
8
0
100
AcDbVertex
6
CONTINUOUS
100
AcDb2dVertex
10
65.9340756914
20
199.3922137830
0
VERTEX
5
218
100
AcDbEntity
8
0
100
AcDbVertex
6
CONTINUOUS
100
AcDb2dVertex
10
65.9288908046
20
199.5141351669
0
VERTEX
5
219
100
AcDbEntity
8
0
100
AcDbVertex
6
CONTINUOUS
100
AcDb2dVertex
10
65.9246356024
20
199.6626995522
0
VERTEX
5
21A
100
AcDbEntity
8
0
100
AcDbVertex
6
CONTINUOUS
100
AcDb2dVertex
10
65.9214736570
20
199.8321978984
0
VERTEX
5
21B
100
AcDbEntity
8
0
100
AcDbVertex
6
CONTINUOUS
100
AcDb2dVertex
10
65.9195265192
20
200.0161161373
0
SEQEND
5
21C
100
AcDbEntity
8
0
0
LINE
5
21D
100
AcDbEntity
8
0
100
AcDbLine
62
7
6
CONTINUOUS
10
72.5302123880
20
203.2465954526
11
67.0305923505
21
233.4445091128
0
POLYLINE
5
21E
100
AcDbEntity
8
0
100
AcDb2dPolyline
6
CONTINUOUS
66
1
70
0
0
VERTEX
5
21F
100
AcDbEntity
8
0
100
AcDbVertex
6
CONTINUOUS
100
AcDb2dVertex
10
94.6979218880
20
175.3741077526
0
VERTEX
5
220
100
AcDbEntity
8
0
100
AcDbVertex
6
CONTINUOUS
100
AcDb2dVertex
10
94.7167598069
20
175.3450119338
0
VERTEX
5
221
100
AcDbEntity
8
0
100
AcDbVertex
6
CONTINUOUS
100
AcDb2dVertex
10
94.7725496331
20
175.3170342511
0
VERTEX
5
222
100
AcDbEntity
8
0
100
AcDbVertex
6
CONTINUOUS
100
AcDb2dVertex
10
94.8631473948
20
175.2912498710
0
VERTEX
5
223
100
AcDbEntity
8
0
100
AcDbVertex
6
CONTINUOUS
100
AcDb2dVertex
10
94.9850714707
20
175.2686496728
0
VERTEX
5
224
100
AcDbEntity
8
0
100
AcDbVertex
6
CONTINUOUS
100
AcDb2dVertex
10
95.1336363872
20
175.2501021695
0
VERTEX
5
225
100
AcDbEntity
8
0
100
AcDbVertex
6
CONTINUOUS
100
AcDb2dVertex
10
95.3031328777
20
175.2363201313
0
VERTEX
5
226
100
AcDbEntity
8
0
100
AcDbVertex
6
CONTINUOUS
100
AcDb2dVertex
10
95.4870472872
20
175.2278331940
0
VERTEX
5
227
100
AcDbEntity
8
0
100
AcDbVertex
6
CONTINUOUS
100
AcDb2dVertex
10
95.6783118880
20
175.2249675060
0
SEQEND
5
228
100
AcDbEntity
8
0
0
POLYLINE
5
229
100
AcDbEntity
8
0
100
AcDb2dPolyline
6
CONTINUOUS
66
1
70
0
0
VERTEX
5
22A
100
AcDbEntity
8
0
100
AcDbVertex
6
CONTINUOUS
100
AcDb2dVertex
10
94.6979218880
20
176.8893462010
0
VERTEX
5
22B
100
AcDbEntity
8
0
100
AcDbVertex
6
CONTINUOUS
100
AcDb2dVertex
10
94.7098434273
20
176.8661587878
0
VERTEX
5
22C
100
AcDbEntity
8
0
100
AcDbVertex
6
CONTINUOUS
100
AcDb2dVertex
10
94.7454539118
20
176.8434713392
0
VERTEX
5
22D
100
AcDbEntity
8
0
100
AcDbVertex
6
CONTINUOUS
100
AcDb2dVertex
10
94.8041323409
20
176.8218310603
0
VERTEX
5
22E
100
AcDbEntity
8
0
100
AcDbVertex
6
CONTINUOUS
100
AcDb2dVertex
10
94.8844767419
20
176.8018269432
0
VERTEX
5
22F
100
AcDbEntity
8
0
100
AcDbVertex
6
CONTINUOUS
100
AcDb2dVertex
10
94.9843495636
20
176.7839980547
0
VERTEX
5
230
100
AcDbEntity
8
0
100
AcDbVertex
6
CONTINUOUS
100
AcDb2dVertex
10
95.1013544969
20
176.7687664915
0
VERTEX
5
231
100
AcDbEntity
8
0
100
AcDbVertex
6
CONTINUOUS
100
AcDb2dVertex
10
95.2326396320
20
176.7565066115
0
VERTEX
5
232
100
AcDbEntity
8
0
100
AcDbVertex
6
CONTINUOUS
100
AcDb2dVertex
10
95.3749440344
20
176.7475257120
0
VERTEX
5
233
100
AcDbEntity
8
0
100
AcDbVertex
6
CONTINUOUS
100
AcDb2dVertex
10
95.5247318541
20
176.7420472600
0
VERTEX
5
234
100
AcDbEntity
8
0
100
AcDbVertex
6
CONTINUOUS
100
AcDb2dVertex
10
95.6783118880
20
176.7402059544
0
SEQEND
5
235
100
AcDbEntity
8
0
0
LINE
5
236
100
AcDbEntity
8
0
100
AcDbLine
62
7
6
CONTINUOUS
10
94.6979218880
20
175.3741077526
11
94.6979218880
21
177.4623384526
0
LINE
5
237
100
AcDbEntity
8
0
100
AcDbLine
6
CONTINUOUS
10
95.6783118880
20
174.3937177526
11
95.6783118880
21
178.4427284526
0
POLYLINE
5
238
100
AcDbEntity
8
0
100
AcDb2dPolyline
6
CONTINUOUS
66
1
70
0
0
VERTEX
5
239
100
AcDbEntity
8
0
100
AcDbVertex
6
CONTINUOUS
100
AcDb2dVertex
10
150.4821128880
20
175.2249675060
0
VERTEX
5
23A
100
AcDbEntity
8
0
100
AcDbVertex
6
CONTINUOUS
100
AcDb2dVertex
10
150.6733774888
20
175.2278331940
0
VERTEX
5
23B
100
AcDbEntity
8
0
100
AcDbVertex
6
CONTINUOUS
100
AcDb2dVertex
10
150.8572918982
20
175.2363201313
0
VERTEX
5
23C
100
AcDbEntity
8
0
100
AcDbVertex
6
CONTINUOUS
100
AcDb2dVertex
10
151.0267883887
20
175.2501021695
0
VERTEX
5
23D
100
AcDbEntity
8
0
100
AcDbVertex
6
CONTINUOUS
100
AcDb2dVertex
10
151.1753533052
20
175.2686496728
0
VERTEX
5
23E
100
AcDbEntity
8
0
100
AcDbVertex
6
CONTINUOUS
100
AcDb2dVertex
10
151.2972773812
20
175.2912498710
0
VERTEX
5
23F
100
AcDbEntity
8
0
100
AcDbVertex
6
CONTINUOUS
100
AcDb2dVertex
10
151.3878751428
20
175.3170342511
0
VERTEX
5
240
100
AcDbEntity
8
0
100
AcDbVertex
6
CONTINUOUS
100
AcDb2dVertex
10
151.4436649690
20
175.3450119338
0
VERTEX
5
241
100
AcDbEntity
8
0
100
AcDbVertex
6
CONTINUOUS
100
AcDb2dVertex
10
151.4625028880
20
175.3741077526
0
SEQEND
5
242
100
AcDbEntity
8
0
0
LINE
5
243
100
AcDbEntity
8
0
100
AcDbLine
62
7
6
CONTINUOUS
10
150.4821128880
20
174.3937177526
11
134.6694531280
21
174.3937177526
0
LINE
5
244
100
AcDbEntity
8
0
100
AcDbLine
62
7
6
CONTINUOUS
10
111.4909716479
20
174.3937177526
11
95.6783118880
21
174.3937177526
0
LINE
5
245
100
AcDbEntity
8
0
100
AcDbLine
6
CONTINUOUS
10
150.4821128880
20
175.2249675060
11
134.6621989213
21
175.2249675060
0
LINE
5
246
100
AcDbEntity
8
0
100
AcDbLine
6
CONTINUOUS
10
111.4982258546
20
175.2249675060
11
95.6783118880
21
175.2249675060
0
LINE
5
247
100
AcDbEntity
8
0
100
AcDbLine
6
CONTINUOUS
10
95.6783118880
20
176.7402059544
11
106.2273082880
21
176.7402059544
0
LINE
5
248
100
AcDbEntity
8
0
100
AcDbLine
6
CONTINUOUS
10
139.9331162195
20
176.7402059544
11
150.4821128880
21
176.7402059544
0
LINE
5
249
100
AcDbEntity
8
0
100
AcDbLine
6
CONTINUOUS
10
95.6783118880
20
177.7383888466
11
106.2273082880
21
177.7383888466
0
LINE
5
24A
100
AcDbEntity
8
0
100
AcDbLine
6
CONTINUOUS
10
139.9331164880
20
177.7383888466
11
150.4821128880
21
177.7383888466
0
POLYLINE
5
24B
100
AcDbEntity
8
0
100
AcDb2dPolyline
6
CONTINUOUS
66
1
70
0
0
VERTEX
5
24C
100
AcDbEntity
8
0
100
AcDbVertex
6
CONTINUOUS
100
AcDb2dVertex
10
94.6979218880
20
177.4623384526
0
VERTEX
5
24D
100
AcDbEntity
8
0
100
AcDbVertex
6
CONTINUOUS
100
AcDb2dVertex
10
94.7097650130
20
177.5939102097
0
VERTEX
5
24E
100
AcDbEntity
8
0
100
AcDbVertex
6
CONTINUOUS
100
AcDb2dVertex
10
94.7452355991
20
177.7229145326
0
VERTEX
5
24F
100
AcDbEntity
8
0
100
AcDbVertex
6
CONTINUOUS
100
AcDb2dVertex
10
94.8038844280
20
177.8462731827
0
VERTEX
5
250
100
AcDbEntity
8
0
100
AcDbVertex
6
CONTINUOUS
100
AcDb2dVertex
10
94.8843466363
20
177.9604225804
0
VERTEX
5
251
100
AcDbEntity
8
0
100
AcDbVertex
6
CONTINUOUS
100
AcDb2dVertex
10
94.9844068073
20
178.0621260969
0
VERTEX
5
252
100
AcDbEntity
8
0
100
AcDbVertex
6
CONTINUOUS
100
AcDb2dVertex
10
95.1016589245
20
178.1489802324
0
VERTEX
5
253
100
AcDbEntity
8
0
100
AcDbVertex
6
CONTINUOUS
100
AcDb2dVertex
10
95.2332448240
20
178.2188501151
0
VERTEX
5
254
100
AcDbEntity
8
0
100
AcDbVertex
6
CONTINUOUS
100
AcDb2dVertex
10
95.3757111359
20
178.2699262204
0
SEQEND
5
255
100
AcDbEntity
8
0
0
POLYLINE
5
256
100
AcDbEntity
8
0
100
AcDb2dPolyline
6
CONTINUOUS
66
1
70
0
0
VERTEX
5
257
100
AcDbEntity
8
0
100
AcDbVertex
6
CONTINUOUS
100
AcDb2dVertex
10
94.6979218880
20
176.8893462010
0
VERTEX
5
258
100
AcDbEntity
8
0
100
AcDbVertex
6
CONTINUOUS
100
AcDb2dVertex
10
94.7099921157
20
177.0221657330
0
VERTEX
5
259
100
AcDbEntity
8
0
100
AcDbVertex
6
CONTINUOUS
100
AcDb2dVertex
10
94.7459055899
20
177.1517148074
0
SEQEND
5
25A
100
AcDbEntity
8
0
0
POLYLINE
5
25B
100
AcDbEntity
8
0
100
AcDb2dPolyline
6
CONTINUOUS
66
1
70
0
0
VERTEX
5
25C
100
AcDbEntity
8
0
100
AcDbVertex
6
CONTINUOUS
100
AcDb2dVertex
10
106.2273082880
20
177.7383888466
0
VERTEX
5
25D
100
AcDbEntity
8
0
100
AcDbVertex
6
CONTINUOUS
100
AcDb2dVertex
10
106.4185699319
20
177.7547024520
0
VERTEX
5
25E
100
AcDbEntity
8
0
100
AcDbVertex
6
CONTINUOUS
100
AcDb2dVertex
10
106.6024823550
20
177.8030165939
0
VERTEX
5
25F
100
AcDbEntity
8
0
100
AcDbVertex
6
CONTINUOUS
100
AcDb2dVertex
10
106.7719778881
20
177.8814749155
0
VERTEX
5
260
100
AcDbEntity
8
0
100
AcDbVertex
6
CONTINUOUS
100
AcDb2dVertex
10
106.9205430593
20
177.9870627876
0
VERTEX
5
261
100
AcDbEntity
8
0
100
AcDbVertex
6
CONTINUOUS
100
AcDb2dVertex
10
107.0424684503
20
178.1157230551
0
VERTEX
5
262
100
AcDbEntity
8
0
100
AcDbVertex
6
CONTINUOUS
100
AcDb2dVertex
10
107.1330680675
20
178.2625117595
0
VERTEX
5
263
100
AcDbEntity
8
0
100
AcDbVertex
6
CONTINUOUS
100
AcDb2dVertex
10
107.1888596173
20
178.4217882139
0
SEQEND
5
264
100
AcDbEntity
8
0
0
POLYLINE
5
265
100
AcDbEntity
8
0
100
AcDb2dPolyline
6
CONTINUOUS
66
1
70
0
0
VERTEX
5
266
100
AcDbEntity
8
0
100
AcDbVertex
6
CONTINUOUS
100
AcDb2dVertex
10
106.2273082880
20
178.3113810982
0
VERTEX
5
267
100
AcDbEntity
8
0
100
AcDbVertex
6
CONTINUOUS
100
AcDb2dVertex
10
106.4185728888
20
178.3276952145
0
VERTEX
5
268
100
AcDbEntity
8
0
100
AcDbVertex
6
CONTINUOUS
100
AcDb2dVertex
10
106.6024872982
20
178.3760106213
0
VERTEX
5
269
100
AcDbEntity
8
0
100
AcDbVertex
6
CONTINUOUS
100
AcDb2dVertex
10
106.7719837887
20
178.4544705844
0
VERTEX
5
26A
100
AcDbEntity
8
0
100
AcDbVertex
6
CONTINUOUS
100
AcDb2dVertex
10
106.9205487052
20
178.5600599316
0
VERTEX
5
26B
100
AcDbEntity
8
0
100
AcDbVertex
6
CONTINUOUS
100
AcDb2dVertex
10
107.0424727812
20
178.6887209233
0
VERTEX
5
26C
100
AcDbEntity
8
0
100
AcDbVertex
6
CONTINUOUS
100
AcDb2dVertex
10
107.1330705428
20
178.8355091899
0
SEQEND
5
26D
100
AcDbEntity
8
0
0
LINE
5
26E
100
AcDbEntity
8
0
100
AcDbLine
6
CONTINUOUS
10
150.4821128880
20
178.3113810982
11
139.9331164880
21
178.3113810982
0
LINE
5
26F
100
AcDbEntity
8
0
100
AcDbLine
6
CONTINUOUS
10
106.2273082880
20
178.3113810982
11
95.6783118880
21
178.3113810982
0
LINE
5
270
100
AcDbEntity
8
0
100
AcDbLine
62
7
6
CONTINUOUS
10
150.4821128880
20
178.4427284526
11
139.9331164880
21
178.4427284526
0
LINE
5
271
100
AcDbEntity
8
0
100
AcDbLine
62
7
6
CONTINUOUS
10
106.2273082880
20
178.4427284526
11
95.6783118880
21
178.4427284526
0
POLYLINE
5
272
100
AcDbEntity
8
0
100
AcDb2dPolyline
6
CONTINUOUS
66
1
70
0
0
VERTEX
5
273
100
AcDbEntity
8
0
100
AcDbVertex
6
CONTINUOUS
100
AcDb2dVertex
10
139.9331164880
20
177.7383888466
0
VERTEX
5
274
100
AcDbEntity
8
0
100
AcDbVertex
6
CONTINUOUS
100
AcDb2dVertex
10
139.7418518872
20
177.7547029629
0
VERTEX
5
275
100
AcDbEntity
8
0
100
AcDbVertex
6
CONTINUOUS
100
AcDb2dVertex
10
139.5579374777
20
177.8030183697
0
VERTEX
5
276
100
AcDbEntity
8
0
100
AcDbVertex
6
CONTINUOUS
100
AcDb2dVertex
10
139.3884409872
20
177.8814783328
0
VERTEX
5
277
100
AcDbEntity
8
0
100
AcDbVertex
6
CONTINUOUS
100
AcDb2dVertex
10
139.2398760707
20
177.9870676800
0
VERTEX
5
278
100
AcDbEntity
8
0
100
AcDbVertex
6
CONTINUOUS
100
AcDb2dVertex
10
139.1179519948
20
178.1157286717
0
VERTEX
5
279
100
AcDbEntity
8
0
100
AcDbVertex
6
CONTINUOUS
100
AcDb2dVertex
10
139.0273542331
20
178.2625169383
0
VERTEX
5
27A
100
AcDbEntity
8
0
100
AcDbVertex
6
CONTINUOUS
100
AcDb2dVertex
10
138.9715644069
20
178.4217914890
0
SEQEND
5
27B
100
AcDbEntity
8
0
0
POLYLINE
5
27C
100
AcDbEntity
8
0
100
AcDb2dPolyline
6
CONTINUOUS
66
1
70
0
0
VERTEX
5
27D
100
AcDbEntity
8
0
100
AcDbVertex
6
CONTINUOUS
100
AcDb2dVertex
10
139.9331164880
20
178.3113810982
0
VERTEX
5
27E
100
AcDbEntity
8
0
100
AcDbVertex
6
CONTINUOUS
100
AcDb2dVertex
10
139.7418523712
20
178.3276951313
0
VERTEX
5
27F
100
AcDbEntity
8
0
100
AcDbVertex
6
CONTINUOUS
100
AcDb2dVertex
10
139.5579382877
20
178.3760103309
0
VERTEX
5
280
100
AcDbEntity
8
0
100
AcDbVertex
6
CONTINUOUS
100
AcDb2dVertex
10
139.3884419556
20
178.4544700243
0
VERTEX
5
281
100
AcDbEntity
8
0
100
AcDbVertex
6
CONTINUOUS
100
AcDb2dVertex
10
139.2398769986
20
178.5600591282
0
VERTEX
5
282
100
AcDbEntity
8
0
100
AcDbVertex
6
CONTINUOUS
100
AcDb2dVertex
10
139.1179527074
20
178.6887200000
0
VERTEX
5
283
100
AcDbEntity
8
0
100
AcDbVertex
6
CONTINUOUS
100
AcDb2dVertex
10
139.0273546409
20
178.8355083376
0
SEQEND
5
284
100
AcDbEntity
8
0
0
POLYLINE
5
285
100
AcDbEntity
8
0
100
AcDb2dPolyline
6
CONTINUOUS
66
1
70
0
0
VERTEX
5
286
100
AcDbEntity
8
0
100
AcDbVertex
6
CONTINUOUS
100
AcDb2dVertex
10
95.3757111359
20
178.2699262204
0
VERTEX
5
287
100
AcDbEntity
8
0
100
AcDbVertex
6
CONTINUOUS
100
AcDb2dVertex
10
95.5252828705
20
178.3009742519
0
VERTEX
5
288
100
AcDbEntity
8
0
100
AcDbVertex
6
CONTINUOUS
100
AcDb2dVertex
10
95.6783118880
20
178.3113810982
0
SEQEND
5
289
100
AcDbEntity
8
0
0
LINE
5
28A
100
AcDbEntity
8
0
100
AcDbLine
6
CONTINUOUS
10
106.2273082880
20
178.4427284526
11
106.2273082880
21
176.7402059544
0
LINE
5
28B
100
AcDbEntity
8
0
100
AcDbLine
62
7
6
CONTINUOUS
10
107.2076982880
20
178.5462032120
11
107.2076982880
21
198.4416626677
0
LINE
5
28C
100
AcDbEntity
8
0
100
AcDbLine
62
7
6
CONTINUOUS
10
107.2076982880
20
198.7641073000
11
107.2076982880
21
199.2269964526
0
LINE
5
28D
100
AcDbEntity
8
0
100
AcDbLine
6
CONTINUOUS
10
107.4037762880
20
178.5163751588
11
107.4037689802
21
198.4118598932
0
LINE
5
28E
100
AcDbEntity
8
0
100
AcDbLine
6
CONTINUOUS
10
107.1888596173
20
178.4217882139
11
107.2076982880
21
178.5874314922
0
POLYLINE
5
28F
100
AcDbEntity
8
0
100
AcDb2dPolyline
6
CONTINUOUS
66
1
70
0
0
VERTEX
5
290
100
AcDbEntity
8
0
100
AcDbVertex
6
CONTINUOUS
100
AcDb2dVertex
10
94.7459055899
20
177.1517148074
0
VERTEX
5
291
100
AcDbEntity
8
0
100
AcDbVertex
6
CONTINUOUS
100
AcDb2dVertex
10
94.8047780017
20
177.2748034959
0
VERTEX
5
292
100
AcDbEntity
8
0
100
AcDbVertex
6
CONTINUOUS
100
AcDb2dVertex
10
94.8851597168
20
177.3884009466
0
VERTEX
5
293
100
AcDbEntity
8
0
100
AcDbVertex
6
CONTINUOUS
100
AcDb2dVertex
10
94.9850714707
20
177.4897100132
0
VERTEX
5
294
100
AcDbEntity
8
0
100
AcDbVertex
6
CONTINUOUS
100
AcDb2dVertex
10
95.1020531045
20
177.5762361302
0
VERTEX
5
295
100
AcDbEntity
8
0
100
AcDbVertex
6
CONTINUOUS
100
AcDb2dVertex
10
95.2332241419
20
177.6458487375
0
VERTEX
5
296
100
AcDbEntity
8
0
100
AcDbVertex
6
CONTINUOUS
100
AcDb2dVertex
10
95.3753547168
20
177.6968337417
0
VERTEX
5
297
100
AcDbEntity
8
0
100
AcDbVertex
6
CONTINUOUS
100
AcDb2dVertex
10
95.5249451028
20
177.7279357227
0
VERTEX
5
298
100
AcDbEntity
8
0
100
AcDbVertex
6
CONTINUOUS
100
AcDb2dVertex
10
95.6783118880
20
177.7383888466
0
SEQEND
5
299
100
AcDbEntity
8
0
0
LINE
5
29A
100
AcDbEntity
8
0
100
AcDbLine
62
7
6
CONTINUOUS
10
111.7076883880
20
199.2269964526
11
111.7076883880
21
202.2662054526
0
LINE
5
29B
100
AcDbEntity
8
0
100
AcDbLine
62
7
6
CONTINUOUS
10
111.4909716479
20
174.3937177526
11
111.6949667800
21
197.7692445648
0
POLYLINE
5
29C
100
AcDbEntity
8
0
100
AcDb2dPolyline
6
CONTINUOUS
66
1
70
0
0
VERTEX
5
29D
100
AcDbEntity
8
0
100
AcDbVertex
6
CONTINUOUS
100
AcDb2dVertex
10
107.1330705428
20
178.8355091899
0
VERTEX
5
29E
100
AcDbEntity
8
0
100
AcDbVertex
6
CONTINUOUS
100
AcDb2dVertex
10
107.1888603690
20
178.9947837406
0
VERTEX
5
29F
100
AcDbEntity
8
0
100
AcDbVertex
6
CONTINUOUS
100
AcDb2dVertex
10
107.2076982880
20
179.1604237438
0
SEQEND
5
2A0
100
AcDbEntity
8
0
0
LINE
5
2A1
100
AcDbEntity
8
0
100
AcDbLine
62
7
6
CONTINUOUS
10
182.0996903880
20
199.2269964526
11
139.9331164880
21
199.2269964526
0
LINE
5
2A2
100
AcDbEntity
8
0
100
AcDbLine
62
7
6
CONTINUOUS
10
106.2273082880
20
199.2269964526
11
64.0607343880
21
199.2269964526
0
LINE
5
2A3
100
AcDbEntity
8
0
100
AcDbLine
62
7
6
CONTINUOUS
10
107.2405597239
20
199.2269964526
11
138.9198811730
21
199.2269964526
0
LINE
5
2A4
100
AcDbEntity
8
0
100
AcDbLine
6
CONTINUOUS
10
183.0800803880
20
200.2073864526
11
139.8989014884
21
200.2073864526
0
LINE
5
2A5
100
AcDbEntity
8
0
100
AcDbLine
6
CONTINUOUS
10
106.2615232925
20
200.2073864526
11
63.0803443880
21
200.2073864526
0
LINE
5
2A6
100
AcDbEntity
8
0
100
AcDbLine
6
CONTINUOUS
10
63.0803443880
20
202.2662054526
11
183.0800803880
21
202.2662054526
0
LINE
5
2A7
100
AcDbEntity
8
0
100
AcDbLine
62
7
6
CONTINUOUS
10
64.0607343880
20
203.2465954526
11
182.0996903880
21
203.2465954526
0
LINE
5
2A8
100
AcDbEntity
8
0
100
AcDbLine
6
CONTINUOUS
10
64.0607343880
20
204.4517117053
11
69.0747162477
21
204.4517117053
0
LINE
5
2A9
100
AcDbEntity
8
0
100
AcDbLine
6
CONTINUOUS
10
177.0857085282
20
204.4517117053
11
182.0996903880
21
204.4517117053
0
POLYLINE
5
2AA
100
AcDbEntity
8
0
100
AcDb2dPolyline
6
CONTINUOUS
66
1
70
0
0
VERTEX
5
2AB
100
AcDbEntity
8
0
100
AcDbVertex
6
CONTINUOUS
100
AcDb2dVertex
10
64.0607343880
20
204.4517117053
0
VERTEX
5
2AC
100
AcDbEntity
8
0
100
AcDbVertex
6
CONTINUOUS
100
AcDb2dVertex
10
63.8694792455
20
204.4483114419
0
VERTEX
5
2AD
100
AcDbEntity
8
0
100
AcDbVertex
6
CONTINUOUS
100
AcDb2dVertex
10
63.6855712377
20
204.4382411577
0
VERTEX
5
2AE
100
AcDbEntity
8
0
100
AcDbVertex
6
CONTINUOUS
100
AcDb2dVertex
10
63.5160779103
20
204.4218876360
0
VERTEX
5
2AF
100
AcDbEntity
8
0
100
AcDbVertex
6
CONTINUOUS
100
AcDb2dVertex
10
63.3675122504
20
204.3998790112
0
VERTEX
5
2B0
100
AcDbEntity
8
0
100
AcDbVertex
6
CONTINUOUS
100
AcDb2dVertex
10
63.2455839714
20
204.3730607027
0
VERTEX
5
2B1
100
AcDbEntity
8
0
100
AcDbVertex
6
CONTINUOUS
100
AcDb2dVertex
10
63.1549802081
20
204.3424630574
0
VERTEX
5
2B2
100
AcDbEntity
8
0
100
AcDbVertex
6
CONTINUOUS
100
AcDb2dVertex
10
63.0991847644
20
204.3092616967
0
VERTEX
5
2B3
100
AcDbEntity
8
0
100
AcDbVertex
6
CONTINUOUS
100
AcDb2dVertex
10
63.0803443880
20
204.2747325456
0
SEQEND
5
2B4
100
AcDbEntity
8
0
0
LINE
5
2B5
100
AcDbEntity
8
0
100
AcDbLine
62
7
6
CONTINUOUS
10
177.1251570182
20
208.9720609326
11
174.6729296111
21
208.9720609326
0
LINE
5
2B6
100
AcDbEntity
8
0
100
AcDbLine
62
7
6
CONTINUOUS
10
71.4874951648
20
208.9720609326
11
69.0352677577
21
208.9720609326
0
POLYLINE
5
2B7
100
AcDbEntity
8
0
100
AcDb2dPolyline
6
CONTINUOUS
66
1
70
0
0
VERTEX
5
2B8
100
AcDbEntity
8
0
100
AcDbVertex
6
CONTINUOUS
100
AcDb2dVertex
10
182.0996903880
20
204.4517117053
0
VERTEX
5
2B9
100
AcDbEntity
8
0
100
AcDbVertex
6
CONTINUOUS
100
AcDb2dVertex
10
182.2909549888
20
204.4483111003
0
VERTEX
5
2BA
100
AcDbEntity
8
0
100
AcDbVertex
6
CONTINUOUS
100
AcDb2dVertex
10
182.4748693982
20
204.4382399686
0
VERTEX
5
2BB
100
AcDbEntity
8
0
100
AcDbVertex
6
CONTINUOUS
100
AcDb2dVertex
10
182.6443658887
20
204.4218853381
0
VERTEX
5
2BC
100
AcDbEntity
8
0
100
AcDbVertex
6
CONTINUOUS
100
AcDb2dVertex
10
182.7929308052
20
204.3998757081
0
VERTEX
5
2BD
100
AcDbEntity
8
0
100
AcDbVertex
6
CONTINUOUS
100
AcDb2dVertex
10
182.9148548812
20
204.3730568964
0
VERTEX
5
2BE
100
AcDbEntity
8
0
100
AcDbVertex
6
CONTINUOUS
100
AcDb2dVertex
10
183.0054526428
20
204.3424595348
0
VERTEX
5
2BF
100
AcDbEntity
8
0
100
AcDbVertex
6
CONTINUOUS
100
AcDb2dVertex
10
183.0612424690
20
204.3092594628
0
VERTEX
5
2C0
100
AcDbEntity
8
0
100
AcDbVertex
6
CONTINUOUS
100
AcDb2dVertex
10
183.0800803880
20
204.2747325405
0
SEQEND
5
2C1
100
AcDbEntity
8
0
0
LINE
5
2C2
100
AcDbEntity
8
0
100
AcDbLine
6
CONTINUOUS
10
69.0309043238
20
209.4720609326
11
71.3964355621
21
209.4720609326
0
LINE
5
2C3
100
AcDbEntity
8
0
100
AcDbLine
6
CONTINUOUS
10
174.7639892138
20
209.4720609326
11
177.1295204521
21
209.4720609326
0
LINE
5
2C4
100
AcDbEntity
8
0
100
AcDbLine
6
CONTINUOUS
10
175.3967686793
20
212.9465954526
11
70.7636560966
21
212.9465954526
0
POLYLINE
5
2C5
100
AcDbEntity
8
0
100
AcDb2dPolyline
6
CONTINUOUS
66
1
70
0
0
VERTEX
5
2C6
100
AcDbEntity
8
0
100
AcDbVertex
6
CONTINUOUS
100
AcDb2dVertex
10
139.0273546409
20
178.8355083376
0
VERTEX
5
2C7
100
AcDbEntity
8
0
100
AcDbVertex
6
CONTINUOUS
100
AcDb2dVertex
10
138.9715645308
20
178.9947832013
0
VERTEX
5
2C8
100
AcDbEntity
8
0
100
AcDbVertex
6
CONTINUOUS
100
AcDb2dVertex
10
138.9527264880
20
179.1604237438
0
SEQEND
5
2C9
100
AcDbEntity
8
0
0
LINE
5
2CA
100
AcDbEntity
8
0
100
AcDbLine
62
7
6
CONTINUOUS
10
134.6694531280
20
174.3937177526
11
134.4654579960
21
197.7692445648
0
LINE
5
2CB
100
AcDbEntity
8
0
100
AcDbLine
62
7
6
CONTINUOUS
10
134.4527363880
20
199.2269964526
11
134.4527363880
21
202.2662054526
0
LINE
5
2CC
100
AcDbEntity
8
0
100
AcDbLine
6
CONTINUOUS
10
175.6943363640
20
214.5805125576
11
70.4660884119
21
214.5805125576
0
LINE
5
2CD
100
AcDbEntity
8
0
100
AcDbLine
6
CONTINUOUS
10
176.5800803880
20
215.4720598126
11
175.8567042416
21
215.4720598126
0
LINE
5
2CE
100
AcDbEntity
8
0
100
AcDbLine
6
CONTINUOUS
10
70.3037205343
20
215.4720598126
11
69.5800803880
21
215.4720598126
0
LINE
5
2CF
100
AcDbEntity
8
0
100
AcDbLine
62
7
6
CONTINUOUS
10
177.1862450830
20
215.9720598126
11
175.9477638442
21
215.9720598126
0
LINE
5
2D0
100
AcDbEntity
8
0
100
AcDbLine
62
7
6
CONTINUOUS
10
68.9741796929
20
215.9720598126
11
70.2126609317
21
215.9720598126
0
LINE
5
2D1
100
AcDbEntity
8
0
100
AcDbLine
6
CONTINUOUS
10
138.9715644069
20
178.4217914890
11
138.9527264880
21
178.5874314922
0
LINE
5
2D2
100
AcDbEntity
8
0
100
AcDbLine
6
CONTINUOUS
10
138.7566557797
20
198.4118598569
11
138.7566484880
21
178.5163751588
0
LINE
5
2D3
100
AcDbEntity
8
0
100
AcDbLine
62
7
6
CONTINUOUS
10
138.9527264880
20
199.2269964526
11
138.9527264880
21
198.7641066310
0
LINE
5
2D4
100
AcDbEntity
8
0
100
AcDbLine
62
7
6
CONTINUOUS
10
138.9527264880
20
198.4416622509
11
138.9527264880
21
178.5462032112
0
LINE
5
2D5
100
AcDbEntity
8
0
100
AcDbLine
6
CONTINUOUS
10
139.9331164880
20
176.7402059544
11
139.9331164880
21
178.4427284526
0
LINE
5
2D6
100
AcDbEntity
8
0
100
AcDbLine
62
7
6
CONTINUOUS
10
66.7410789292
20
218.8592229347
11
68.9489837927
21
218.8592229347
0
LINE
5
2D7
100
AcDbEntity
8
0
100
AcDbLine
62
7
6
CONTINUOUS
10
178.1777953686
20
219.8634875511
11
177.2200920937
21
219.8634875511
0
LINE
5
2D8
100
AcDbEntity
8
0
100
AcDbLine
62
7
6
CONTINUOUS
10
67.9822926080
20
219.8634875511
11
68.9403326463
21
219.8634875511
0
LINE
5
2D9
100
AcDbEntity
8
0
100
AcDbLine
62
7
6
CONTINUOUS
10
179.4162226042
20
218.8592247143
11
177.2114737264
21
218.8629760022
0
POLYLINE
5
2DA
100
AcDbEntity
8
0
100
AcDb2dPolyline
6
CONTINUOUS
66
1
70
0
0
VERTEX
5
2DB
100
AcDbEntity
8
0
100
AcDbVertex
6
CONTINUOUS
100
AcDb2dVertex
10
151.4625028880
20
177.4623384526
0
VERTEX
5
2DC
100
AcDbEntity
8
0
100
AcDbVertex
6
CONTINUOUS
100
AcDb2dVertex
10
151.4504326602
20
177.5951579846
0
VERTEX
5
2DD
100
AcDbEntity
8
0
100
AcDbVertex
6
CONTINUOUS
100
AcDb2dVertex
10
151.4145191860
20
177.7247070590
0
VERTEX
5
2DE
100
AcDbEntity
8
0
100
AcDbVertex
6
CONTINUOUS
100
AcDb2dVertex
10
151.3556467742
20
177.8477957475
0
VERTEX
5
2DF
100
AcDbEntity
8
0
100
AcDbVertex
6
CONTINUOUS
100
AcDb2dVertex
10
151.2752650591
20
177.9613931982
0
VERTEX
5
2E0
100
AcDbEntity
8
0
100
AcDbVertex
6
CONTINUOUS
100
AcDb2dVertex
10
151.1753533052
20
178.0627022648
0
VERTEX
5
2E1
100
AcDbEntity
8
0
100
AcDbVertex
6
CONTINUOUS
100
AcDb2dVertex
10
151.0583716715
20
178.1492283818
0
VERTEX
5
2E2
100
AcDbEntity
8
0
100
AcDbVertex
6
CONTINUOUS
100
AcDb2dVertex
10
150.9272006340
20
178.2188409891
0
VERTEX
5
2E3
100
AcDbEntity
8
0
100
AcDbVertex
6
CONTINUOUS
100
AcDb2dVertex
10
150.7850700591
20
178.2698259933
0
VERTEX
5
2E4
100
AcDbEntity
8
0
100
AcDbVertex
6
CONTINUOUS
100
AcDb2dVertex
10
150.6354796731
20
178.3009279743
0
VERTEX
5
2E5
100
AcDbEntity
8
0
100
AcDbVertex
6
CONTINUOUS
100
AcDb2dVertex
10
150.4821128880
20
178.3113810982
0
SEQEND
5
2E6
100
AcDbEntity
8
0
0
POLYLINE
5
2E7
100
AcDbEntity
8
0
100
AcDb2dPolyline
6
CONTINUOUS
66
1
70
0
0
VERTEX
5
2E8
100
AcDbEntity
8
0
100
AcDbVertex
6
CONTINUOUS
100
AcDb2dVertex
10
151.4625028880
20
176.8893462010
0
VERTEX
5
2E9
100
AcDbEntity
8
0
100
AcDbVertex
6
CONTINUOUS
100
AcDb2dVertex
10
151.4505813486
20
177.0213501576
0
VERTEX
5
2EA
100
AcDbEntity
8
0
100
AcDbVertex
6
CONTINUOUS
100
AcDb2dVertex
10
151.4149708641
20
177.1505078583
0
VERTEX
5
2EB
100
AcDbEntity
8
0
100
AcDbVertex
6
CONTINUOUS
100
AcDb2dVertex
10
151.3562924350
20
177.2737041119
0
VERTEX
5
2EC
100
AcDbEntity
8
0
100
AcDbVertex
6
CONTINUOUS
100
AcDb2dVertex
10
151.2759480340
20
177.3875858369
0
VERTEX
5
2ED
100
AcDbEntity
8
0
100
AcDbVertex
6
CONTINUOUS
100
AcDb2dVertex
10
151.1760752123
20
177.4890841715
0
VERTEX
5
2EE
100
AcDbEntity
8
0
100
AcDbVertex
6
CONTINUOUS
100
AcDb2dVertex
10
151.0590702790
20
177.5757961560
0
VERTEX
5
2EF
100
AcDbEntity
8
0
100
AcDbVertex
6
CONTINUOUS
100
AcDb2dVertex
10
150.9277851439
20
177.6455906021
0
VERTEX
5
2F0
100
AcDbEntity
8
0
100
AcDbVertex
6
CONTINUOUS
100
AcDb2dVertex
10
150.7854807415
20
177.6967180937
0
VERTEX
5
2F1
100
AcDbEntity
8
0
100
AcDbVertex
6
CONTINUOUS
100
AcDb2dVertex
10
150.6356929218
20
177.7279064516
0
VERTEX
5
2F2
100
AcDbEntity
8
0
100
AcDbVertex
6
CONTINUOUS
100
AcDb2dVertex
10
150.4821128880
20
177.7383888466
0
SEQEND
5
2F3
100
AcDbEntity
8
0
0
LINE
5
2F4
100
AcDbEntity
8
0
100
AcDbLine
6
CONTINUOUS
10
178.7078755608
20
231.1275823289
11
67.4525492151
21
231.1275823289
0
LINE
5
2F5
100
AcDbEntity
8
0
100
AcDbLine
6
CONTINUOUS
10
150.4821128880
20
174.3937177526
11
150.4821128880
21
178.4427284526
0
LINE
5
2F6
100
AcDbEntity
8
0
100
AcDbLine
62
7
6
CONTINUOUS
10
151.4625028880
20
177.4623384526
11
151.4625028880
21
175.3741077526
0
LINE
5
2F7
100
AcDbEntity
8
0
100
AcDbLine
62
7
6
CONTINUOUS
10
67.0316942290
20
233.4445408814
11
179.1287305469
21
233.4445408814
0
LINE
5
2F8
100
AcDbEntity
8
0
100
AcDbLine
62
7
6
CONTINUOUS
10
67.0335309446
20
233.4465954526
11
179.1268938313
21
233.4465954526
0
POLYLINE
5
2F9
100
AcDbEntity
8
0
100
AcDb2dPolyline
6
CONTINUOUS
66
1
70
0
0
VERTEX
5
2FA
100
AcDbEntity
8
0
100
AcDbVertex
6
CONTINUOUS
100
AcDb2dVertex
10
151.4625028880
20
176.8893462010
0
VERTEX
5
2FB
100
AcDbEntity
8
0
100
AcDbVertex
6
CONTINUOUS
100
AcDb2dVertex
10
151.4504326602
20
176.8660155263
0
VERTEX
5
2FC
100
AcDbEntity
8
0
100
AcDbVertex
6
CONTINUOUS
100
AcDb2dVertex
10
151.4145191860
20
176.8432593302
0
VERTEX
5
2FD
100
AcDbEntity
8
0
100
AcDbVertex
6
CONTINUOUS
100
AcDb2dVertex
10
151.3556467742
20
176.8216379459
0
VERTEX
5
2FE
100
AcDbEntity
8
0
100
AcDbVertex
6
CONTINUOUS
100
AcDb2dVertex
10
151.2752650591
20
176.8016837635
0
VERTEX
5
2FF
100
AcDbEntity
8
0
100
AcDbVertex
6
CONTINUOUS
100
AcDb2dVertex
10
151.1753533052
20
176.7838881212
0
VERTEX
5
300
100
AcDbEntity
8
0
100
AcDbVertex
6
CONTINUOUS
100
AcDb2dVertex
10
151.0583716715
20
176.7686892069
0
VERTEX
5
301
100
AcDbEntity
8
0
100
AcDbVertex
6
CONTINUOUS
100
AcDb2dVertex
10
150.9272006340
20
176.7564612682
0
VERTEX
5
302
100
AcDbEntity
8
0
100
AcDbVertex
6
CONTINUOUS
100
AcDb2dVertex
10
150.7850700591
20
176.7475053976
0
VERTEX
5
303
100
AcDbEntity
8
0
100
AcDbVertex
6
CONTINUOUS
100
AcDb2dVertex
10
150.6354796731
20
176.7420421183
0
VERTEX
5
304
100
AcDbEntity
8
0
100
AcDbVertex
6
CONTINUOUS
100
AcDb2dVertex
10
150.4821128880
20
176.7402059544
0
SEQEND
5
305
100
AcDbEntity
8
0
0
LINE
5
306
100
AcDbEntity
8
0
100
AcDbLine
62
7
6
CONTINUOUS
10
176.5800803880
20
215.4720598126
11
176.5800803880
21
215.9720598126
0
LINE
5
307
100
AcDbEntity
8
0
100
AcDbLine
62
7
6
CONTINUOUS
10
177.0751916380
20
203.2465954526
11
177.2202058520
21
219.8635784912
0
LINE
5
308
100
AcDbEntity
8
0
100
AcDbLine
62
7
6
CONTINUOUS
10
173.6302123880
20
203.2465954526
11
179.1298324254
21
233.4445091128
0
POLYLINE
5
309
100
AcDbEntity
8
0
100
AcDb2dPolyline
6
CONTINUOUS
66
1
70
0
0
VERTEX
5
30A
100
AcDbEntity
8
0
100
AcDbVertex
6
CONTINUOUS
100
AcDb2dVertex
10
180.2073406231
20
203.2465954526
0
VERTEX
5
30B
100
AcDbEntity
8
0
100
AcDbVertex
6
CONTINUOUS
100
AcDb2dVertex
10
180.2140154154
20
203.2277589060
0
VERTEX
5
30C
100
AcDbEntity
8
0
100
AcDbVertex
6
CONTINUOUS
100
AcDb2dVertex
10
180.2204337873
20
203.1719722771
0
VERTEX
5
30D
100
AcDbEntity
8
0
100
AcDbVertex
6
CONTINUOUS
100
AcDb2dVertex
10
180.2263490845
20
203.0813781221
0
VERTEX
5
30E
100
AcDbEntity
8
0
100
AcDbVertex
6
CONTINUOUS
100
AcDb2dVertex
10
180.2315339713
20
202.9594567382
0
VERTEX
5
30F
100
AcDbEntity
8
0
100
AcDbVertex
6
CONTINUOUS
100
AcDb2dVertex
10
180.2357891735
20
202.8108923529
0
VERTEX
5
310
100
AcDbEntity
8
0
100
AcDbVertex
6
CONTINUOUS
100
AcDb2dVertex
10
180.2389511189
20
202.6413940067
0
VERTEX
5
311
100
AcDbEntity
8
0
100
AcDbVertex
6
CONTINUOUS
100
AcDb2dVertex
10
180.2408982568
20
202.4574757678
0
SEQEND
5
312
100
AcDbEntity
8
0
0
LINE
5
313
100
AcDbEntity
8
0
100
AcDbLine
6
CONTINUOUS
10
180.2408982568
20
202.4574757678
11
180.2415557407
21
200.2073864526
0
POLYLINE
5
314
100
AcDbEntity
8
0
100
AcDb2dPolyline
6
CONTINUOUS
66
1
70
0
0
VERTEX
5
315
100
AcDbEntity
8
0
100
AcDbVertex
6
CONTINUOUS
100
AcDb2dVertex
10
180.2073406231
20
199.2269964526
0
VERTEX
5
316
100
AcDbEntity
8
0
100
AcDbVertex
6
CONTINUOUS
100
AcDb2dVertex
10
180.2140156612
20
199.2458343714
0
VERTEX
5
317
100
AcDbEntity
8
0
100
AcDbVertex
6
CONTINUOUS
100
AcDb2dVertex
10
180.2204341810
20
199.3016241974
0
VERTEX
5
318
100
AcDbEntity
8
0
100
AcDbVertex
6
CONTINUOUS
100
AcDb2dVertex
10
180.2263495222
20
199.3922219587
0
VERTEX
5
319
100
AcDbEntity
8
0
100
AcDbVertex
6
CONTINUOUS
100
AcDb2dVertex
10
180.2315343619
20
199.5141460343
0
VERTEX
5
31A
100
AcDbEntity
8
0
100
AcDbVertex
6
CONTINUOUS
100
AcDb2dVertex
10
180.2357894491
20
199.6627109506
0
VERTEX
5
31B
100
AcDbEntity
8
0
100
AcDbVertex
6
CONTINUOUS
100
AcDb2dVertex
10
180.2389512647
20
199.8322074411
0
VERTEX
5
31C
100
AcDbEntity
8
0
100
AcDbVertex
6
CONTINUOUS
100
AcDb2dVertex
10
180.2408983032
20
200.0161218510
0
VERTEX
5
31D
100
AcDbEntity
8
0
100
AcDbVertex
6
CONTINUOUS
100
AcDb2dVertex
10
180.2415557407
20
200.2073864526
0
SEQEND
5
31E
100
AcDbEntity
8
0
0
LINE
5
31F
100
AcDbEntity
8
0
100
AcDbLine
6
CONTINUOUS
10
182.0996903880
20
203.2465954526
11
182.0996903880
21
215.1385167159
0
LINE
5
320
100
AcDbEntity
8
0
100
AcDbLine
62
7
6
CONTINUOUS
10
183.0800803880
20
200.2073864526
11
183.0800803880
21
215.4720598126
0
LINE
5
321
100
AcDbEntity
8
0
100
AcDbLine
62
7
6
CONTINUOUS
10
311.3917785315
20
174.3937177526
11
285.2281511943
21
174.3937177526
0
LINE
5
322
100
AcDbEntity
8
0
100
AcDbLine
6
CONTINUOUS
10
311.3917785315
20
175.3741077526
11
285.2281511943
21
175.3741077526
0
LINE
5
323
100
AcDbEntity
8
0
100
AcDbLine
6
CONTINUOUS
10
311.3917785315
20
175.3741077526
11
312.3607582727
21
175.2249675060
0
LINE
5
324
100
AcDbEntity
8
0
100
AcDbLine
6
CONTINUOUS
10
284.9949336912
20
176.8893462010
11
284.0145436912
21
178.5874314922
0
LINE
5
325
100
AcDbEntity
8
0
100
AcDbLine
6
CONTINUOUS
10
285.9873853833
20
177.4623384526
11
285.0069953833
21
179.1604237438
0
LINE
5
326
100
AcDbEntity
8
0
100
AcDbLine
6
CONTINUOUS
10
284.2591714531
20
175.2249675060
11
285.2281511943
21
175.3741077526
0
LINE
5
327
100
AcDbEntity
8
0
100
AcDbLine
6
CONTINUOUS
10
310.6325443425
20
177.4623384526
11
285.9873853833
21
177.4623384526
0
LINE
5
328
100
AcDbEntity
8
0
100
AcDbLine
62
7
6
CONTINUOUS
10
310.6325443425
20
178.4427284526
11
285.9873853833
21
178.4427284526
0
LINE
5
329
100
AcDbEntity
8
0
100
AcDbLine
6
CONTINUOUS
10
285.9873853833
20
179.4231184526
11
310.6325443425
21
179.4231184526
0
LINE
5
32A
100
AcDbEntity
8
0
100
AcDbLine
6
CONTINUOUS
10
311.6249960346
20
176.8893462010
11
312.5939757758
21
176.7402059544
0
LINE
5
32B
100
AcDbEntity
8
0
100
AcDbLine
62
7
6
CONTINUOUS
10
280.5649058629
20
199.2269964526
11
280.5649058629
21
202.2662054526
0
LINE
5
32C
100
AcDbEntity
8
0
100
AcDbLine
62
7
6
CONTINUOUS
10
298.6227123151
20
232.9885830082
11
283.5019454619
21
217.3305705639
0
LINE
5
32D
100
AcDbEntity
8
0
100
AcDbLine
6
CONTINUOUS
10
284.9949336912
20
176.8893462010
11
284.0259539500
21
176.7402059544
0
LINE
5
32E
100
AcDbEntity
8
0
100
AcDbLine
6
CONTINUOUS
10
283.9463713105
20
178.5462032081
11
283.7525753623
21
178.5163751588
0
LINE
5
32F
100
AcDbEntity
8
0
100
AcDbLine
6
CONTINUOUS
10
312.6735584153
20
178.5462032081
11
312.8673543635
21
178.5163751588
0
LINE
5
330
100
AcDbEntity
8
0
100
AcDbLine
62
7
6
CONTINUOUS
10
280.5811336000
20
199.1215631519
11
284.2591714531
21
175.2249675060
0
LINE
5
331
100
AcDbEntity
8
0
100
AcDbLine
6
CONTINUOUS
10
280.8841652478
20
198.4416622509
11
283.9463713101
21
178.5462032112
0
LINE
5
332
100
AcDbEntity
8
0
100
AcDbLine
6
CONTINUOUS
10
281.7372725442
20
199.2269964526
11
281.7372725442
21
198.2466064526
0
LINE
5
333
100
AcDbEntity
8
0
100
AcDbLine
6
CONTINUOUS
10
282.1638866688
20
202.2662054526
11
282.1638866688
21
200.2073864526
0
LINE
5
334
100
AcDbEntity
8
0
100
AcDbLine
62
7
6
CONTINUOUS
10
282.6599648629
20
215.2465954526
11
282.6599648629
21
203.2465954526
0
LINE
5
335
100
AcDbEntity
8
0
100
AcDbLine
6
CONTINUOUS
10
284.9949336912
20
176.8893462010
11
285.2281511943
21
175.3741077526
0
LINE
5
336
100
AcDbEntity
8
0
100
AcDbLine
6
CONTINUOUS
10
285.1032649875
20
199.2269964526
11
285.1032649875
21
203.2465954526
0
LINE
5
337
100
AcDbEntity
8
0
100
AcDbLine
6
CONTINUOUS
10
285.2281511943
20
174.3937177526
11
285.2281511943
21
175.3741077526
0
LINE
5
338
100
AcDbEntity
8
0
100
AcDbLine
6
CONTINUOUS
10
285.9873853833
20
177.4623384526
11
285.9873853833
21
179.4231184526
0
LINE
5
339
100
AcDbEntity
8
0
100
AcDbLine
6
CONTINUOUS
10
311.6249960346
20
176.8893462010
11
310.6325443425
21
177.4623384526
0
LINE
5
33A
100
AcDbEntity
8
0
100
AcDbLine
62
7
6
CONTINUOUS
10
312.1151910346
20
177.7383888466
11
311.1227393425
21
178.3113810982
0
LINE
5
33B
100
AcDbEntity
8
0
100
AcDbLine
6
CONTINUOUS
10
311.6129343425
20
179.1604237438
11
312.6053860346
21
178.5874314922
0
LINE
5
33C
100
AcDbEntity
8
0
100
AcDbLine
6
CONTINUOUS
10
286.1239594331
20
203.2465954526
11
286.1239594291
21
202.2662054591
0
LINE
5
33D
100
AcDbEntity
8
0
100
AcDbLine
62
7
6
CONTINUOUS
10
287.5703848845
20
204.4517117053
11
290.2146583760
21
218.8592249007
0
LINE
5
33E
100
AcDbEntity
8
0
100
AcDbLine
62
7
6
CONTINUOUS
10
296.2664879140
20
222.9965954526
11
301.0007601478
21
231.1965954984
0
LINE
5
33F
100
AcDbEntity
8
0
100
AcDbLine
62
7
6
CONTINUOUS
10
310.6809031082
20
233.0256051531
11
298.9680184444
21
221.7146039126
0
LINE
5
340
100
AcDbEntity
8
0
100
AcDbLine
6
CONTINUOUS
10
288.5346685188
20
204.2747325405
11
290.4960642721
21
214.9615375511
0
LINE
5
341
100
AcDbEntity
8
0
100
AcDbLine
6
CONTINUOUS
10
291.8197830629
20
207.9524674526
11
291.8197830629
21
216.8605037229
0
LINE
5
342
100
AcDbEntity
8
0
100
AcDbLine
62
7
6
CONTINUOUS
10
292.3099780629
20
216.4524487526
11
292.3099780629
21
207.9524674526
0
LINE
5
343
100
AcDbEntity
8
0
100
AcDbLine
6
CONTINUOUS
10
292.8099648629
20
208.9720609326
11
292.8099648629
21
215.4720598126
0
LINE
5
344
100
AcDbEntity
8
0
100
AcDbLine
6
CONTINUOUS
10
293.3884070629
20
216.4524487526
11
293.3884070629
21
217.5439519767
0
LINE
5
345
100
AcDbEntity
8
0
100
AcDbLine
62
7
6
CONTINUOUS
10
295.3199648629
20
209.8232364526
11
295.2819208095
21
209.7851923992
0
LINE
5
346
100
AcDbEntity
8
0
100
AcDbLine
62
7
6
CONTINUOUS
10
293.6825240629
20
217.4200350966
11
293.6825240629
21
216.7465657526
0
LINE
5
347
100
AcDbEntity
8
0
100
AcDbLine
6
CONTINUOUS
10
294.2707493429
20
208.9720609326
11
294.2707493429
21
209.4720609326
0
LINE
5
348
100
AcDbEntity
8
0
100
AcDbLine
6
CONTINUOUS
10
294.8099648629
20
211.4720604526
11
294.8099648629
21
210.0112764526
0
LINE
5
349
100
AcDbEntity
8
0
100
AcDbLine
62
7
6
CONTINUOUS
10
295.3099714629
20
207.9524674526
11
295.3099648629
21
211.4720604526
0
LINE
5
34A
100
AcDbEntity
8
0
100
AcDbLine
6
CONTINUOUS
10
295.8001664629
20
207.9524674526
11
295.8001664629
21
212.0701054526
0
LINE
5
34B
100
AcDbEntity
8
0
100
AcDbLine
6
CONTINUOUS
10
295.8099648627
20
212.0701054526
11
295.8099648625
21
212.4720604525
0
LINE
5
34C
100
AcDbEntity
8
0
100
AcDbLine
62
7
6
CONTINUOUS
10
302.9728659684
20
217.5325008171
11
304.3924008710
21
219.5598067589
0
LINE
5
34D
100
AcDbEntity
8
0
100
AcDbLine
62
7
6
CONTINUOUS
10
323.0292238117
20
233.1426495652
11
310.6286822236
21
221.1675857520
0
LINE
5
34E
100
AcDbEntity
8
0
100
AcDbLine
62
7
6
CONTINUOUS
10
308.2876565622
20
222.9965954526
11
313.0219287695
21
231.1965954526
0
POLYLINE
5
34F
100
AcDbEntity
8
0
100
AcDb2dPolyline
6
CONTINUOUS
66
1
70
0
0
VERTEX
5
350
100
AcDbEntity
8
0
100
AcDbVertex
6
CONTINUOUS
100
AcDb2dVertex
10
313.4762502841
20
199.2269964526
0
VERTEX
5
351
100
AcDbEntity
8
0
100
AcDbVertex
6
CONTINUOUS
100
AcDb2dVertex
10
313.6673914765
20
199.2458329991
0
VERTEX
5
352
100
AcDbEntity
8
0
100
AcDbVertex
6
CONTINUOUS
100
AcDb2dVertex
10
313.8511897201
20
199.3016196280
0
VERTEX
5
353
100
AcDbEntity
8
0
100
AcDbVertex
6
CONTINUOUS
100
AcDb2dVertex
10
314.0205817542
20
199.3922137830
0
VERTEX
5
354
100
AcDbEntity
8
0
100
AcDbVertex
6
CONTINUOUS
100
AcDb2dVertex
10
314.1690575365
20
199.5141351669
0
VERTEX
5
355
100
AcDbEntity
8
0
100
AcDbVertex
6
CONTINUOUS
100
AcDb2dVertex
10
314.2909105891
20
199.6626995522
0
VERTEX
5
356
100
AcDbEntity
8
0
100
AcDbVertex
6
CONTINUOUS
100
AcDb2dVertex
10
314.3814568227
20
199.8321978984
0
VERTEX
5
357
100
AcDbEntity
8
0
100
AcDbVertex
6
CONTINUOUS
100
AcDb2dVertex
10
314.4372154780
20
200.0161161373
0
VERTEX
5
358
100
AcDbEntity
8
0
100
AcDbVertex
6
CONTINUOUS
100
AcDb2dVertex
10
314.4560430572
20
200.2073864526
0
SEQEND
5
359
100
AcDbEntity
8
0
0
LINE
5
35A
100
AcDbEntity
8
0
100
AcDbLine
6
CONTINUOUS
10
314.8826571816
20
198.2466064526
11
281.7372725442
21
198.2466064526
0
LINE
5
35B
100
AcDbEntity
8
0
100
AcDbLine
62
7
6
CONTINUOUS
10
314.8826571816
20
199.2269964526
11
281.7372725442
21
199.2269964526
0
LINE
5
35C
100
AcDbEntity
8
0
100
AcDbLine
62
7
6
CONTINUOUS
10
280.5674981080
20
199.2269964526
11
280.7220489799
21
199.2269964526
0
LINE
5
35D
100
AcDbEntity
8
0
100
AcDbLine
62
7
6
CONTINUOUS
10
315.8978807459
20
199.2269964526
11
316.0524450697
21
199.2269964526
0
POLYLINE
5
35E
100
AcDbEntity
8
0
100
AcDb2dPolyline
6
CONTINUOUS
66
1
70
0
0
VERTEX
5
35F
100
AcDbEntity
8
0
100
AcDbVertex
6
CONTINUOUS
100
AcDb2dVertex
10
283.1436794417
20
199.2269964526
0
VERTEX
5
360
100
AcDbEntity
8
0
100
AcDbVertex
6
CONTINUOUS
100
AcDb2dVertex
10
282.9525313545
20
199.2458343714
0
VERTEX
5
361
100
AcDbEntity
8
0
100
AcDbVertex
6
CONTINUOUS
100
AcDb2dVertex
10
282.7687289811
20
199.3016241974
0
VERTEX
5
362
100
AcDbEntity
8
0
100
AcDbVertex
6
CONTINUOUS
100
AcDb2dVertex
10
282.5993357435
20
199.3922219587
0
VERTEX
5
363
100
AcDbEntity
8
0
100
AcDbVertex
6
CONTINUOUS
100
AcDb2dVertex
10
282.4508613288
20
199.5141460343
0
VERTEX
5
364
100
AcDbEntity
8
0
100
AcDbVertex
6
CONTINUOUS
100
AcDb2dVertex
10
282.3290115254
20
199.6627109506
0
VERTEX
5
365
100
AcDbEntity
8
0
100
AcDbVertex
6
CONTINUOUS
100
AcDb2dVertex
10
282.2384689530
20
199.8322074411
0
VERTEX
5
366
100
AcDbEntity
8
0
100
AcDbVertex
6
CONTINUOUS
100
AcDb2dVertex
10
282.1827131122
20
200.0161218510
0
VERTEX
5
367
100
AcDbEntity
8
0
100
AcDbVertex
6
CONTINUOUS
100
AcDb2dVertex
10
282.1638866688
20
200.2073864526
0
SEQEND
5
368
100
AcDbEntity
8
0
0
LINE
5
369
100
AcDbEntity
8
0
100
AcDbLine
6
CONTINUOUS
10
300.8099648629
20
212.0701054526
11
300.8099648629
21
212.4720604526
0
LINE
5
36A
100
AcDbEntity
8
0
100
AcDbLine
6
CONTINUOUS
10
300.8197632629
20
207.9524674526
11
300.8197632629
21
212.0701054526
0
POLYLINE
5
36B
100
AcDbEntity
8
0
100
AcDb2dPolyline
6
CONTINUOUS
66
1
70
0
0
VERTEX
5
36C
100
AcDbEntity
8
0
100
AcDbVertex
6
CONTINUOUS
100
AcDb2dVertex
10
302.9374056629
20
216.7465657526
0
VERTEX
5
36D
100
AcDbEntity
8
0
100
AcDbVertex
6
CONTINUOUS
100
AcDb2dVertex
10
302.9430570386
20
216.7687939479
0
VERTEX
5
36E
100
AcDbEntity
8
0
100
AcDbVertex
6
CONTINUOUS
100
AcDb2dVertex
10
302.9597939864
20
216.7901679261
0
VERTEX
5
36F
100
AcDbEntity
8
0
100
AcDbVertex
6
CONTINUOUS
100
AcDb2dVertex
10
302.9869733149
20
216.8098662973
0
VERTEX
5
370
100
AcDbEntity
8
0
100
AcDbVertex
6
CONTINUOUS
100
AcDb2dVertex
10
303.0235505377
20
216.8271320640
0
VERTEX
5
371
100
AcDbEntity
8
0
100
AcDbVertex
6
CONTINUOUS
100
AcDb2dVertex
10
303.0681200127
20
216.8413017125
0
VERTEX
5
372
100
AcDbEntity
8
0
100
AcDbVertex
6
CONTINUOUS
100
AcDb2dVertex
10
303.1189689598
20
216.8518307113
0
VERTEX
5
373
100
AcDbEntity
8
0
100
AcDbVertex
6
CONTINUOUS
100
AcDb2dVertex
10
303.1741432827
20
216.8583144367
0
VERTEX
5
374
100
AcDbEntity
8
0
100
AcDbVertex
6
CONTINUOUS
100
AcDb2dVertex
10
303.2315226629
20
216.8605037229
0
SEQEND
5
375
100
AcDbEntity
8
0
0
LINE
5
376
100
AcDbEntity
8
0
100
AcDbLine
6
CONTINUOUS
10
315.8648395870
20
200.2073864526
11
280.7550901390
21
200.2073864526
0
LINE
5
377
100
AcDbEntity
8
0
100
AcDbLine
6
CONTINUOUS
10
315.7357685638
20
198.4416889927
11
315.9295623466
21
198.4118598933
0
LINE
5
378
100
AcDbEntity
8
0
100
AcDbLine
6
CONTINUOUS
10
287.5703848845
20
204.4517117053
11
288.5346685188
21
204.2747325405
0
LINE
5
379
100
AcDbEntity
8
0
100
AcDbLine
62
7
6
CONTINUOUS
10
301.3099582629
20
211.5799104526
11
301.3099582629
21
207.9524674526
0
LINE
5
37A
100
AcDbEntity
8
0
100
AcDbLine
6
CONTINUOUS
10
301.8099648629
20
210.0112764526
11
301.8099648629
21
211.4720604526
0
LINE
5
37B
100
AcDbEntity
8
0
100
AcDbLine
6
CONTINUOUS
10
302.3491803829
20
208.9720609326
11
302.3491803829
21
209.4720609326
0
LINE
5
37C
100
AcDbEntity
8
0
100
AcDbLine
62
7
6
CONTINUOUS
10
302.9374056629
20
217.4200350966
11
302.9374056629
21
216.7465657526
0
LINE
5
37D
100
AcDbEntity
8
0
100
AcDbLine
6
CONTINUOUS
10
303.2315226629
20
216.4524487526
11
303.2315226629
21
217.5440975304
0
LINE
5
37E
100
AcDbEntity
8
0
100
AcDbLine
6
CONTINUOUS
10
309.0495448413
20
204.4517117053
11
308.0852612128
21
204.2747325456
0
LINE
5
37F
100
AcDbEntity
8
0
100
AcDbLine
6
CONTINUOUS
10
280.8841611350
20
198.4416889722
11
280.6903673848
21
198.4118598569
0
LINE
5
380
100
AcDbEntity
8
0
100
AcDbLine
6
CONTINUOUS
10
280.5649058629
20
202.2662054526
11
286.1239594331
21
202.2662054526
0
LINE
5
381
100
AcDbEntity
8
0
100
AcDbLine
6
CONTINUOUS
10
310.4959702927
20
202.2662054526
11
316.0550238629
21
202.2662054526
0
LINE
5
382
100
AcDbEntity
8
0
100
AcDbLine
62
7
6
CONTINUOUS
10
281.5452958629
20
203.2465954526
11
286.1239594331
21
203.2465954526
0
LINE
5
383
100
AcDbEntity
8
0
100
AcDbLine
62
7
6
CONTINUOUS
10
310.4959702927
20
203.2465954526
11
315.0746338629
21
203.2465954526
0
LINE
5
384
100
AcDbEntity
8
0
100
AcDbLine
62
7
6
CONTINUOUS
10
293.6470637574
20
217.5325008171
11
292.2275288548
21
219.5598067589
0
LINE
5
385
100
AcDbEntity
8
0
100
AcDbLine
6
CONTINUOUS
10
303.8099648629
20
208.9720609326
11
303.8099648629
21
215.4720598126
0
LINE
5
386
100
AcDbEntity
8
0
100
AcDbLine
62
7
6
CONTINUOUS
10
304.3099516629
20
216.4524487526
11
304.3099516629
21
207.9524674526
0
LINE
5
387
100
AcDbEntity
8
0
100
AcDbLine
6
CONTINUOUS
10
304.8001466629
20
207.9524674526
11
304.8001466629
21
216.8605037229
0
POLYLINE
5
388
100
AcDbEntity
8
0
100
AcDb2dPolyline
6
CONTINUOUS
66
1
70
0
0
VERTEX
5
389
100
AcDbEntity
8
0
100
AcDbVertex
6
CONTINUOUS
100
AcDb2dVertex
10
283.1436794417
20
203.2465954526
0
VERTEX
5
38A
100
AcDbEntity
8
0
100
AcDbVertex
6
CONTINUOUS
100
AcDb2dVertex
10
282.9525382493
20
203.2277589060
0
VERTEX
5
38B
100
AcDbEntity
8
0
100
AcDbVertex
6
CONTINUOUS
100
AcDb2dVertex
10
282.7687400057
20
203.1719722771
0
VERTEX
5
38C
100
AcDbEntity
8
0
100
AcDbVertex
6
CONTINUOUS
100
AcDb2dVertex
10
282.5993479716
20
203.0813781221
0
VERTEX
5
38D
100
AcDbEntity
8
0
100
AcDbVertex
6
CONTINUOUS
100
AcDb2dVertex
10
282.4508721893
20
202.9594567382
0
VERTEX
5
38E
100
AcDbEntity
8
0
100
AcDbVertex
6
CONTINUOUS
100
AcDb2dVertex
10
282.3290191367
20
202.8108923529
0
VERTEX
5
38F
100
AcDbEntity
8
0
100
AcDbVertex
6
CONTINUOUS
100
AcDb2dVertex
10
282.2384729031
20
202.6413940067
0
VERTEX
5
390
100
AcDbEntity
8
0
100
AcDbVertex
6
CONTINUOUS
100
AcDb2dVertex
10
282.1827142478
20
202.4574757678
0
VERTEX
5
391
100
AcDbEntity
8
0
100
AcDbVertex
6
CONTINUOUS
100
AcDb2dVertex
10
282.1638866686
20
202.2662054526
0
SEQEND
5
392
100
AcDbEntity
8
0
0
POLYLINE
5
393
100
AcDbEntity
8
0
100
AcDb2dPolyline
6
CONTINUOUS
66
1
70
0
0
VERTEX
5
394
100
AcDbEntity
8
0
100
AcDbVertex
6
CONTINUOUS
100
AcDb2dVertex
10
313.4762502841
20
203.2465954526
0
VERTEX
5
395
100
AcDbEntity
8
0
100
AcDbVertex
6
CONTINUOUS
100
AcDb2dVertex
10
313.6673983713
20
203.2277575337
0
VERTEX
5
396
100
AcDbEntity
8
0
100
AcDbVertex
6
CONTINUOUS
100
AcDb2dVertex
10
313.8512007447
20
203.1719677077
0
VERTEX
5
397
100
AcDbEntity
8
0
100
AcDbVertex
6
CONTINUOUS
100
AcDb2dVertex
10
314.0205939823
20
203.0813699464
0
VERTEX
5
398
100
AcDbEntity
8
0
100
AcDbVertex
6
CONTINUOUS
100
AcDb2dVertex
10
314.1690683970
20
202.9594458708
0
VERTEX
5
399
100
AcDbEntity
8
0
100
AcDbVertex
6
CONTINUOUS
100
AcDb2dVertex
10
314.2909182004
20
202.8108809545
0
VERTEX
5
39A
100
AcDbEntity
8
0
100
AcDbVertex
6
CONTINUOUS
100
AcDb2dVertex
10
314.3814607728
20
202.6413844640
0
VERTEX
5
39B
100
AcDbEntity
8
0
100
AcDbVertex
6
CONTINUOUS
100
AcDb2dVertex
10
314.4372166136
20
202.4574700541
0
VERTEX
5
39C
100
AcDbEntity
8
0
100
AcDbVertex
6
CONTINUOUS
100
AcDb2dVertex
10
314.4560430570
20
202.2662054526
0
SEQEND
5
39D
100
AcDbEntity
8
0
0
LINE
5
39E
100
AcDbEntity
8
0
100
AcDbLine
62
7
6
CONTINUOUS
10
314.4439531591
20
214.5805125576
11
325.1897459137
21
231.1275823289
0
LINE
5
39F
100
AcDbEntity
8
0
100
AcDbLine
6
CONTINUOUS
10
301.3099582629
20
207.9524674526
11
300.8197632629
21
207.9524674532
0
LINE
5
3A0
100
AcDbEntity
8
0
100
AcDbLine
6
CONTINUOUS
10
292.3099780629
20
207.9524674526
11
291.8197830693
21
207.9524674532
0
LINE
5
3A1
100
AcDbEntity
8
0
100
AcDbLine
6
CONTINUOUS
10
295.3099714629
20
207.9524674526
11
295.8001664629
21
207.9524674526
0
LINE
5
3A2
100
AcDbEntity
8
0
100
AcDbLine
6
CONTINUOUS
10
304.3099516629
20
207.9524674526
11
304.8001466629
21
207.9524674526
0
LINE
5
3A3
100
AcDbEntity
8
0
100
AcDbLine
62
7
6
CONTINUOUS
10
303.8099648629
20
208.9720609326
11
301.3099582629
21
208.9720609326
0
LINE
5
3A4
100
AcDbEntity
8
0
100
AcDbLine
62
7
6
CONTINUOUS
10
295.3099714629
20
208.9720609326
11
292.8099648629
21
208.9720609326
0
LINE
5
3A5
100
AcDbEntity
8
0
100
AcDbLine
6
CONTINUOUS
10
301.7366106009
20
209.1720609326
11
301.3099582629
21
209.1720609326
0
LINE
5
3A6
100
AcDbEntity
8
0
100
AcDbLine
6
CONTINUOUS
10
295.3099714629
20
209.1720609326
11
294.8836818090
21
209.1720609326
0
LINE
5
3A7
100
AcDbEntity
8
0
100
AcDbLine
62
7
6
CONTINUOUS
10
301.3380080861
20
209.7851932294
11
301.2999648629
21
209.8232364526
0
LINE
5
3A8
100
AcDbEntity
8
0
100
AcDbLine
6
CONTINUOUS
10
306.1238654537
20
214.9615375511
11
308.0852612070
21
204.2747325405
0
LINE
5
3A9
100
AcDbEntity
8
0
100
AcDbLine
6
CONTINUOUS
10
310.4959702927
20
203.2465954526
11
310.4959702927
21
202.2662054526
0
LINE
5
3AA
100
AcDbEntity
8
0
100
AcDbLine
6
CONTINUOUS
10
310.6325443425
20
177.4623384526
11
310.6325443425
21
179.4231184526
0
LINE
5
3AB
100
AcDbEntity
8
0
100
AcDbLine
6
CONTINUOUS
10
304.3099648629
20
209.4720609326
11
302.3491803829
21
209.4720609326
0
LINE
5
3AC
100
AcDbEntity
8
0
100
AcDbLine
6
CONTINUOUS
10
292.3099648629
20
209.4720609326
11
294.2707493429
21
209.4720609326
0
LINE
5
3AD
100
AcDbEntity
8
0
100
AcDbLine
6
CONTINUOUS
10
295.3099648629
20
210.0112764526
11
294.8099648629
21
210.0112764526
0
LINE
5
3AE
100
AcDbEntity
8
0
100
AcDbLine
6
CONTINUOUS
10
301.3099648629
20
210.0112764526
11
301.8099648629
21
210.0112764526
0
LINE
5
3AF
100
AcDbEntity
8
0
100
AcDbLine
6
CONTINUOUS
10
295.3099648629
20
211.4720604526
11
294.8099648629
21
211.4720604526
0
LINE
5
3B0
100
AcDbEntity
8
0
100
AcDbLine
6
CONTINUOUS
10
301.3099648629
20
211.4720604526
11
301.8099648628
21
211.4720604520
0
LINE
5
3B1
100
AcDbEntity
8
0
100
AcDbLine
6
CONTINUOUS
10
301.3099582629
20
211.5799104526
11
295.3099714629
21
211.5799104526
0
LINE
5
3B2
100
AcDbEntity
8
0
100
AcDbLine
62
7
6
CONTINUOUS
10
306.4052717107
20
218.8592229347
11
309.0495448413
21
204.4517117053
0
LINE
5
3B3
100
AcDbEntity
8
0
100
AcDbLine
6
CONTINUOUS
10
311.3917785315
20
174.3937177526
11
311.3917785315
21
175.3741077526
0
LINE
5
3B4
100
AcDbEntity
8
0
100
AcDbLine
6
CONTINUOUS
10
311.5166647383
20
199.2269964526
11
311.5166647383
21
203.2465954526
0
LINE
5
3B5
100
AcDbEntity
8
0
100
AcDbLine
6
CONTINUOUS
10
300.8099648629
20
212.4720604526
11
295.8099648629
21
212.4720604526
0
LINE
5
3B6
100
AcDbEntity
8
0
100
AcDbLine
6
CONTINUOUS
10
289.5317806378
20
215.1385167159
11
290.4960642713
21
214.9615375467
0
LINE
5
3B7
100
AcDbEntity
8
0
100
AcDbLine
62
7
6
CONTINUOUS
10
313.9599648629
20
212.9465954526
11
313.9599648629
21
203.2465954526
0
LINE
5
3B8
100
AcDbEntity
8
0
100
AcDbLine
6
CONTINUOUS
10
314.4560430570
20
200.2073864526
11
314.4560430570
21
202.2662054526
0
LINE
5
3B9
100
AcDbEntity
8
0
100
AcDbLine
6
CONTINUOUS
10
314.8826571816
20
199.2269964526
11
314.8826571816
21
198.2466064526
0
LINE
5
3BA
100
AcDbEntity
8
0
100
AcDbLine
6
CONTINUOUS
10
311.3917785315
20
175.3741077526
11
311.6249960346
21
176.8893462010
0
LINE
5
3BB
100
AcDbEntity
8
0
100
AcDbLine
6
CONTINUOUS
10
284.0145436912
20
178.5874314922
11
285.0069953833
21
179.1604237438
0
LINE
5
3BC
100
AcDbEntity
8
0
100
AcDbLine
6
CONTINUOUS
10
307.0881490879
20
215.1385167159
11
306.1238654537
21
214.9615375511
0
LINE
5
3BD
100
AcDbEntity
8
0
100
AcDbLine
6
CONTINUOUS
10
290.4960642721
20
214.9615375511
11
292.3099780629
21
214.9615375511
0
LINE
5
3BE
100
AcDbEntity
8
0
100
AcDbLine
6
CONTINUOUS
10
304.3099516629
20
214.9615375511
11
306.1238654537
21
214.9615375511
0
LINE
5
3BF
100
AcDbEntity
8
0
100
AcDbLine
6
CONTINUOUS
10
292.8099648629
20
215.4720598126
11
303.8099648629
21
215.4720598126
0
LINE
5
3C0
100
AcDbEntity
8
0
100
AcDbLine
62
7
6
CONTINUOUS
10
292.3099648629
20
215.9720598126
11
304.3099648629
21
215.9720598126
0
LINE
5
3C1
100
AcDbEntity
8
0
100
AcDbLine
62
7
6
CONTINUOUS
10
304.3183430557
20
216.4524487526
11
303.2315226629
21
216.4524487526
0
LINE
5
3C2
100
AcDbEntity
8
0
100
AcDbLine
62
7
6
CONTINUOUS
10
293.3884070629
20
216.4524487526
11
292.3015866701
21
216.4524487526
0
LINE
5
3C3
100
AcDbEntity
8
0
100
AcDbLine
62
7
6
CONTINUOUS
10
316.0550238629
20
199.2269964526
11
316.0550238629
21
202.2662054526
0
LINE
5
3C4
100
AcDbEntity
8
0
100
AcDbLine
6
CONTINUOUS
10
312.6735584158
20
178.5462032120
11
315.7357645120
21
198.4416626677
0
LINE
5
3C5
100
AcDbEntity
8
0
100
AcDbLine
62
7
6
CONTINUOUS
10
312.3607582727
20
175.2249675060
11
316.0550238629
21
199.2269964526
0
LINE
5
3C6
100
AcDbEntity
8
0
100
AcDbLine
62
7
6
CONTINUOUS
10
285.4971903833
20
178.3113810982
11
284.5047386912
21
177.7383888466
0
LINE
5
3C7
100
AcDbEntity
8
0
100
AcDbLine
6
CONTINUOUS
10
285.9873853833
20
177.4623384526
11
284.9949336912
21
176.8893462010
0
LINE
5
3C8
100
AcDbEntity
8
0
100
AcDbLine
6
CONTINUOUS
10
304.8001466629
20
216.8605037229
11
303.2315226629
21
216.8605037229
0
LINE
5
3C9
100
AcDbEntity
8
0
100
AcDbLine
6
CONTINUOUS
10
293.3884070629
20
216.8605037229
11
291.8197830629
21
216.8605037229
0
LINE
5
3CA
100
AcDbEntity
8
0
100
AcDbLine
62
7
6
CONTINUOUS
10
293.6470637574
20
217.5465954526
11
302.9728659684
21
217.5465954526
0
LINE
5
3CB
100
AcDbEntity
8
0
100
AcDbLine
62
7
6
CONTINUOUS
10
305.1999194973
20
219.8634875442
11
305.1999728902
21
219.8634875511
0
LINE
5
3CC
100
AcDbEntity
8
0
100
AcDbLine
62
7
6
CONTINUOUS
10
291.4200067151
20
219.8634875511
11
291.4201601863
21
219.8634875511
0
LINE
5
3CD
100
AcDbEntity
8
0
100
AcDbLine
6
CONTINUOUS
10
310.6325443425
20
177.4623384526
11
311.6129343425
21
179.1604237438
0
LINE
5
3CE
100
AcDbEntity
8
0
100
AcDbLine
6
CONTINUOUS
10
311.6249960346
20
176.8893462010
11
312.6053860346
21
178.5874314922
0
LINE
5
3CF
100
AcDbEntity
8
0
100
AcDbLine
62
7
6
CONTINUOUS
10
63.0800803880
20
115.1339108546
11
63.0800803880
21
104.1339108546
0
LINE
5
3D0
100
AcDbEntity
8
0
100
AcDbLine
62
7
6
CONTINUOUS
10
63.0803443880
20
122.8406107300
11
63.0803443880
21
115.1365912916
0
LINE
5
3D1
100
AcDbEntity
8
0
100
AcDbLine
62
7
6
CONTINUOUS
10
63.0803443880
20
104.1289966246
11
63.0803443880
21
96.4272109792
0
LINE
5
3D2
100
AcDbEntity
8
0
100
AcDbLine
62
7
6
CONTINUOUS
10
63.4401426334
20
103.2868538587
11
63.4401426334
21
104.7123530546
0
LINE
5
3D3
100
AcDbEntity
8
0
100
AcDbLine
62
7
6
CONTINUOUS
10
63.4401426334
20
114.5554686546
11
63.4401426334
21
115.9809678505
0
LINE
5
3D4
100
AcDbEntity
8
0
100
AcDbLine
6
CONTINUOUS
10
63.4631084789
20
103.1437290546
11
63.4631084789
21
104.7123530546
0
LINE
5
3D5
100
AcDbEntity
8
0
100
AcDbLine
6
CONTINUOUS
10
63.4631084789
20
114.5554686546
11
63.4631084789
21
116.1240926546
0
LINE
5
3D6
100
AcDbEntity
8
0
100
AcDbLine
6
CONTINUOUS
10
63.5800803880
20
114.3059667828
11
63.5800803880
21
104.9615050334
0
LINE
5
3D7
100
AcDbEntity
8
0
100
AcDbLine
6
CONTINUOUS
10
65.9530841528
20
124.8001962758
11
65.9188690414
21
125.7799890489
0
LINE
5
3D8
100
AcDbEntity
8
0
100
AcDbLine
6
CONTINUOUS
10
64.0607343880
20
122.8406107300
11
64.0607343880
21
118.4120950796
0
LINE
5
3D9
100
AcDbEntity
8
0
100
AcDbLine
6
CONTINUOUS
10
64.0607343880
20
100.8557266295
11
64.0607343880
21
96.4272109792
0
LINE
5
3DA
100
AcDbEntity
8
0
100
AcDbLine
6
CONTINUOUS
10
65.9530841528
20
94.4676254334
11
65.9188690352
21
93.4878326605
0
LINE
5
3DB
100
AcDbEntity
8
0
100
AcDbLine
62
7
6
CONTINUOUS
10
67.1136252503
20
109.3211634023
11
69.9652500332
21
124.4419302556
0
LINE
5
3DC
100
AcDbEntity
8
0
100
AcDbLine
62
7
6
CONTINUOUS
10
69.0747162477
20
120.3734908330
11
69.0331594191
21
119.4995111313
0
LINE
5
3DD
100
AcDbEntity
8
0
100
AcDbLine
62
7
6
CONTINUOUS
10
67.1068828067
20
97.2629726093
11
68.7739908619
21
106.7421537018
0
LINE
5
3DE
100
AcDbEntity
8
0
100
AcDbLine
62
7
6
CONTINUOUS
10
67.0855667714
20
84.9146519058
11
68.8102112130
21
94.7209850536
0
LINE
5
3DF
100
AcDbEntity
8
0
100
AcDbLine
62
7
6
CONTINUOUS
10
67.3036386281
20
82.5121356557
11
178.8567861478
21
82.5121356557
0
LINE
5
3E0
100
AcDbEntity
8
0
100
AcDbLine
62
7
6
CONTINUOUS
10
67.0855667714
20
84.9146519058
11
179.0748580045
21
84.9146519058
0
LINE
5
3E1
100
AcDbEntity
8
0
100
AcDbLine
62
7
6
CONTINUOUS
10
107.2076982880
20
127.3763776095
11
107.2076982880
21
127.2218267376
0
LINE
5
3E2
100
AcDbEntity
8
0
100
AcDbLine
62
7
6
CONTINUOUS
10
177.5834137215
20
93.3950082958
11
180.2415557345
21
93.4878326603
0
LINE
5
3E3
100
AcDbEntity
8
0
100
AcDbLine
6
CONTINUOUS
10
177.4119400815
20
94.3700078955
11
180.2073406231
21
94.4676254334
0
LINE
5
3E4
100
AcDbEntity
8
0
100
AcDbLine
62
7
6
CONTINUOUS
10
65.9188690352
20
93.4878326605
11
68.5770110544
21
93.3950082958
0
LINE
5
3E5
100
AcDbEntity
8
0
100
AcDbLine
6
CONTINUOUS
10
65.9530841528
20
94.4676254334
11
68.7484846944
21
94.3700078955
0
POLYLINE
5
3E6
100
AcDbEntity
8
0
100
AcDb2dPolyline
6
CONTINUOUS
66
1
70
0
0
VERTEX
5
3E7
100
AcDbEntity
8
0
100
AcDbVertex
6
CONTINUOUS
100
AcDb2dVertex
10
182.0996903880
20
98.8943308762
0
VERTEX
5
3E8
100
AcDbEntity
8
0
100
AcDbVertex
6
CONTINUOUS
100
AcDb2dVertex
10
182.2909549888
20
98.9128593158
0
VERTEX
5
3E9
100
AcDbEntity
8
0
100
AcDbVertex
6
CONTINUOUS
100
AcDb2dVertex
10
182.4748693982
20
98.9677325972
0
VERTEX
5
3EA
100
AcDbEntity
8
0
100
AcDbVertex
6
CONTINUOUS
100
AcDb2dVertex
10
182.6443658887
20
99.0568419709
0
VERTEX
5
3EB
100
AcDbEntity
8
0
100
AcDbVertex
6
CONTINUOUS
100
AcDb2dVertex
10
182.7929308052
20
99.1767630137
0
VERTEX
5
3EC
100
AcDbEntity
8
0
100
AcDbVertex
6
CONTINUOUS
100
AcDb2dVertex
10
182.9148548812
20
99.3228872271
0
VERTEX
5
3ED
100
AcDbEntity
8
0
100
AcDbVertex
6
CONTINUOUS
100
AcDb2dVertex
10
183.0054526428
20
99.4895991395
0
VERTEX
5
3EE
100
AcDbEntity
8
0
100
AcDbVertex
6
CONTINUOUS
100
AcDb2dVertex
10
183.0612424690
20
99.6704921057
0
VERTEX
5
3EF
100
AcDbEntity
8
0
100
AcDbVertex
6
CONTINUOUS
100
AcDb2dVertex
10
183.0800803880
20
99.8586145105
0
SEQEND
5
3F0
100
AcDbEntity
8
0
0
LINE
5
3F1
100
AcDbEntity
8
0
100
AcDbLine
62
7
6
CONTINUOUS
10
67.3032984377
20
94.7209850536
11
178.8571263382
21
94.7209850536
0
LINE
5
3F2
100
AcDbEntity
8
0
100
AcDbLine
6
CONTINUOUS
10
64.0607343880
20
96.4272109792
11
63.0803443880
21
96.4272109874
0
LINE
5
3F3
100
AcDbEntity
8
0
100
AcDbLine
6
CONTINUOUS
10
182.0996903880
20
96.4272109792
11
183.0800803880
21
96.4272109792
0
POLYLINE
5
3F4
100
AcDbEntity
8
0
100
AcDb2dPolyline
6
CONTINUOUS
66
1
70
0
0
VERTEX
5
3F5
100
AcDbEntity
8
0
100
AcDbVertex
6
CONTINUOUS
100
AcDb2dVertex
10
64.0607343880
20
98.8943308762
0
VERTEX
5
3F6
100
AcDbEntity
8
0
100
AcDbVertex
6
CONTINUOUS
100
AcDb2dVertex
10
63.8694792455
20
98.9128574658
0
VERTEX
5
3F7
100
AcDbEntity
8
0
100
AcDbVertex
6
CONTINUOUS
100
AcDb2dVertex
10
63.6855712377
20
98.9677261365
0
VERTEX
5
3F8
100
AcDbEntity
8
0
100
AcDbVertex
6
CONTINUOUS
100
AcDb2dVertex
10
63.5160779103
20
99.0568294699
0
VERTEX
5
3F9
100
AcDbEntity
8
0
100
AcDbVertex
6
CONTINUOUS
100
AcDb2dVertex
10
63.3675122504
20
99.1767450354
0
VERTEX
5
3FA
100
AcDbEntity
8
0
100
AcDbVertex
6
CONTINUOUS
100
AcDb2dVertex
10
63.2455839714
20
99.3228665072
0
VERTEX
5
3FB
100
AcDbEntity
8
0
100
AcDbVertex
6
CONTINUOUS
100
AcDb2dVertex
10
63.1549802081
20
99.4895799663
0
VERTEX
5
3FC
100
AcDbEntity
8
0
100
AcDbVertex
6
CONTINUOUS
100
AcDb2dVertex
10
63.0991847644
20
99.6704799550
0
VERTEX
5
3FD
100
AcDbEntity
8
0
100
AcDbVertex
6
CONTINUOUS
100
AcDb2dVertex
10
63.0803443880
20
99.8586145047
0
SEQEND
5
3FE
100
AcDbEntity
8
0
0
LINE
5
3FF
100
AcDbEntity
8
0
100
AcDbLine
6
CONTINUOUS
10
67.1068828067
20
97.2629726093
11
179.0535419692
21
97.2629726093
0
LINE
5
400
100
AcDbEntity
8
0
100
AcDbLine
6
CONTINUOUS
10
63.0803443880
20
97.4479054248
11
67.1394070283
21
97.4479054248
0
LINE
5
401
100
AcDbEntity
8
0
100
AcDbLine
6
CONTINUOUS
10
179.0210177476
20
97.4479054248
11
183.0800803880
21
97.4479054249
0
LINE
5
402
100
AcDbEntity
8
0
100
AcDbLine
6
CONTINUOUS
10
64.0607343880
20
98.8943308762
11
67.3937905555
21
98.8943308762
0
LINE
5
403
100
AcDbEntity
8
0
100
AcDbLine
6
CONTINUOUS
10
178.7666342204
20
98.8943308762
11
182.0996903880
21
98.8943308762
0
LINE
5
404
100
AcDbEntity
8
0
100
AcDbLine
62
7
6
CONTINUOUS
10
66.7410789292
20
101.5386040068
11
67.8588401197
21
101.5386040068
0
LINE
5
405
100
AcDbEntity
8
0
100
AcDbLine
6
CONTINUOUS
10
183.0800803880
20
103.1437290546
11
182.6973162970
21
103.1437290546
0
LINE
5
406
100
AcDbEntity
8
0
100
AcDbLine
6
CONTINUOUS
10
63.4631084789
20
103.1437290546
11
63.0803443880
21
103.1437290546
0
LINE
5
407
100
AcDbEntity
8
0
100
AcDbLine
62
7
6
CONTINUOUS
10
179.4473827769
20
103.5514748465
11
177.9475801111
21
103.5514748465
0
LINE
5
408
100
AcDbEntity
8
0
100
AcDbLine
62
7
6
CONTINUOUS
10
66.7128011704
20
103.5514748465
11
68.2128446648
21
103.5514748465
0
LINE
5
409
100
AcDbEntity
8
0
100
AcDbLine
6
CONTINUOUS
10
182.7202821425
20
104.7123530546
11
182.3446091478
21
104.7123530546
0
LINE
5
40A
100
AcDbEntity
8
0
100
AcDbLine
6
CONTINUOUS
10
63.4401426334
20
104.7123530546
11
63.8158213284
21
104.7123530546
0
LINE
5
40B
100
AcDbEntity
8
0
100
AcDbLine
6
CONTINUOUS
10
182.0752979202
20
104.9710097491
11
177.6979258374
21
104.9710097491
0
LINE
5
40C
100
AcDbEntity
8
0
100
AcDbLine
6
CONTINUOUS
10
68.4624989385
20
104.9710097491
11
64.0851268557
21
104.9710097491
0
LINE
5
40D
100
AcDbEntity
8
0
100
AcDbLine
62
7
6
CONTINUOUS
10
182.4261098239
20
105.0064700546
11
177.6916894167
21
105.0064700546
0
LINE
5
40E
100
AcDbEntity
8
0
100
AcDbLine
62
7
6
CONTINUOUS
10
68.4687353592
20
105.0064700546
11
63.7342596334
21
105.0064700546
0
LINE
5
40F
100
AcDbEntity
8
0
100
AcDbLine
62
7
6
CONTINUOUS
10
67.3033074841
20
106.7421537018
11
178.8571172919
21
106.7421537018
0
LINE
5
410
100
AcDbEntity
8
0
100
AcDbLine
6
CONTINUOUS
10
67.1136252503
20
109.3211634023
11
179.0467995256
21
109.3211634023
0
POLYLINE
5
411
100
AcDbEntity
8
0
100
AcDb2dPolyline
6
CONTINUOUS
66
1
70
0
0
VERTEX
5
412
100
AcDbEntity
8
0
100
AcDbVertex
6
CONTINUOUS
100
AcDb2dVertex
10
63.7342596334
20
105.0064700546
0
VERTEX
5
413
100
AcDbEntity
8
0
100
AcDbVertex
6
CONTINUOUS
100
AcDb2dVertex
10
63.6813606674
20
105.0008186789
0
VERTEX
5
414
100
AcDbEntity
8
0
100
AcDbVertex
6
CONTINUOUS
100
AcDb2dVertex
10
63.6304945789
20
104.9840817311
0
VERTEX
5
415
100
AcDbEntity
8
0
100
AcDbVertex
6
CONTINUOUS
100
AcDb2dVertex
10
63.5836161233
20
104.9569024026
0
VERTEX
5
416
100
AcDbEntity
8
0
100
AcDbVertex
6
CONTINUOUS
100
AcDb2dVertex
10
63.5425268133
20
104.9203251798
0
VERTEX
5
417
100
AcDbEntity
8
0
100
AcDbVertex
6
CONTINUOUS
100
AcDb2dVertex
10
63.5088056881
20
104.8757557048
0
VERTEX
5
418
100
AcDbEntity
8
0
100
AcDbVertex
6
CONTINUOUS
100
AcDb2dVertex
10
63.4837486315
20
104.8249067577
0
VERTEX
5
419
100
AcDbEntity
8
0
100
AcDbVertex
6
CONTINUOUS
100
AcDb2dVertex
10
63.4683185723
20
104.7697324348
0
VERTEX
5
41A
100
AcDbEntity
8
0
100
AcDbVertex
6
CONTINUOUS
100
AcDb2dVertex
10
63.4631084789
20
104.7123530546
0
SEQEND
5
41B
100
AcDbEntity
8
0
0
LINE
5
41C
100
AcDbEntity
8
0
100
AcDbLine
6
CONTINUOUS
10
182.4790641086
20
105.0008186789
11
182.4261651425
21
105.0064700546
0
LINE
5
41D
100
AcDbEntity
8
0
100
AcDbLine
62
7
6
CONTINUOUS
10
68.0452951444
20
114.2613516546
11
63.7343352513
21
114.2613516546
0
LINE
5
41E
100
AcDbEntity
8
0
100
AcDbLine
62
7
6
CONTINUOUS
10
178.1151296315
20
114.2613516546
11
182.4261650945
21
114.2613516546
0
LINE
5
41F
100
AcDbEntity
8
0
100
AcDbLine
6
CONTINUOUS
10
68.0519826019
20
114.2968119600
11
64.0851268557
21
114.2968119600
0
LINE
5
420
100
AcDbEntity
8
0
100
AcDbLine
6
CONTINUOUS
10
178.1084421740
20
114.2968119600
11
182.0752979202
21
114.2968119600
0
LINE
5
421
100
AcDbEntity
8
0
100
AcDbLine
6
CONTINUOUS
10
63.4401426522
20
114.5554686546
11
63.8157311115
21
114.5554686546
0
LINE
5
422
100
AcDbEntity
8
0
100
AcDbLine
6
CONTINUOUS
10
182.3446998528
20
114.5554686546
11
182.7202821237
21
114.5554686546
0
LINE
5
423
100
AcDbEntity
8
0
100
AcDbLine
62
7
6
CONTINUOUS
10
179.4473825558
20
115.7163468627
11
177.8407321466
21
115.7163468627
0
LINE
5
424
100
AcDbEntity
8
0
100
AcDbLine
62
7
6
CONTINUOUS
10
66.7128008822
20
115.7163468627
11
68.3196926293
21
115.7163468627
0
LINE
5
425
100
AcDbEntity
8
0
100
AcDbLine
6
CONTINUOUS
10
63.0803443880
20
116.1240926546
11
63.4631084789
21
116.1240926546
0
LINE
5
426
100
AcDbEntity
8
0
100
AcDbLine
6
CONTINUOUS
10
182.6973162970
20
116.1240926546
11
183.0800803880
21
116.1240926546
0
LINE
5
427
100
AcDbEntity
8
0
100
AcDbLine
62
7
6
CONTINUOUS
10
179.4193609190
20
117.7292177024
11
177.4611249199
21
117.7292177024
0
LINE
5
428
100
AcDbEntity
8
0
100
AcDbLine
62
7
6
CONTINUOUS
10
138.9527264880
20
127.3763775747
11
138.9527264880
21
127.2218267376
0
LINE
5
429
100
AcDbEntity
8
0
100
AcDbLine
6
CONTINUOUS
10
64.0607343880
20
120.3734908330
11
69.0747162477
21
120.3734908330
0
LINE
5
42A
100
AcDbEntity
8
0
100
AcDbLine
6
CONTINUOUS
10
177.0857085282
20
120.3734908330
11
182.0996903880
21
120.3734908330
0
LINE
5
42B
100
AcDbEntity
8
0
100
AcDbLine
6
CONTINUOUS
10
63.0803443880
20
121.8199162883
11
69.0852331380
21
121.8199162844
0
LINE
5
42C
100
AcDbEntity
8
0
100
AcDbLine
6
CONTINUOUS
10
177.0751916380
20
121.8199162844
11
183.0800803880
21
121.8199162844
0
POLYLINE
5
42D
100
AcDbEntity
8
0
100
AcDb2dPolyline
6
CONTINUOUS
66
1
70
0
0
VERTEX
5
42E
100
AcDbEntity
8
0
100
AcDbVertex
6
CONTINUOUS
100
AcDb2dVertex
10
64.0607343880
20
120.3734908330
0
VERTEX
5
42F
100
AcDbEntity
8
0
100
AcDbVertex
6
CONTINUOUS
100
AcDb2dVertex
10
63.8694697872
20
120.3549623933
0
VERTEX
5
430
100
AcDbEntity
8
0
100
AcDbVertex
6
CONTINUOUS
100
AcDb2dVertex
10
63.6855553777
20
120.3000891120
0
VERTEX
5
431
100
AcDbEntity
8
0
100
AcDbVertex
6
CONTINUOUS
100
AcDb2dVertex
10
63.5160588872
20
120.2109797382
0
VERTEX
5
432
100
AcDbEntity
8
0
100
AcDbVertex
6
CONTINUOUS
100
AcDb2dVertex
10
63.3674939707
20
120.0910586955
0
VERTEX
5
433
100
AcDbEntity
8
0
100
AcDbVertex
6
CONTINUOUS
100
AcDb2dVertex
10
63.2455698948
20
119.9449344821
0
VERTEX
5
434
100
AcDbEntity
8
0
100
AcDbVertex
6
CONTINUOUS
100
AcDb2dVertex
10
63.1549721331
20
119.7782225696
0
VERTEX
5
435
100
AcDbEntity
8
0
100
AcDbVertex
6
CONTINUOUS
100
AcDb2dVertex
10
63.0991823069
20
119.5973296034
0
VERTEX
5
436
100
AcDbEntity
8
0
100
AcDbVertex
6
CONTINUOUS
100
AcDb2dVertex
10
63.0803443880
20
119.4092071987
0
SEQEND
5
437
100
AcDbEntity
8
0
0
LINE
5
438
100
AcDbEntity
8
0
100
AcDbLine
6
CONTINUOUS
10
111.7248011591
20
126.3985798546
11
79.8048573484
21
125.2839108546
0
LINE
5
439
100
AcDbEntity
8
0
100
AcDbLine
6
CONTINUOUS
10
70.0944617100
20
124.9448163668
11
65.9530841528
21
124.8001962758
0
LINE
5
43A
100
AcDbEntity
8
0
100
AcDbLine
6
CONTINUOUS
10
64.0607343880
20
122.8406107300
11
63.0803443880
21
122.8406107300
0
LINE
5
43B
100
AcDbEntity
8
0
100
AcDbLine
6
CONTINUOUS
10
182.0996903880
20
122.8406107300
11
183.0800803880
21
122.8406107218
0
LINE
5
43C
100
AcDbEntity
8
0
100
AcDbLine
6
CONTINUOUS
10
176.1951747427
20
124.4419302556
11
69.9652500332
21
124.4419302556
0
LINE
5
43D
100
AcDbEntity
8
0
100
AcDbLine
62
7
6
CONTINUOUS
10
70.3447819244
20
125.2839108546
11
175.8156428515
21
125.2839108546
0
LINE
5
43E
100
AcDbEntity
8
0
100
AcDbLine
6
CONTINUOUS
10
111.7248011591
20
126.3985798546
11
134.4356236169
21
126.3985798546
0
LINE
5
43F
100
AcDbEntity
8
0
100
AcDbLine
6
CONTINUOUS
10
180.2073406231
20
124.8001962758
11
176.0659630659
21
124.9448163668
0
LINE
5
440
100
AcDbEntity
8
0
100
AcDbLine
6
CONTINUOUS
10
166.3555674275
20
125.2839108546
11
134.4356236169
21
126.3985798546
0
POLYLINE
5
441
100
AcDbEntity
8
0
100
AcDb2dPolyline
6
CONTINUOUS
66
1
70
0
0
VERTEX
5
442
100
AcDbEntity
8
0
100
AcDbVertex
6
CONTINUOUS
100
AcDb2dVertex
10
182.0996903880
20
120.3734908330
0
VERTEX
5
443
100
AcDbEntity
8
0
100
AcDbVertex
6
CONTINUOUS
100
AcDb2dVertex
10
182.2909454351
20
120.3549642625
0
VERTEX
5
444
100
AcDbEntity
8
0
100
AcDbVertex
6
CONTINUOUS
100
AcDb2dVertex
10
182.4748533807
20
120.3000956376
0
VERTEX
5
445
100
AcDbEntity
8
0
100
AcDbVertex
6
CONTINUOUS
100
AcDb2dVertex
10
182.6443466812
20
120.2109923613
0
VERTEX
5
446
100
AcDbEntity
8
0
100
AcDbVertex
6
CONTINUOUS
100
AcDb2dVertex
10
182.7929123521
20
120.0910768450
0
VERTEX
5
447
100
AcDbEntity
8
0
100
AcDbVertex
6
CONTINUOUS
100
AcDb2dVertex
10
182.9148406736
20
119.9449553954
0
VERTEX
5
448
100
AcDbEntity
8
0
100
AcDbVertex
6
CONTINUOUS
100
AcDb2dVertex
10
183.0054444941
20
119.7782419186
0
VERTEX
5
449
100
AcDbEntity
8
0
100
AcDbVertex
6
CONTINUOUS
100
AcDb2dVertex
10
183.0612399893
20
119.5973418647
0
VERTEX
5
44A
100
AcDbEntity
8
0
100
AcDbVertex
6
CONTINUOUS
100
AcDb2dVertex
10
183.0800803880
20
119.4092072053
0
SEQEND
5
44B
100
AcDbEntity
8
0
0
LINE
5
44C
100
AcDbEntity
8
0
100
AcDbLine
62
7
6
CONTINUOUS
10
111.7076883880
20
127.3789698546
11
65.9188690352
21
125.7799890487
0
LINE
5
44D
100
AcDbEntity
8
0
100
AcDbLine
62
7
6
CONTINUOUS
10
107.2409938054
20
127.3789698546
11
138.9194413390
21
127.3789698546
0
LINE
5
44E
100
AcDbEntity
8
0
100
AcDbLine
62
7
6
CONTINUOUS
10
180.2415557407
20
125.7799890487
11
134.4527363880
21
127.3789698546
0
LINE
5
44F
100
AcDbEntity
8
0
100
AcDbLine
62
7
6
CONTINUOUS
10
179.0748580045
20
84.9146519058
11
177.3502135629
21
94.7209850536
0
LINE
5
450
100
AcDbEntity
8
0
100
AcDbLine
62
7
6
CONTINUOUS
10
177.0857085282
20
120.3734908330
11
177.1272654837
21
119.4995104583
0
POLYLINE
5
451
100
AcDbEntity
8
0
100
AcDb2dPolyline
6
CONTINUOUS
66
1
70
0
0
VERTEX
5
452
100
AcDbEntity
8
0
100
AcDbVertex
6
CONTINUOUS
100
AcDb2dVertex
10
182.6766761444
20
104.8249067577
0
VERTEX
5
453
100
AcDbEntity
8
0
100
AcDbVertex
6
CONTINUOUS
100
AcDb2dVertex
10
182.6516190878
20
104.8757557048
0
VERTEX
5
454
100
AcDbEntity
8
0
100
AcDbVertex
6
CONTINUOUS
100
AcDb2dVertex
10
182.6178979626
20
104.9203251798
0
VERTEX
5
455
100
AcDbEntity
8
0
100
AcDbVertex
6
CONTINUOUS
100
AcDb2dVertex
10
182.5768086526
20
104.9569024026
0
VERTEX
5
456
100
AcDbEntity
8
0
100
AcDbVertex
6
CONTINUOUS
100
AcDb2dVertex
10
182.5299301970
20
104.9840817311
0
VERTEX
5
457
100
AcDbEntity
8
0
100
AcDbVertex
6
CONTINUOUS
100
AcDb2dVertex
10
182.4790641086
20
105.0008186789
0
SEQEND
5
458
100
AcDbEntity
8
0
0
LINE
5
459
100
AcDbEntity
8
0
100
AcDbLine
62
7
6
CONTINUOUS
10
179.0467995256
20
109.3211634023
11
176.1951747427
21
124.4419302556
0
LINE
5
45A
100
AcDbEntity
8
0
100
AcDbLine
62
7
6
CONTINUOUS
10
179.0535419692
20
97.2629726093
11
177.3864339141
21
106.7421537018
0
POLYLINE
5
45B
100
AcDbEntity
8
0
100
AcDb2dPolyline
6
CONTINUOUS
66
1
70
0
0
VERTEX
5
45C
100
AcDbEntity
8
0
100
AcDbVertex
6
CONTINUOUS
100
AcDb2dVertex
10
182.6973162970
20
104.7123530546
0
VERTEX
5
45D
100
AcDbEntity
8
0
100
AcDbVertex
6
CONTINUOUS
100
AcDb2dVertex
10
182.6921062036
20
104.7697324348
0
VERTEX
5
45E
100
AcDbEntity
8
0
100
AcDbVertex
6
CONTINUOUS
100
AcDb2dVertex
10
182.6766761444
20
104.8249067577
0
SEQEND
5
45F
100
AcDbEntity
8
0
0
LINE
5
460
100
AcDbEntity
8
0
100
AcDbLine
6
CONTINUOUS
10
180.2073406231
20
94.4676254334
11
180.2415557345
21
93.4878326603
0
LINE
5
461
100
AcDbEntity
8
0
100
AcDbLine
6
CONTINUOUS
10
182.0752979202
20
104.9710097491
11
182.0752979202
21
105.0064700546
0
LINE
5
462
100
AcDbEntity
8
0
100
AcDbLine
6
CONTINUOUS
10
182.0996903880
20
96.4272109792
11
182.0996903880
21
100.8557266295
0
LINE
5
463
100
AcDbEntity
8
0
100
AcDbLine
6
CONTINUOUS
10
182.0996903880
20
118.4120950796
11
182.0996903880
21
122.8406107300
0
LINE
5
464
100
AcDbEntity
8
0
100
AcDbLine
6
CONTINUOUS
10
182.5800803880
20
104.9616500656
11
182.5800803880
21
114.3058247577
0
LINE
5
465
100
AcDbEntity
8
0
100
AcDbLine
6
CONTINUOUS
10
182.6973162970
20
116.1240926546
11
182.6973162970
21
114.5554686546
0
LINE
5
466
100
AcDbEntity
8
0
100
AcDbLine
6
CONTINUOUS
10
182.6973162970
20
104.7123530546
11
182.6973162970
21
103.1437290546
0
LINE
5
467
100
AcDbEntity
8
0
100
AcDbLine
62
7
6
CONTINUOUS
10
182.7202821425
20
115.9809678505
11
182.7202821425
21
114.5554686546
0
LINE
5
468
100
AcDbEntity
8
0
100
AcDbLine
62
7
6
CONTINUOUS
10
182.7202821425
20
104.7123530546
11
182.7202821425
21
103.2868538587
0
LINE
5
469
100
AcDbEntity
8
0
100
AcDbLine
62
7
6
CONTINUOUS
10
183.0800803880
20
96.4272109792
11
183.0800803880
21
115.1339108546
0
LINE
5
46A
100
AcDbEntity
8
0
100
AcDbLine
62
7
6
CONTINUOUS
10
183.0800803880
20
115.3425359836
11
183.0800803880
21
122.8406107300
0
LINE
5
46B
100
AcDbEntity
8
0
100
AcDbLine
6
CONTINUOUS
10
180.2073406231
20
124.8001962758
11
180.2415557407
21
125.7799890487
0
ARC
5
46C
100
AcDbEntity
8
0
100
AcDbCircle
62
7
6
CONTINUOUS
10
63.5800803880
20
215.4720598126
40
0.5000000000
100
AcDbArc
50
151.9250200359
51
180.0000000000
0
ARC
5
46D
100
AcDbEntity
8
0
100
AcDbCircle
62
7
6
CONTINUOUS
10
182.5800803880
20
215.4720598126
40
0.5000000000
100
AcDbArc
50
0.0000000000
51
27.9870626957
0
ARC
5
46E
100
AcDbEntity
8
0
100
AcDbCircle
62
7
6
CONTINUOUS
10
64.0607343880
20
200.2073864526
40
0.9803900000
100
AcDbArc
50
180.0000000000
51
270.0000000000
0
ARC
5
46F
100
AcDbEntity
8
0
100
AcDbCircle
62
7
6
CONTINUOUS
10
182.0996903880
20
200.2073864526
40
0.9803900000
100
AcDbArc
50
270.0000000000
51
360.0000000000
0
ARC
5
470
100
AcDbEntity
8
0
100
AcDbCircle
62
7
6
CONTINUOUS
10
64.0607343880
20
202.2662054526
40
0.9803900000
100
AcDbArc
50
90.0000000000
51
180.0000000000
0
ARC
5
471
100
AcDbEntity
8
0
100
AcDbCircle
62
7
6
CONTINUOUS
10
182.0996903880
20
202.2662054526
40
0.9803900000
100
AcDbArc
50
0.0000000000
51
90.0000000000
0
ARC
5
472
100
AcDbEntity
8
0
100
AcDbCircle
62
7
6
CONTINUOUS
10
178.1781303880
20
214.9615375511
40
4.9019500000
100
AcDbArc
50
0.0000000000
51
90.0031390838
0
ARC
5
473
100
AcDbEntity
8
0
100
AcDbCircle
62
7
6
CONTINUOUS
10
113.1654957846
20
197.7564114526
40
1.4705850000
100
AcDbArc
50
90.0000000000
51
179.5000000000
0
ARC
5
474
100
AcDbEntity
8
0
100
AcDbCircle
62
7
6
CONTINUOUS
10
132.9949289913
20
197.7564114526
40
1.4705850000
100
AcDbArc
50
0.5000000000
51
90.0000000000
0
ARC
5
475
100
AcDbEntity
8
0
100
AcDbCircle
62
7
6
CONTINUOUS
10
67.9822943880
20
214.9615375511
40
4.9019500000
100
AcDbArc
50
89.9969734005
51
180.0000000000
0
ARC
5
476
100
AcDbEntity
8
0
100
AcDbCircle
62
7
6
CONTINUOUS
10
139.9331164880
20
179.4231184526
40
0.9803900000
100
AcDbArc
50
180.0000000000
51
270.0000000000
0
ARC
5
477
100
AcDbEntity
8
0
100
AcDbCircle
62
7
6
CONTINUOUS
10
139.9331164880
20
198.2466107107
40
0.9803878709
100
AcDbArc
50
90.0000000000
51
180.0002488557
0
ARC
5
478
100
AcDbEntity
8
0
100
AcDbCircle
62
7
6
CONTINUOUS
10
95.6783118880
20
177.4623384526
40
0.9803900000
100
AcDbArc
50
90.0000000000
51
180.0000000000
0
ARC
5
479
100
AcDbEntity
8
0
100
AcDbCircle
62
7
6
CONTINUOUS
10
106.2273082880
20
179.4231184526
40
0.9803900000
100
AcDbArc
50
270.0000000000
51
360.0000000000
0
ARC
5
47A
100
AcDbEntity
8
0
100
AcDbCircle
62
7
6
CONTINUOUS
10
150.4821128880
20
177.4623384526
40
0.9803900000
100
AcDbArc
50
0.0000000000
51
90.0000000000
0
ARC
5
47B
100
AcDbEntity
8
0
100
AcDbCircle
62
7
6
CONTINUOUS
10
106.2273082880
20
198.2466107107
40
0.9803878709
100
AcDbArc
50
359.9997511443
51
90.0000000000
0
ARC
5
47C
100
AcDbEntity
8
0
100
AcDbCircle
62
7
6
CONTINUOUS
10
150.4821128880
20
175.3741077526
40
0.9803900000
100
AcDbArc
50
270.0000000000
51
360.0000000000
0
ARC
5
47D
100
AcDbEntity
8
0
100
AcDbCircle
62
7
6
CONTINUOUS
10
95.6783118880
20
175.3741077526
40
0.9803900000
100
AcDbArc
50
180.0000000000
51
270.0000000000
0
ARC
5
47E
100
AcDbEntity
8
0
100
AcDbCircle
62
7
6
CONTINUOUS
10
292.8099648629
20
209.4720609326
40
0.5000000000
100
AcDbArc
50
180.0000000000
51
270.0000000000
0
ARC
5
47F
100
AcDbEntity
8
0
100
AcDbCircle
62
7
6
CONTINUOUS
10
302.3491803829
20
210.0112764526
40
1.0392155200
100
AcDbArc
50
180.0000000000
51
270.0000000000
0
ARC
5
480
100
AcDbEntity
8
0
100
AcDbCircle
62
7
6
CONTINUOUS
10
303.8099648629
20
209.4720609326
40
0.5000000000
100
AcDbArc
50
270.0000000000
51
360.0000000000
0
ARC
5
481
100
AcDbEntity
8
0
100
AcDbCircle
62
7
6
CONTINUOUS
10
294.2707493429
20
210.0112764526
40
1.0392155200
100
AcDbArc
50
270.0000000000
51
360.0000000000
0
ARC
5
482
100
AcDbEntity
8
0
100
AcDbCircle
6
CONTINUOUS
10
302.3491803829
20
210.0112764526
40
0.5392039900
100
AcDbArc
50
180.0000000000
51
270.0000000000
0
ARC
5
483
100
AcDbEntity
8
0
100
AcDbCircle
6
CONTINUOUS
10
300.8099648629
20
211.4720604526
40
0.9999966079
100
AcDbArc
50
0.0000000000
51
90.0000000000
0
ARC
5
484
100
AcDbEntity
8
0
100
AcDbCircle
6
CONTINUOUS
10
295.8099648629
20
211.4720604526
40
0.9999966091
100
AcDbArc
50
90.0000000000
51
180.0000000000
0
ARC
5
485
100
AcDbEntity
8
0
100
AcDbCircle
6
CONTINUOUS
10
294.2707493429
20
210.0112764526
40
0.5392039900
100
AcDbArc
50
270.0000000000
51
360.0000000000
0
ARC
5
486
100
AcDbEntity
8
0
100
AcDbCircle
62
7
6
CONTINUOUS
10
304.2599648629
20
210.0465954526
40
0.8000000000
100
AcDbArc
50
270.0000000000
51
273.6323969073
0
ARC
5
487
100
AcDbEntity
8
0
100
AcDbCircle
62
7
6
CONTINUOUS
10
292.3599648629
20
210.0465954526
40
0.8000000000
100
AcDbArc
50
266.3676213526
51
270.0000000000
0
ARC
5
488
100
AcDbEntity
8
0
100
AcDbCircle
62
7
6
CONTINUOUS
10
316.9599648629
20
212.9465954526
40
3.0000000000
100
AcDbArc
50
147.0000000000
51
180.0000000000
0
ARC
5
489
100
AcDbEntity
8
0
100
AcDbCircle
62
7
6
CONTINUOUS
10
323.9317400618
20
231.9445408814
40
1.5000000000
100
AcDbArc
50
327.0000000000
51
126.9901344457
0
ARC
5
48A
100
AcDbEntity
8
0
100
AcDbCircle
62
7
6
CONTINUOUS
10
309.5866946679
20
222.2465954526
40
1.5000000000
100
AcDbArc
50
150.0000000000
51
314.0000000000
0
ARC
5
48B
100
AcDbEntity
8
0
100
AcDbCircle
62
7
6
CONTINUOUS
10
297.5655260197
20
222.2465954526
40
1.5000000000
100
AcDbArc
50
150.0000000000
51
339.2273290799
0
ARC
5
48C
100
AcDbEntity
8
0
100
AcDbCircle
62
7
6
CONTINUOUS
10
285.6599648629
20
215.2465954526
40
3.0000000000
100
AcDbArc
50
136.0000000000
51
180.0000000000
0
ARC
5
48D
100
AcDbEntity
8
0
100
AcDbCircle
62
7
6
CONTINUOUS
10
299.7017220157
20
231.9465954526
40
1.5000000000
100
AcDbArc
50
330.0000020237
51
136.0000000000
0
ARC
5
48E
100
AcDbEntity
8
0
100
AcDbCircle
62
7
6
CONTINUOUS
10
311.7228906639
20
231.9465954526
40
1.5000000000
100
AcDbArc
50
330.0000000000
51
134.0000000000
0
CIRCLE
5
48F
100
AcDbEntity
8
0
100
AcDbCircle
62
7
6
CONTINUOUS
10
307.3050431129
20
188.7074117526
40
2.6470530000
0
CIRCLE
5
490
100
AcDbEntity
8
0
100
AcDbCircle
62
7
6
CONTINUOUS
10
289.3148866129
20
188.7074117526
40
2.5588179000
0
ARC
5
491
100
AcDbEntity
8
0
100
AcDbCircle
62
7
6
CONTINUOUS
10
281.5452958629
20
202.2662054526
40
0.9803900000
100
AcDbArc
50
90.0000000000
51
180.0000000000
0
ARC
5
492
100
AcDbEntity
8
0
100
AcDbCircle
62
7
6
CONTINUOUS
10
315.0746338629
20
202.2662054526
40
0.9803900000
100
AcDbArc
50
0.0000000000
51
90.0000000000
0
ARC
5
493
100
AcDbEntity
8
0
100
AcDbCircle
62
7
6
CONTINUOUS
10
293.4864460629
20
217.4200350966
40
0.1960780000
100
AcDbArc
50
0.0000000000
51
35.0000000000
0
ARC
5
494
100
AcDbEntity
8
0
100
AcDbCircle
62
7
6
CONTINUOUS
10
303.1334836629
20
217.4200350966
40
0.1960780000
100
AcDbArc
50
145.0000000000
51
180.0000000000
0
ARC
5
495
100
AcDbEntity
8
0
100
AcDbCircle
62
7
6
CONTINUOUS
10
293.3884070629
20
216.7465657526
40
0.2941170000
100
AcDbArc
50
270.0000000000
51
360.0000000000
0
ARC
5
496
100
AcDbEntity
8
0
100
AcDbCircle
62
7
6
CONTINUOUS
10
303.2315226629
20
216.7465657526
40
0.2941170000
100
AcDbArc
50
180.0000000000
51
270.0000000000
0
ARC
5
497
100
AcDbEntity
8
0
100
AcDbCircle
62
7
6
CONTINUOUS
10
293.8099747629
20
207.9524674526
40
1.4999967000
100
AcDbArc
50
180.0000000000
51
360.0000000000
0
ARC
5
498
100
AcDbEntity
8
0
100
AcDbCircle
62
7
6
CONTINUOUS
10
302.8099549629
20
207.9524674526
40
1.4999967000
100
AcDbArc
50
180.0000000000
51
360.0000000000
0
ARC
5
499
100
AcDbEntity
8
0
100
AcDbCircle
62
7
6
CONTINUOUS
10
305.1999230107
20
218.6380000511
40
1.2254875000
100
AcDbArc
50
10.4000000000
51
131.2190442967
0
ARC
5
49A
100
AcDbEntity
8
0
100
AcDbCircle
62
7
6
CONTINUOUS
10
310.4959702927
20
204.7171804526
40
1.4705850000
100
AcDbArc
50
190.4000000000
51
270.0000000000
0
ARC
5
49B
100
AcDbEntity
8
0
100
AcDbCircle
62
7
6
CONTINUOUS
10
286.1239594331
20
204.7171804526
40
1.4705850000
100
AcDbArc
50
270.0000000000
51
349.6000000000
0
ARC
5
49C
100
AcDbEntity
8
0
100
AcDbCircle
62
7
6
CONTINUOUS
10
291.4200067151
20
218.6380000511
40
1.2254875000
100
AcDbArc
50
48.7809557033
51
169.5999983462
0
ARC
5
49D
100
AcDbEntity
8
0
100
AcDbCircle
62
7
6
CONTINUOUS
10
311.3917785315
20
175.3741077526
40
0.9803900000
100
AcDbArc
50
270.0000000000
51
351.2500000000
0
ARC
5
49E
100
AcDbEntity
8
0
100
AcDbCircle
62
7
6
CONTINUOUS
10
285.2281511943
20
175.3741077526
40
0.9803900000
100
AcDbArc
50
188.7500000000
51
270.0000000000
0
ARC
5
49F
100
AcDbEntity
8
0
100
AcDbCircle
62
7
6
CONTINUOUS
10
311.6249960346
20
176.8893462010
40
0.9803900000
100
AcDbArc
50
351.2500000000
51
60.0000000000
0
ARC
5
4A0
100
AcDbEntity
8
0
100
AcDbCircle
62
7
6
CONTINUOUS
10
310.6325443425
20
177.4623384526
40
0.9803900000
100
AcDbArc
50
60.0000000000
51
90.0000000000
0
ARC
5
4A1
100
AcDbEntity
8
0
100
AcDbCircle
62
7
6
CONTINUOUS
10
285.9873853833
20
177.4623384526
40
0.9803900000
100
AcDbArc
50
90.0000000000
51
120.0000000000
0
ARC
5
4A2
100
AcDbEntity
8
0
100
AcDbCircle
62
7
6
CONTINUOUS
10
284.9949336912
20
176.8893462010
40
0.9803900000
100
AcDbArc
50
120.0000000000
51
188.7500000000
0
ARC
5
4A3
100
AcDbEntity
8
0
100
AcDbCircle
6
CONTINUOUS
10
310.4959702927
20
204.7171804526
40
2.4509680596
100
AcDbArc
50
190.4000000000
51
270.0000000000
0
ARC
5
4A4
100
AcDbEntity
8
0
100
AcDbCircle
6
CONTINUOUS
10
284.9949336912
20
176.8893462010
40
1.9607800000
100
AcDbArc
50
120.0000000000
51
122.3281784419
0
ARC
5
4A5
100
AcDbEntity
8
0
100
AcDbCircle
6
CONTINUOUS
10
285.9873853833
20
177.4623384526
40
1.9607717573
100
AcDbArc
50
90.0000000000
51
120.0000000000
0
ARC
5
4A6
100
AcDbEntity
8
0
100
AcDbCircle
6
CONTINUOUS
10
310.6325443425
20
177.4623384526
40
1.9607717578
100
AcDbArc
50
60.0000000000
51
90.0000000000
0
ARC
5
4A7
100
AcDbEntity
8
0
100
AcDbCircle
6
CONTINUOUS
10
311.6249960346
20
176.8893462010
40
1.9607800000
100
AcDbArc
50
57.6718215671
51
60.0000000000
0
ARC
5
4A8
100
AcDbEntity
8
0
100
AcDbCircle
6
CONTINUOUS
10
286.1239594331
20
204.7171804526
40
2.4509680596
100
AcDbArc
50
270.0000000000
51
349.6000000000
0
ARC
5
4A9
100
AcDbEntity
8
0
100
AcDbCircle
6
CONTINUOUS
10
293.8099747629
20
207.9524674526
40
1.9901794927
100
AcDbArc
50
180.0000000000
51
360.0000000000
0
ARC
5
4AA
100
AcDbEntity
8
0
100
AcDbCircle
6
CONTINUOUS
10
302.8099549629
20
207.9524674526
40
1.9901794927
100
AcDbArc
50
180.0000000000
51
360.0000000000
0
ARC
5
4AB
100
AcDbEntity
8
0
100
AcDbCircle
62
7
6
CONTINUOUS
10
63.5800803880
20
104.1339108546
40
0.5000000000
100
AcDbArc
50
180.0000000000
51
253.6400690856
0
ARC
5
4AC
100
AcDbEntity
8
0
100
AcDbCircle
62
7
6
CONTINUOUS
10
63.5800803880
20
115.1339108546
40
0.5000000000
100
AcDbArc
50
106.3599309144
51
180.0000000000
0
ARC
5
4AD
100
AcDbEntity
8
0
100
AcDbCircle
62
7
6
CONTINUOUS
10
182.5800803880
20
115.1339108546
40
0.5000000000
100
AcDbArc
50
0.0000000000
51
73.6094402783
0
ARC
5
4AE
100
AcDbEntity
8
0
100
AcDbCircle
62
7
6
CONTINUOUS
10
182.5800803880
20
104.1339108546
40
0.5000000000
100
AcDbArc
50
286.3905597217
51
360.0000000000
0
ARC
5
4AF
100
AcDbEntity
8
0
100
AcDbCircle
62
7
6
CONTINUOUS
10
63.5705393880
20
103.1437290546
40
0.4901950000
100
AcDbArc
50
105.5030594357
51
180.0000000000
0
ARC
5
4B0
100
AcDbEntity
8
0
100
AcDbCircle
62
7
6
CONTINUOUS
10
182.5898853880
20
103.1437290546
40
0.4901950000
100
AcDbArc
50
0.0000000000
51
74.4969334755
0
ARC
5
4B1
100
AcDbEntity
8
0
100
AcDbCircle
62
7
6
CONTINUOUS
10
182.5898853880
20
116.1240926546
40
0.4901950000
100
AcDbArc
50
285.5030620323
51
360.0000000000
0
ARC
5
4B2
100
AcDbEntity
8
0
100
AcDbCircle
62
7
6
CONTINUOUS
10
63.5705393880
20
116.1240926546
40
0.4901950000
100
AcDbArc
50
180.0000000000
51
254.4969334755
0
ARC
5
4B3
100
AcDbEntity
8
0
100
AcDbCircle
62
7
6
CONTINUOUS
10
180.1389103880
20
96.4272109792
40
2.9411700000
100
AcDbArc
50
272.0000000000
51
360.0000000000
0
ARC
5
4B4
100
AcDbEntity
8
0
100
AcDbCircle
62
7
6
CONTINUOUS
10
180.1389103880
20
122.8406107300
40
2.9411700000
100
AcDbArc
50
0.0000000000
51
88.0000000000
0
ARC
5
4B5
100
AcDbEntity
8
0
100
AcDbCircle
62
7
6
CONTINUOUS
10
66.0215143880
20
122.8406107300
40
2.9411700000
100
AcDbArc
50
92.0000000000
51
180.0000000000
0
ARC
5
4B6
100
AcDbEntity
8
0
100
AcDbCircle
62
7
6
CONTINUOUS
10
66.0215143880
20
96.4272109792
40
2.9411700000
100
AcDbArc
50
180.0000000000
51
268.0000000000
0
ARC
5
4B7
100
AcDbEntity
8
0
100
AcDbCircle
6
CONTINUOUS
10
180.1389103880
20
96.4272109792
40
1.9607775643
100
AcDbArc
50
272.0000000000
51
360.0000000000
0
ARC
5
4B8
100
AcDbEntity
8
0
100
AcDbCircle
6
CONTINUOUS
10
66.0215143880
20
96.4272109792
40
1.9607775643
100
AcDbArc
50
180.0000000000
51
268.0000000000
0
ARC
5
4B9
100
AcDbEntity
8
0
100
AcDbCircle
6
CONTINUOUS
10
180.1389103880
20
122.8406107300
40
1.9607775643
100
AcDbArc
50
0.0000000000
51
88.0000000000
0
ARC
5
4BA
100
AcDbEntity
8
0
100
AcDbCircle
6
CONTINUOUS
10
66.0215143880
20
122.8406107300
40
1.9607775643
100
AcDbArc
50
92.0000000000
51
180.0000000000
0
SPLINE
5
4BB
100
AcDbEntity
8
0
100
AcDbSpline
62
7
6
CONTINUOUS
70
0
71
3
72
11
73
7
74
5
42
0.0000001000
43
0.0000001000
44
0.0000000001
40
0.0000000000
40
0.0000000000
40
0.0000000000
40
0.0000000000
40
0.3825648724
40
0.7068846172
40
0.9236288228
40
1.0000000000
40
1.0000000000
40
1.0000000000
40
1.0000000000
10
134.4527363880
20
202.2662054526
30
0.0000000000
10
134.4527363880
20
202.3912752430
30
0.0000000000
10
134.4457036933
20
202.6148080217
30
0.0000000000
10
134.4646608043
20
202.9433987833
30
0.0000000000
10
134.4165268505
20
203.0925648745
30
0.0000000000
10
134.4605912180
20
203.2465954526
30
0.0000000000
10
134.4356236169
20
203.2465954526
30
0.0000000000
11
134.4527363880
21
202.2662054526
31
0.0000000000
11
134.4514335527
21
202.6414125618
31
0.0000000000
11
134.4477236642
21
202.9594750380
31
0.0000000000
11
134.4421718966
21
203.1719794357
31
0.0000000000
11
134.4356236169
21
203.2465954526
31
0.0000000000
0
SPLINE
5
4BC
100
AcDbEntity
8
0
100
AcDbSpline
6
CONTINUOUS
70
0
71
3
72
14
73
10
74
8
42
0.0000001000
43
0.0000001000
44
0.0000000001
40
0.0000000000
40
0.0000000000
40
0.0000000000
40
0.0000000000
40
0.1188488611
40
0.2469222765
40
0.3863837999
40
0.5363495721
40
0.6928207718
40
0.8496256252
40
1.0000000000
40
1.0000000000
40
1.0000000000
40
1.0000000000
10
66.7410789292
20
218.8592229347
30
0.0000000000
10
66.5574361312
20
218.7974629167
30
0.0000000000
10
66.1846696235
20
218.6411571024
30
0.0000000000
10
65.6454885736
20
218.3105560432
30
0.0000000000
10
65.1299621430
20
217.8608464006
30
0.0000000000
10
64.6742969152
20
217.2890367759
30
0.0000000000
10
64.3223768370
20
216.6153383371
30
0.0000000000
10
64.1079351786
20
215.8856702058
30
0.0000000000
10
64.0607675915
20
215.3836600134
30
0.0000000000
10
64.0607343880
20
215.1385167159
30
0.0000000000
11
66.7410789292
21
218.8592229347
31
0.0000000000
11
66.2051280354
21
218.6342619751
31
0.0000000000
11
65.6712305405
21
218.3067185533
31
0.0000000000
11
65.1572387951
21
217.8583696166
31
0.0000000000
11
64.7001889755
21
217.2847605862
31
0.0000000000
11
64.3458558052
21
216.6064895634
31
0.0000000000
11
64.1296910565
21
215.8707066601
31
0.0000000000
11
64.0607343880
21
215.1385167159
31
0.0000000000
0
SPLINE
5
4BD
100
AcDbEntity
8
0
100
AcDbSpline
6
CONTINUOUS
70
0
71
3
72
11
73
7
74
5
42
0.0000001000
43
0.0000001000
44
0.0000000001
40
0.0000000000
40
0.0000000000
40
0.0000000000
40
0.0000000000
40
0.4050719980
40
0.7357855808
40
0.9525517831
40
1.0000000000
40
1.0000000000
40
1.0000000000
40
1.0000000000
10
66.7321375561
20
218.8554698672
30
0.0000000000
10
66.6970141500
20
218.9564952925
30
0.0000000000
10
66.6309094913
20
219.1332074192
30
0.0000000000
10
66.5420069280
20
219.3889190379
30
0.0000000000
10
66.4762067663
20
219.4944117963
30
0.0000000000
10
66.4464414749
20
219.5907303435
30
0.0000000000
10
66.4387321195
20
219.6005811598
30
0.0000000000
11
66.7321375561
21
218.8554698672
31
0.0000000000
11
66.6234509743
21
219.1573727303
31
0.0000000000
11
66.5279218497
21
219.4013030566
31
0.0000000000
11
66.4571146090
21
219.5577314747
31
0.0000000000
11
66.4387321195
21
219.6005811598
31
0.0000000000
0
SPLINE
5
4BE
100
AcDbEntity
8
0
100
AcDbSpline
6
CONTINUOUS
70
0
71
3
72
8
73
4
74
2
42
0.0000001000
43
0.0000001000
44
0.0000000001
40
0.0000000000
40
0.0000000000
40
0.0000000000
40
0.0000000000
40
1.0000000000
40
1.0000000000
40
1.0000000000
40
1.0000000000
10
66.4387321195
20
219.6005811598
30
0.0000000000
10
66.4336216951
20
219.6071111289
30
0.0000000000
10
66.4274724701
20
219.6103690670
30
0.0000000000
10
66.4196009358
20
219.6077212959
30
0.0000000000
11
66.4387321195
21
219.6005811598
31
0.0000000000
11
66.4196009358
21
219.6077212959
31
0.0000000000
0
SPLINE
5
4BF
100
AcDbEntity
8
0
100
AcDbSpline
6
CONTINUOUS
70
0
71
3
72
11
73
7
74
5
42
0.0000001000
43
0.0000001000
44
0.0000000001
40
0.0000000000
40
0.0000000000
40
0.0000000000
40
0.0000000000
40
0.3692517173
40
0.6843540888
40
0.9008778313
40
1.0000000000
40
1.0000000000
40
1.0000000000
40
1.0000000000
10
64.0607343880
20
215.1385167159
30
0.0000000000
10
63.9355941212
20
215.1385167159
30
0.0000000000
10
63.7062508774
20
215.1319870136
30
0.0000000000
10
63.3928206202
20
215.0943377593
30
0.0000000000
10
63.2036681573
20
215.0560315625
30
0.0000000000
10
63.0803443880
20
214.9951302848
30
0.0000000000
10
63.0803443880
20
214.9615375511
30
0.0000000000
11
64.0607343880
21
215.1385167159
31
0.0000000000
11
63.6855553779
21
215.1250449788
31
0.0000000000
11
63.3674939710
21
215.0866807176
31
0.0000000000
11
63.1549721332
21
215.0292645435
31
0.0000000000
11
63.0803443880
21
214.9615375511
31
0.0000000000
0
SPLINE
5
4C0
100
AcDbEntity
8
0
100
AcDbSpline
62
7
6
CONTINUOUS
70
0
71
3
72
11
73
7
74
5
42
0.0000001000
43
0.0000001000
44
0.0000000001
40
0.0000000000
40
0.0000000000
40
0.0000000000
40
0.0000000000
40
0.0763711772
40
0.2931153828
40
0.6174351276
40
1.0000000000
40
1.0000000000
40
1.0000000000
40
1.0000000000
10
111.7248011591
20
203.2465954526
30
0.0000000000
10
111.6998335580
20
203.2465954526
30
0.0000000000
10
111.7438979255
20
203.0925648745
30
0.0000000000
10
111.6957639716
20
202.9433987833
30
0.0000000000
10
111.7147210826
20
202.6148080217
30
0.0000000000
10
111.7076883880
20
202.3912752430
30
0.0000000000
10
111.7076883880
20
202.2662054526
30
0.0000000000
11
111.7248011591
21
203.2465954526
31
0.0000000000
11
111.7182528793
21
203.1719794357
31
0.0000000000
11
111.7127011117
21
202.9594750380
31
0.0000000000
11
111.7089912233
21
202.6414125618
31
0.0000000000
11
111.7076883880
21
202.2662054526
31
0.0000000000
0
SPLINE
5
4C1
100
AcDbEntity
8
0
100
AcDbSpline
6
CONTINUOUS
70
0
71
3
72
12
73
8
74
6
42
0.0000001000
43
0.0000001000
44
0.0000000001
40
0.0000000000
40
0.0000000000
40
0.0000000000
40
0.0000000000
40
0.1761648884
40
0.3638222591
40
0.5681546074
40
0.7846330204
40
1.0000000000
40
1.0000000000
40
1.0000000000
40
1.0000000000
10
67.9822926080
20
219.8634875329
30
0.0000000000
10
67.8848018558
20
219.8634632232
30
0.0000000000
10
67.6821684733
20
219.8238471951
30
0.0000000000
10
67.4060983932
20
219.6658366100
30
0.0000000000
10
67.1566653843
20
219.4368505242
30
0.0000000000
10
66.9355798315
20
219.1618506754
30
0.0000000000
10
66.8042123603
20
218.9617777702
30
0.0000000000
10
66.7434850916
20
218.8592240071
30
0.0000000000
11
67.9822926080
21
219.8634875329
31
0.0000000000
11
67.6946299032
21
219.8106638120
31
0.0000000000
11
67.4210258655
21
219.6616502903
31
0.0000000000
11
67.1678370777
21
219.4358715796
31
0.0000000000
11
66.9398947303
21
219.1580030784
31
0.0000000000
11
66.7434850916
21
218.8592240071
31
0.0000000000
0
SPLINE
5
4C2
100
AcDbEntity
8
0
100
AcDbSpline
62
7
6
CONTINUOUS
70
0
71
3
72
9
73
5
74
3
42
0.0000001000
43
0.0000001000
44
0.0000000001
40
0.0000000000
40
0.0000000000
40
0.0000000000
40
0.0000000000
40
0.5130020610
40
1.0000000000
40
1.0000000000
40
1.0000000000
40
1.0000000000
10
107.1135710578
20
199.0437795113
30
0.0000000000
10
107.1308285964
20
198.9963574222
30
0.0000000000
10
107.1635208141
20
198.9035677477
30
0.0000000000
10
107.1937545988
20
198.8099397312
30
0.0000000000
10
107.2076982880
20
198.7641073000
30
0.0000000000
11
107.1135710578
21
199.0437795113
31
0.0000000000
11
107.1637239580
21
198.9009342063
31
0.0000000000
11
107.2076982880
21
198.7641073000
31
0.0000000000
0
SPLINE
5
4C3
100
AcDbEntity
8
0
100
AcDbSpline
62
7
6
CONTINUOUS
70
0
71
3
72
9
73
5
74
3
42
0.0000001000
43
0.0000001000
44
0.0000000001
40
0.0000000000
40
0.0000000000
40
0.0000000000
40
0.0000000000
40
0.4878090213
40
1.0000000000
40
1.0000000000
40
1.0000000000
40
1.0000000000
10
138.9527264880
20
198.7641066310
30
0.0000000000
10
138.9666798736
20
198.8099723612
30
0.0000000000
10
138.9968885755
20
198.9035112925
30
0.0000000000
10
139.0295445474
20
198.9962156293
30
0.0000000000
10
139.0467583867
20
199.0435183141
30
0.0000000000
11
138.9527264880
21
198.7641066310
31
0.0000000000
11
138.9967343748
21
198.9010320321
31
0.0000000000
11
139.0467583867
21
199.0435183141
31
0.0000000000
0
SPLINE
5
4C4
100
AcDbEntity
8
0
100
AcDbSpline
6
CONTINUOUS
70
0
71
3
72
10
73
6
74
4
42
0.0000001000
43
0.0000001000
44
0.0000000001
40
0.0000000000
40
0.0000000000
40
0.0000000000
40
0.0000000000
40
0.3447680301
40
0.6858516985
40
1.0000000000
40
1.0000000000
40
1.0000000000
40
1.0000000000
10
138.9198811730
20
199.2269964526
30
0.0000000000
10
138.8884223587
20
199.1363442667
30
0.0000000000
10
138.8294570504
20
198.9545901049
30
0.0000000000
10
138.7709175671
20
198.6818419464
30
0.0000000000
10
138.7566379858
20
198.4992933869
30
0.0000000000
10
138.7566557797
20
198.4118598569
30
0.0000000000
11
138.9198811730
21
199.2269964526
31
0.0000000000
11
138.8338949425
21
198.9522717714
31
0.0000000000
11
138.7758651842
21
198.6734561129
31
0.0000000000
11
138.7566557797
21
198.4118598569
31
0.0000000000
0
SPLINE
5
4C5
100
AcDbEntity
8
0
100
AcDbSpline
6
CONTINUOUS
70
0
71
3
72
9
73
5
74
3
42
0.0000001000
43
0.0000001000
44
0.0000000001
40
0.0000000000
40
0.0000000000
40
0.0000000000
40
0.0000000000
40
0.5139596741
40
1.0000000000
40
1.0000000000
40
1.0000000000
40
1.0000000000
10
139.0486153133
20
199.0485040202
30
0.0000000000
10
139.0292785356
20
198.9779207179
30
0.0000000000
10
138.9945685468
20
198.8397097979
30
0.0000000000
10
138.9711618484
20
198.6990565136
30
0.0000000000
10
138.9635277683
20
198.6302286391
30
0.0000000000
11
139.0486153133
21
199.0485040202
31
0.0000000000
11
138.9965852821
21
198.8352058774
31
0.0000000000
11
138.9635277683
21
198.6302286391
31
0.0000000000
0
SPLINE
5
4C6
100
AcDbEntity
8
0
100
AcDbSpline
6
CONTINUOUS
70
0
71
3
72
8
73
4
74
2
42
0.0000001000
43
0.0000001000
44
0.0000000001
40
0.0000000000
40
0.0000000000
40
0.0000000000
40
0.0000000000
40
1.0000000000
40
1.0000000000
40
1.0000000000
40
1.0000000000
10
138.9635277683
20
198.6302286391
30
0.0000000000
10
138.9565841157
20
198.5676255686
30
0.0000000000
10
138.9527366457
20
198.5046380471
30
0.0000000000
10
138.9527442932
20
198.4416886884
30
0.0000000000
11
138.9635277683
21
198.6302286391
31
0.0000000000
11
138.9527442932
21
198.4416886884
31
0.0000000000
0
SPLINE
5
4C7
100
AcDbEntity
8
0
100
AcDbSpline
6
CONTINUOUS
70
0
71
3
72
10
73
6
74
4
42
0.0000001000
43
0.0000001000
44
0.0000000001
40
0.0000000000
40
0.0000000000
40
0.0000000000
40
0.0000000000
40
0.1503479611
40
0.5116535584
40
1.0000000000
40
1.0000000000
40
1.0000000000
40
1.0000000000
10
138.9527264879
20
198.4416889722
30
0.0000000000
10
138.9527258094
20
198.4316198512
30
0.0000000000
10
138.9051633442
20
198.4227637100
30
0.0000000000
10
138.8503211665
20
198.4135987950
30
0.0000000000
10
138.7893613742
20
198.4118601876
30
0.0000000000
10
138.7566557797
20
198.4118598569
30
0.0000000000
11
138.9527264879
21
198.4416889722
31
0.0000000000
11
138.9264575621
21
198.4267749408
31
0.0000000000
11
138.8546911172
21
198.4158568340
31
0.0000000000
11
138.7566557797
21
198.4118598569
31
0.0000000000
0
SPLINE
5
4C8
100
AcDbEntity
8
0
100
AcDbSpline
6
CONTINUOUS
70
0
71
3
72
14
73
10
74
8
42
0.0000001000
43
0.0000001000
44
0.0000000001
40
0.0000000000
40
0.0000000000
40
0.0000000000
40
0.0000000000
40
0.0973900282
40
0.2064045273
40
0.3290236552
40
0.4679361727
40
0.6250953504
40
0.8022517057
40
1.0000000000
40
1.0000000000
40
1.0000000000
40
1.0000000000
10
138.9527264880
20
178.5462032081
30
0.0000000000
10
138.9527277603
20
178.4781625746
30
0.0000000000
10
138.9646493601
20
178.3337562710
30
0.0000000000
10
139.0190803365
20
178.1095484114
30
0.0000000000
10
139.1166962751
20
177.8688612776
30
0.0000000000
10
139.2606441730
20
177.6135034786
30
0.0000000000
10
139.4499467655
20
177.3420800226
30
0.0000000000
10
139.6790284255
20
177.0492468401
30
0.0000000000
10
139.8452168719
20
176.8467914188
30
0.0000000000
10
139.9331164880
20
176.7402059544
30
0.0000000000
11
138.9527264880
21
178.5462032081
31
0.0000000000
11
138.9689258171
21
178.3427251206
31
0.0000000000
11
139.0218579903
21
178.1204550492
31
0.0000000000
11
139.1170242603
21
177.8817241429
31
0.0000000000
11
139.2580350162
21
177.6270004256
31
0.0000000000
11
139.4442028712
21
177.3552624540
31
0.0000000000
11
139.6712280818
21
177.0614468237
31
0.0000000000
11
139.9331164880
21
176.7402059544
31
0.0000000000
0
SPLINE
5
4C9
100
AcDbEntity
8
0
100
AcDbSpline
6
CONTINUOUS
70
0
71
3
72
9
73
5
74
3
42
0.0000001000
43
0.0000001000
44
0.0000000001
40
0.0000000000
40
0.0000000000
40
0.0000000000
40
0.0000000000
40
0.2938412911
40
1.0000000000
40
1.0000000000
40
1.0000000000
40
1.0000000000
10
138.9527264880
20
178.5462032081
30
0.0000000000
10
138.9527264880
20
178.5361339672
30
0.0000000000
10
138.9051607965
20
178.5272780322
30
0.0000000000
10
138.8771003981
20
178.5225889264
30
0.0000000000
10
138.8546876507
20
178.5203714326
30
0.0000000000
11
138.9527264880
21
178.5462032081
31
0.0000000000
11
138.9264570993
21
178.5312892638
31
0.0000000000
11
138.8546876507
21
178.5203714326
31
0.0000000000
0
SPLINE
5
4CA
100
AcDbEntity
8
0
100
AcDbSpline
6
CONTINUOUS
70
0
71
3
72
8
73
4
74
2
42
0.0000001000
43
0.0000001000
44
0.0000000001
40
0.0000000000
40
0.0000000000
40
0.0000000000
40
0.0000000000
40
1.0000000000
40
1.0000000000
40
1.0000000000
40
1.0000000000
10
138.8546876507
20
178.5203714326
30
0.0000000000
10
138.8243942725
20
178.5173742374
30
0.0000000000
10
138.7893553470
20
178.5163751868
30
0.0000000000
10
138.7566484880
20
178.5163751588
30
0.0000000000
11
138.8546876507
21
178.5203714326
31
0.0000000000
11
138.7566484880
21
178.5163751588
31
0.0000000000
0
SPLINE
5
4CB
100
AcDbEntity
8
0
100
AcDbSpline
6
CONTINUOUS
70
0
71
3
72
14
73
10
74
8
42
0.0000001000
43
0.0000001000
44
0.0000000001
40
0.0000000000
40
0.0000000000
40
0.0000000000
40
0.0000000000
40
0.1055848497
40
0.2219319951
40
0.3501347181
40
0.4915989666
40
0.6465833153
40
0.8155027087
40
1.0000000000
40
1.0000000000
40
1.0000000000
40
1.0000000000
10
138.7566484880
20
178.5163751588
30
0.0000000000
10
138.7566514200
20
178.4386574783
30
0.0000000000
10
138.7706462629
20
178.2750231727
30
0.0000000000
10
138.8353287402
20
178.0243547269
30
0.0000000000
10
138.9514297242
20
177.7636119308
30
0.0000000000
10
139.1227907447
20
177.5007675860
30
0.0000000000
10
139.3489063638
20
177.2422291947
30
0.0000000000
10
139.6249687946
20
176.9888925110
30
0.0000000000
10
139.8274266332
20
176.8254823808
30
0.0000000000
10
139.9331162195
20
176.7402059544
30
0.0000000000
11
138.7566484880
21
178.5163751588
31
0.0000000000
11
138.7760797116
21
178.2840332376
31
0.0000000000
11
138.8395613935
21
178.0350811514
31
0.0000000000
11
138.9537044808
21
177.7760139659
31
0.0000000000
11
139.1228942175
21
177.5134165066
31
0.0000000000
11
139.3463711277
21
177.2542169121
31
0.0000000000
11
139.6189205712
21
176.9995557428
31
0.0000000000
11
139.9331162195
21
176.7402059544
31
0.0000000000
0
SPLINE
5
4CC
100
AcDbEntity
8
0
100
AcDbSpline
6
CONTINUOUS
70
0
71
3
72
22
73
18
74
16
42
0.0000001000
43
0.0000001000
44
0.0000000001
40
0.0000000000
40
0.0000000000
40
0.0000000000
40
0.0000000000
40
0.0302883538
40
0.0661497054
40
0.1067092693
40
0.1511309875
40
0.1986017065
40
0.2486653986
40
0.3023889447
40
0.3612903564
40
0.4269219592
40
0.5008625805
40
0.5848704024
40
0.6797514672
40
0.7833565834
40
0.8926308623
40
1.0000000000
40
1.0000000000
40
1.0000000000
40
1.0000000000
10
106.2273082880
20
176.7402059544
30
0.0000000000
10
106.2446627681
20
176.7542109102
30
0.0000000000
10
106.2825649158
20
176.7847977117
30
0.0000000000
10
106.3436099850
20
176.8342585400
30
0.0000000000
10
106.4124630954
20
176.8906115485
30
0.0000000000
10
106.4873821411
20
176.9530448471
30
0.0000000000
10
106.5667662127
20
177.0210397635
30
0.0000000000
10
106.6499769803
20
177.0950710592
30
0.0000000000
10
106.7374656296
20
177.1769106519
30
0.0000000000
10
106.8303463885
20
177.2696824107
30
0.0000000000
10
106.9292447194
20
177.3773411555
30
0.0000000000
10
107.0336728225
20
177.5047391744
30
0.0000000000
10
107.1408549656
20
177.6572054183
30
0.0000000000
10
107.2437924432
20
177.8384074015
30
0.0000000000
10
107.3313349949
20
178.0481587979
30
0.0000000000
10
107.3898693715
20
178.2775242847
30
0.0000000000
10
107.4037721954
20
178.4373217963
30
0.0000000000
10
107.4037762880
20
178.5163751588
30
0.0000000000
11
106.2273082880
21
176.7402059544
31
0.0000000000
11
106.2793591572
21
176.7822363949
31
0.0000000000
11
106.3408836782
21
176.8321283891
31
0.0000000000
11
106.4101823294
21
176.8889078982
31
0.0000000000
11
106.4855197502
21
176.9517712836
31
0.0000000000
11
106.5651061488
21
177.0200392525
31
0.0000000000
11
106.6476651801
21
177.0936083850
31
0.0000000000
11
106.7342527546
21
177.1747517413
31
0.0000000000
11
106.8262056418
21
177.2667924850
31
0.0000000000
11
106.9241408010
21
177.3736789481
31
0.0000000000
11
107.0274773940
21
177.5001530203
31
0.0000000000
11
107.1338964723
21
177.6521632067
31
0.0000000000
11
107.2369878880
21
177.8346304315
31
0.0000000000
11
107.3245957755
21
178.0460431869
31
0.0000000000
11
107.3836804087
21
178.2800680220
31
0.0000000000
11
107.4037762880
21
178.5163751588
31
0.0000000000
0
SPLINE
5
4CD
100
AcDbEntity
8
0
100
AcDbSpline
6
CONTINUOUS
70
0
71
3
72
22
73
18
74
16
42
0.0000001000
43
0.0000001000
44
0.0000000001
40
0.0000000000
40
0.0000000000
40
0.0000000000
40
0.0000000000
40
0.0325210254
40
0.0710504034
40
0.1145939597
40
0.1621565921
40
0.2127385877
40
0.2657115721
40
0.3220390872
40
0.3830982979
40
0.4502176186
40
0.5246592553
40
0.6077664230
40
0.6998849485
40
0.7986150292
40
0.9009404726
40
1.0000000000
40
1.0000000000
40
1.0000000000
40
1.0000000000
10
106.2273082880
20
176.7402059544
30
0.0000000000
10
106.2417807092
20
176.7577246833
30
0.0000000000
10
106.2733732015
20
176.7960204092
30
0.0000000000
10
106.3242115668
20
176.8578811708
30
0.0000000000
10
106.3815338847
20
176.9280168515
30
0.0000000000
10
106.4438948623
20
177.0049101974
30
0.0000000000
10
106.5099714350
20
177.0872717930
30
0.0000000000
10
106.5792331633
20
177.1749266521
30
0.0000000000
10
106.6520475589
20
177.2690983714
30
0.0000000000
10
106.7293405406
20
177.3722878633
30
0.0000000000
10
106.8116399861
20
177.4875085322
30
0.0000000000
10
106.8985527140
20
177.6182871382
30
0.0000000000
10
106.9878002966
20
177.7682995563
30
0.0000000000
10
107.0736272673
20
177.9396588755
30
0.0000000000
10
107.1467732423
20
178.1314944984
30
0.0000000000
10
107.1958586726
20
178.3360621594
30
0.0000000000
10
107.2076966724
20
178.4769871300
30
0.0000000000
10
107.2076982880
20
178.5462032081
30
0.0000000000
11
106.2273082880
21
176.7402059544
31
0.0000000000
11
106.2706865609
21
176.7927943275
31
0.0000000000
11
106.3219606974
21
176.8551960256
31
0.0000000000
11
106.3797140187
21
176.9258772447
31
0.0000000000
11
106.4424996721
21
177.0033251372
31
0.0000000000
11
106.5088259381
21
177.0860484432
31
0.0000000000
11
106.5776313593
21
177.1732040045
31
0.0000000000
11
106.6497954926
21
177.2666582643
31
0.0000000000
11
106.7264312196
21
177.3691714046
31
0.0000000000
11
106.8080507924
21
177.4837724893
31
0.0000000000
11
106.8941669392
21
177.6139025481
31
0.0000000000
11
106.9828376834
21
177.7638567369
31
0.0000000000
11
107.0687195719
21
177.9368056996
31
0.0000000000
11
107.1417095775
21
178.1304650081
31
0.0000000000
11
107.1909454557
21
178.3392318771
31
0.0000000000
11
107.2076982880
21
178.5462032081
31
0.0000000000
0
SPLINE
5
4CE
100
AcDbEntity
8
0
100
AcDbSpline
6
CONTINUOUS
70
0
71
3
72
9
73
5
74
3
42
0.0000001000
43
0.0000001000
44
0.0000000001
40
0.0000000000
40
0.0000000000
40
0.0000000000
40
0.0000000000
40
0.2938418304
40
1.0000000000
40
1.0000000000
40
1.0000000000
40
1.0000000000
10
107.2076982880
20
178.5462032081
30
0.0000000000
10
107.2076982880
20
178.5361339302
30
0.0000000000
10
107.2552640418
20
178.5272779216
30
0.0000000000
10
107.2833245082
20
178.5225888376
30
0.0000000000
10
107.3057372880
20
178.5203713597
30
0.0000000000
11
107.2076982880
21
178.5462032081
31
0.0000000000
11
107.2339677588
21
178.5312891835
31
0.0000000000
11
107.3057372880
21
178.5203713597
31
0.0000000000
0
SPLINE
5
4CF
100
AcDbEntity
8
0
100
AcDbSpline
6
CONTINUOUS
70
0
71
3
72
8
73
4
74
2
42
0.0000001000
43
0.0000001000
44
0.0000000001
40
0.0000000000
40
0.0000000000
40
0.0000000000
40
0.0000000000
40
1.0000000000
40
1.0000000000
40
1.0000000000
40
1.0000000000
10
107.3057372880
20
178.5203713597
30
0.0000000000
10
107.3360306260
20
178.5173741943
30
0.0000000000
10
107.3710694841
20
178.5163751588
30
0.0000000000
10
107.4037762880
20
178.5163751588
30
0.0000000000
11
107.3057372880
21
178.5203713597
31
0.0000000000
11
107.4037762880
21
178.5163751588
31
0.0000000000
0
SPLINE
5
4D0
100
AcDbEntity
8
0
100
AcDbSpline
6
CONTINUOUS
70
0
71
3
72
10
73
6
74
4
42
0.0000001000
43
0.0000001000
44
0.0000000001
40
0.0000000000
40
0.0000000000
40
0.0000000000
40
0.0000000000
40
0.3740111645
40
0.7853229170
40
1.0000000000
40
1.0000000000
40
1.0000000000
40
1.0000000000
10
107.2076802276
20
198.4416900437
30
0.0000000000
10
107.2076879942
20
198.5045715806
30
0.0000000000
10
107.1996285707
20
198.6366860199
30
0.0000000000
10
107.1720116578
20
198.8027628683
30
0.0000000000
10
107.1485468640
20
198.9053914419
30
0.0000000000
10
107.1399515256
20
198.9404531879
30
0.0000000000
11
107.2076802276
21
198.4416900437
31
0.0000000000
11
107.1969201547
21
198.6300275347
31
0.0000000000
11
107.1639144753
21
198.8348435493
31
0.0000000000
11
107.1399515256
21
198.9404531879
31
0.0000000000
0
SPLINE
5
4D1
100
AcDbEntity
8
0
100
AcDbSpline
6
CONTINUOUS
70
0
71
3
72
8
73
4
74
2
42
0.0000001000
43
0.0000001000
44
0.0000000001
40
0.0000000000
40
0.0000000000
40
0.0000000000
40
0.0000000000
40
1.0000000000
40
1.0000000000
40
1.0000000000
40
1.0000000000
10
107.1399515256
20
198.9404531879
30
0.0000000000
10
107.1310889199
20
198.9766051594
30
0.0000000000
10
107.1216433813
20
199.0126149080
30
0.0000000000
10
107.1118102032
20
199.0485077314
30
0.0000000000
11
107.1399515256
21
198.9404531879
31
0.0000000000
11
107.1118102032
21
199.0485077314
31
0.0000000000
0
SPLINE
5
4D2
100
AcDbEntity
8
0
100
AcDbSpline
6
CONTINUOUS
70
0
71
3
72
10
73
6
74
4
42
0.0000001000
43
0.0000001000
44
0.0000000001
40
0.0000000000
40
0.0000000000
40
0.0000000000
40
0.0000000000
40
0.1503390152
40
0.5116374956
40
1.0000000000
40
1.0000000000
40
1.0000000000
40
1.0000000000
10
107.2076982880
20
198.4416889927
30
0.0000000000
10
107.2076989566
20
198.4316205103
30
0.0000000000
10
107.2552611643
20
198.4227673901
30
0.0000000000
10
107.3101016972
20
198.4135994082
30
0.0000000000
10
107.3710624381
20
198.4118607848
30
0.0000000000
10
107.4037689801
20
198.4118598933
30
0.0000000000
11
107.2076982880
21
198.4416889927
31
0.0000000000
11
107.2339662350
21
198.4267771178
31
0.0000000000
11
107.3057308628
21
198.4158584663
31
0.0000000000
11
107.4037689801
21
198.4118598933
31
0.0000000000
0
SPLINE
5
4D3
100
AcDbEntity
8
0
100
AcDbSpline
6
CONTINUOUS
70
0
71
3
72
10
73
6
74
4
42
0.0000001000
43
0.0000001000
44
0.0000000001
40
0.0000000000
40
0.0000000000
40
0.0000000000
40
0.0000000000
40
0.3135463290
40
0.6541647729
40
1.0000000000
40
1.0000000000
40
1.0000000000
40
1.0000000000
10
107.4037689802
20
198.4118598932
30
0.0000000000
10
107.4037872409
20
198.4991254807
30
0.0000000000
10
107.3895610962
20
198.6813760363
30
0.0000000000
10
107.3310974837
20
198.9541377687
30
0.0000000000
10
107.2721172770
20
199.1360646029
30
0.0000000000
10
107.2405597239
20
199.2269964526
30
0.0000000000
11
107.4037689802
21
198.4118598932
31
0.0000000000
11
107.3846318754
21
198.6729562719
31
0.0000000000
11
107.3267619097
21
198.9514070711
31
0.0000000000
11
107.2405597239
21
199.2269964526
31
0.0000000000
0
SPLINE
5
4D4
100
AcDbEntity
8
0
100
AcDbSpline
6
CONTINUOUS
70
0
71
3
72
15
73
11
74
9
42
0.0000001000
43
0.0000001000
44
0.0000000001
40
0.0000000000
40
0.0000000000
40
0.0000000000
40
0.0000000000
40
0.0166555046
40
0.0703314717
40
0.1666718887
40
0.3027956244
40
0.4689894886
40
0.6511911668
40
0.8331727204
40
1.0000000000
40
1.0000000000
40
1.0000000000
40
1.0000000000
10
139.9331164880
20
199.2269964526
30
0.0000000000
10
139.9276625867
20
199.2269972846
30
0.0000000000
10
139.9268895831
20
199.2610360663
30
0.0000000000
10
139.9173025322
20
199.3035812972
30
0.0000000000
10
139.9139932086
20
199.4042827219
30
0.0000000000
10
139.9076653437
20
199.5315282252
30
0.0000000000
10
139.9038490050
20
199.6912955682
30
0.0000000000
10
139.9008059730
20
199.8645850274
30
0.0000000000
10
139.8992356474
20
200.0385599588
30
0.0000000000
10
139.8989088575
20
200.1527582956
30
0.0000000000
10
139.8989087779
20
200.2073864526
30
0.0000000000
11
139.9331164880
21
199.2269964526
31
0.0000000000
11
139.9271129448
21
199.2422169265
31
0.0000000000
11
139.9206391944
21
199.2945471452
31
0.0000000000
11
139.9142813343
21
199.3889743334
31
0.0000000000
11
139.9086327583
21
199.5225775122
31
0.0000000000
11
139.9041446734
21
199.6857780405
31
0.0000000000
11
139.9010581460
21
199.8647390931
31
0.0000000000
11
139.8993826541
21
200.0435026670
31
0.0000000000
11
139.8989087779
21
200.2073864526
31
0.0000000000
0
SPLINE
5
4D5
100
AcDbEntity
8
0
100
AcDbSpline
62
7
6
CONTINUOUS
70
0
71
3
72
8
73
4
74
2
42
0.0000001000
43
0.0000001000
44
0.0000000001
40
0.0000000000
40
0.0000000000
40
0.0000000000
40
0.0000000000
40
1.0000000000
40
1.0000000000
40
1.0000000000
40
1.0000000000
10
139.0467583867
20
199.0435183141
30
0.0000000000
10
139.0617067010
20
199.0846067159
30
0.0000000000
10
139.0781482508
20
199.1251812740
30
0.0000000000
10
139.0959370782
20
199.1651862516
30
0.0000000000
11
139.0467583867
21
199.0435183141
31
0.0000000000
11
139.0959370782
21
199.1651862516
31
0.0000000000
0
SPLINE
5
4D6
100
AcDbEntity
8
0
100
AcDbSpline
62
7
6
CONTINUOUS
70
0
71
3
72
11
73
7
74
5
42
0.0000001000
43
0.0000001000
44
0.0000000001
40
0.0000000000
40
0.0000000000
40
0.0000000000
40
0.0000000000
40
0.1890807305
40
0.4683785090
40
0.7391323201
40
1.0000000000
40
1.0000000000
40
1.0000000000
40
1.0000000000
10
139.0959370782
20
199.1651862516
30
0.0000000000
10
139.1298535649
20
199.2414604355
30
0.0000000000
10
139.2260013233
20
199.4252729014
30
0.0000000000
10
139.4153581310
20
199.6915507664
30
0.0000000000
10
139.6525931532
20
199.9595377004
30
0.0000000000
10
139.8176191171
20
200.1260157212
30
0.0000000000
10
139.8989014884
20
200.2073864526
30
0.0000000000
11
139.0959370782
21
199.1651862516
31
0.0000000000
11
139.2113677429
21
199.3874108972
31
0.0000000000
11
139.4227038886
21
199.6904048341
31
0.0000000000
11
139.6579494260
21
199.9604162483
31
0.0000000000
11
139.8989014884
21
200.2073864526
31
0.0000000000
0
SPLINE
5
4D7
100
AcDbEntity
8
0
100
AcDbSpline
62
7
6
CONTINUOUS
70
0
71
3
72
11
73
7
74
5
42
0.0000001000
43
0.0000001000
44
0.0000000001
40
0.0000000000
40
0.0000000000
40
0.0000000000
40
0.0000000000
40
0.2608184911
40
0.5315192860
40
0.8107611094
40
1.0000000000
40
1.0000000000
40
1.0000000000
40
1.0000000000
10
106.2615232925
20
200.2073864526
30
0.0000000000
10
106.3427921771
20
200.1260304279
30
0.0000000000
10
106.5077877792
20
199.9595811314
30
0.0000000000
10
106.7449879376
20
199.6916481573
30
0.0000000000
10
106.9343647938
20
199.4253559098
30
0.0000000000
10
107.0305619231
20
199.2415113235
30
0.0000000000
10
107.0645055332
20
199.1651717861
30
0.0000000000
11
106.2615232925
21
200.2073864526
31
0.0000000000
11
106.5024345639
21
199.9604600089
31
0.0000000000
11
106.7376433253
21
199.6905023276
31
0.0000000000
11
106.9489580832
21
199.3875768522
31
0.0000000000
11
107.0645055332
21
199.1651717861
31
0.0000000000
0
SPLINE
5
4D8
100
AcDbEntity
8
0
100
AcDbSpline
62
7
6
CONTINUOUS
70
0
71
3
72
8
73
4
74
2
42
0.0000001000
43
0.0000001000
44
0.0000000001
40
0.0000000000
40
0.0000000000
40
0.0000000000
40
0.0000000000
40
1.0000000000
40
1.0000000000
40
1.0000000000
40
1.0000000000
10
107.0645055332
20
199.1651717861
30
0.0000000000
10
107.0822531134
20
199.1252572909
30
0.0000000000
10
107.0986572032
20
199.0847749791
30
0.0000000000
10
107.1135710578
20
199.0437795113
30
0.0000000000
11
107.0645055332
21
199.1651717861
31
0.0000000000
11
107.1135710578
21
199.0437795113
31
0.0000000000
0
SPLINE
5
4D9
100
AcDbEntity
8
0
100
AcDbSpline
6
CONTINUOUS
70
0
71
3
72
15
73
11
74
9
42
0.0000001000
43
0.0000001000
44
0.0000000001
40
0.0000000000
40
0.0000000000
40
0.0000000000
40
0.0000000000
40
0.1669288435
40
0.3489276939
40
0.5310914108
40
0.6972269656
40
0.8333068015
40
0.9296368805
40
0.9833297454
40
1.0000000000
40
1.0000000000
40
1.0000000000
40
1.0000000000
10
106.2615157870
20
200.2073864526
30
0.0000000000
10
106.2615157083
20
200.1527250505
30
0.0000000000
10
106.2611889193
20
200.0384878301
30
0.0000000000
10
106.2596175104
20
199.8644864424
30
0.0000000000
10
106.2565740540
20
199.6912227802
30
0.0000000000
10
106.2527584553
20
199.5315019515
30
0.0000000000
10
106.2464315008
20
199.4042918685
30
0.0000000000
10
106.2431252112
20
199.3036039607
30
0.0000000000
10
106.2335340535
20
199.2610546375
30
0.0000000000
10
106.2327670179
20
199.2269973616
30
0.0000000000
10
106.2273082880
20
199.2269964526
30
0.0000000000
11
106.2615157870
21
200.2073864526
31
0.0000000000
11
106.2610415348
21
200.0434029321
31
0.0000000000
11
106.2593651059
21
199.8646224146
31
0.0000000000
11
106.2562783569
21
199.6856987032
31
0.0000000000
11
106.2517912652
21
199.5225554868
31
0.0000000000
11
106.2461445789
21
199.3889954219
31
0.0000000000
11
106.2397883546
21
199.2945783236
31
0.0000000000
11
106.2333146567
21
199.2422313840
31
0.0000000000
11
106.2273082880
21
199.2269964526
31
0.0000000000
0
SPLINE
5
4DA
100
AcDbEntity
8
0
100
AcDbSpline
6
CONTINUOUS
70
0
71
3
72
11
73
7
74
5
42
0.0000001000
43
0.0000001000
44
0.0000000001
40
0.0000000000
40
0.0000000000
40
0.0000000000
40
0.0000000000
40
0.4050926535
40
0.7356500837
40
0.9523905914
40
1.0000000000
40
1.0000000000
40
1.0000000000
40
1.0000000000
10
179.4177713353
20
218.8584006870
30
0.0000000000
10
179.4530760914
20
218.9594804970
30
0.0000000000
10
179.5194660789
20
219.1363082149
30
0.0000000000
10
179.6091575660
20
219.3917598953
30
0.0000000000
10
179.6750506890
20
219.4976690090
30
0.0000000000
10
179.7055214877
20
219.5935612205
30
0.0000000000
10
179.7133502356
20
219.6033817194
30
0.0000000000
11
179.4177713353
21
218.8584006870
31
0.0000000000
11
179.5270689403
21
219.1604371380
31
0.0000000000
11
179.6231878639
21
219.4042805217
31
0.0000000000
11
179.6945845359
21
219.5606047359
31
0.0000000000
11
179.7133502356
21
219.6033817194
31
0.0000000000
0
SPLINE
5
4DB
100
AcDbEntity
8
0
100
AcDbSpline
6
CONTINUOUS
70
0
71
3
72
8
73
4
74
2
42
0.0000001000
43
0.0000001000
44
0.0000000001
40
0.0000000000
40
0.0000000000
40
0.0000000000
40
0.0000000000
40
1.0000000000
40
1.0000000000
40
1.0000000000
40
1.0000000000
10
179.7133502356
20
219.6033817194
30
0.0000000000
10
179.7185295696
20
219.6098787537
30
0.0000000000
10
179.7247335097
20
219.6131151613
30
0.0000000000
10
179.7326287284
20
219.6104751450
30
0.0000000000
11
179.7133502356
21
219.6033817194
31
0.0000000000
11
179.7326287284
21
219.6104751450
31
0.0000000000
0
SPLINE
5
4DC
100
AcDbEntity
8
0
100
AcDbSpline
6
CONTINUOUS
70
0
71
3
72
12
73
8
74
6
42
0.0000001000
43
0.0000001000
44
0.0000000001
40
0.0000000000
40
0.0000000000
40
0.0000000000
40
0.0000000000
40
0.2363177715
40
0.4655803101
40
0.6715959767
40
0.8481003568
40
1.0000000000
40
1.0000000000
40
1.0000000000
40
1.0000000000
10
179.4172366456
20
218.8592240613
30
0.0000000000
10
179.3499467355
20
218.9714485640
30
0.0000000000
10
179.2081926588
20
219.1872927639
30
0.0000000000
10
178.9698076682
20
219.4741339709
30
0.0000000000
10
178.7114571994
20
219.6967652946
30
0.0000000000
10
178.4446992699
20
219.8331663125
30
0.0000000000
10
178.2618416126
20
219.8634785108
30
0.0000000000
10
178.1777328871
20
219.8634875505
30
0.0000000000
11
179.4172366456
21
218.8592240613
31
0.0000000000
11
179.1999888669
21
219.1861855909
31
0.0000000000
11
178.9534247909
21
219.4764314430
31
0.0000000000
11
178.6904665089
21
219.6954467277
31
0.0000000000
11
178.4269485367
21
219.8239899542
31
0.0000000000
11
178.1777328871
21
219.8634875505
31
0.0000000000
0
SPLINE
5
4DD
100
AcDbEntity
8
0
100
AcDbSpline
6
CONTINUOUS
70
0
71
3
72
14
73
10
74
8
42
0.0000001000
43
0.0000001000
44
0.0000000001
40
0.0000000000
40
0.0000000000
40
0.0000000000
40
0.0000000000
40
0.1505028357
40
0.3068769474
40
0.4632951450
40
0.6140292156
40
0.7548825366
40
0.8842015516
40
1.0000000000
40
1.0000000000
40
1.0000000000
40
1.0000000000
10
182.0996903880
20
215.1385167159
30
0.0000000000
10
182.0996524785
20
215.3840130522
30
0.0000000000
10
182.0524390365
20
215.8858281200
30
0.0000000000
10
181.8380050526
20
216.6153319406
30
0.0000000000
10
181.4857325229
20
217.2898694827
30
0.0000000000
10
181.0273891959
20
217.8645972420
30
0.0000000000
10
180.5063935919
20
218.3171976232
30
0.0000000000
10
179.9663766961
20
218.6460683949
30
0.0000000000
10
179.5954237397
20
218.7995135962
30
0.0000000000
10
179.4162226042
20
218.8592247143
30
0.0000000000
11
182.0996903880
21
215.1385167159
31
0.0000000000
11
182.0305349791
21
215.8717517413
31
0.0000000000
11
181.8147963498
21
216.6059307784
31
0.0000000000
11
181.4604557701
21
217.2844106858
31
0.0000000000
11
181.0005493124
21
217.8610996463
31
0.0000000000
11
180.4802703006
21
218.3132073398
31
0.0000000000
11
179.9396647363
21
218.6421659305
31
0.0000000000
11
179.4162226042
21
218.8592247143
31
0.0000000000
0
SPLINE
5
4DE
100
AcDbEntity
8
0
100
AcDbSpline
6
CONTINUOUS
70
0
71
3
72
11
73
7
74
5
42
0.0000001000
43
0.0000001000
44
0.0000000001
40
0.0000000000
40
0.0000000000
40
0.0000000000
40
0.0000000000
40
0.3692480738
40
0.6843507009
40
0.9008765852
40
1.0000000000
40
1.0000000000
40
1.0000000000
40
1.0000000000
10
182.0996903880
20
215.1385167159
30
0.0000000000
10
182.2248294146
20
215.1385167273
30
0.0000000000
10
182.4541714974
20
215.1319871133
30
0.0000000000
10
182.7676014490
20
215.0943382901
30
0.0000000000
10
182.9567547613
20
215.0560321087
30
0.0000000000
10
183.0800803880
20
214.9951307025
30
0.0000000000
10
183.0800803880
20
214.9615375478
30
0.0000000000
11
182.0996903880
21
215.1385167159
31
0.0000000000
11
182.4748656863
21
215.1250452827
31
0.0000000000
11
182.7929273834
21
215.0866813704
31
0.0000000000
11
183.0054514392
21
215.0292650930
31
0.0000000000
11
183.0800803880
21
214.9615375478
31
0.0000000000
0
SPLINE
5
4DF
100
AcDbEntity
8
0
100
AcDbSpline
62
7
6
CONTINUOUS
70
0
71
3
72
13
73
9
74
7
42
0.0000001000
43
0.0000001000
44
0.0000000001
40
0.0000000000
40
0.0000000000
40
0.0000000000
40
0.0000000000
40
0.0529067781
40
0.1831006588
40
0.3600373173
40
0.5645616880
40
0.7825093358
40
1.0000000000
40
1.0000000000
40
1.0000000000
40
1.0000000000
10
304.3099648629
20
215.9720598126
30
0.0000000000
10
304.3011470666
20
215.9632420162
30
0.0000000000
10
304.2706302901
20
215.9327252397
30
0.0000000000
10
304.2106240705
20
215.8727190202
30
0.0000000000
10
304.1253482522
20
215.7874432019
30
0.0000000000
10
304.0254468061
20
215.6875417557
30
0.0000000000
10
303.9187863589
20
215.5808813086
30
0.0000000000
10
303.8462133069
20
215.5083082566
30
0.0000000000
10
303.8099648629
20
215.4720598126
30
0.0000000000
11
304.3099648629
21
215.9720598126
31
0.0000000000
11
304.2835114739
21
215.9456064235
31
0.0000000000
11
304.2184145335
21
215.8805094831
31
0.0000000000
11
304.1299462042
21
215.7920411539
31
0.0000000000
11
304.0276840189
21
215.6897789686
31
0.0000000000
11
303.9187101950
21
215.5808051447
31
0.0000000000
11
303.8099648629
21
215.4720598126
31
0.0000000000
0
SPLINE
5
4E0
100
AcDbEntity
8
0
100
AcDbSpline
62
7
6
CONTINUOUS
70
0
71
3
72
13
73
9
74
7
42
0.0000001000
43
0.0000001000
44
0.0000000001
40
0.0000000000
40
0.0000000000
40
0.0000000000
40
0.0000000000
40
0.0529067781
40
0.1831006588
40
0.3600373173
40
0.5645616880
40
0.7825093358
40
1.0000000000
40
1.0000000000
40
1.0000000000
40
1.0000000000
10
292.3099648629
20
215.9720598126
30
0.0000000000
10
292.3187826592
20
215.9632420162
30
0.0000000000
10
292.3492994357
20
215.9327252397
30
0.0000000000
10
292.4093056553
20
215.8727190202
30
0.0000000000
10
292.4945814736
20
215.7874432019
30
0.0000000000
10
292.5944829197
20
215.6875417557
30
0.0000000000
10
292.7011433669
20
215.5808813086
30
0.0000000000
10
292.7737164189
20
215.5083082566
30
0.0000000000
10
292.8099648629
20
215.4720598126
30
0.0000000000
11
292.3099648629
21
215.9720598126
31
0.0000000000
11
292.3364182519
21
215.9456064235
31
0.0000000000
11
292.4015151923
21
215.8805094831
31
0.0000000000
11
292.4899835216
21
215.7920411539
31
0.0000000000
11
292.5922457069
21
215.6897789686
31
0.0000000000
11
292.7012195308
21
215.5808051447
31
0.0000000000
11
292.8099648629
21
215.4720598126
31
0.0000000000
0
SPLINE
5
4E1
100
AcDbEntity
8
0
100
AcDbSpline
62
7
6
CONTINUOUS
70
0
71
3
72
9
73
5
74
3
42
0.0000001000
43
0.0000001000
44
0.0000000001
40
0.0000000000
40
0.0000000000
40
0.0000000000
40
0.0000000000
40
0.4746222136
40
1.0000000000
40
1.0000000000
40
1.0000000000
40
1.0000000000
10
293.6825240629
20
217.4200350966
30
0.0000000000
10
293.6824228213
20
217.4265413130
30
0.0000000000
10
293.6808046766
20
217.4406314230
30
0.0000000000
10
293.6725753521
20
217.4520040119
30
0.0000000000
10
293.6687532098
20
217.4581091213
30
0.0000000000
11
293.6825240629
21
217.4200350966
31
0.0000000000
11
293.6793975308
21
217.4393041056
31
0.0000000000
11
293.6687532098
21
217.4581091213
31
0.0000000000
0
SPLINE
5
4E2
100
AcDbEntity
8
0
100
AcDbSpline
6
CONTINUOUS
70
0
71
3
72
9
73
5
74
3
42
0.0000001000
43
0.0000001000
44
0.0000000001
40
0.0000000000
40
0.0000000000
40
0.0000000000
40
0.0000000000
40
0.6199064449
40
1.0000000000
40
1.0000000000
40
1.0000000000
40
1.0000000000
10
293.6687532098
20
217.4581091213
30
0.0000000000
10
293.6546050769
20
217.4806436860
30
0.0000000000
10
293.6181645049
20
217.5076778750
30
0.0000000000
10
293.5779705045
20
217.5235358374
30
0.0000000000
10
293.5623431452
20
217.5283270314
30
0.0000000000
11
293.6687532098
21
217.4581091213
31
0.0000000000
11
293.6079832035
21
217.5098661769
31
0.0000000000
11
293.5623431452
21
217.5283270314
31
0.0000000000
0
SPLINE
5
4E3
100
AcDbEntity
8
0
100
AcDbSpline
6
CONTINUOUS
70
0
71
3
72
8
73
4
74
2
42
0.0000001000
43
0.0000001000
44
0.0000000001
40
0.0000000000
40
0.0000000000
40
0.0000000000
40
0.0000000000
40
1.0000000000
40
1.0000000000
40
1.0000000000
40
1.0000000000
10
293.5623431452
20
217.5283270314
30
0.0000000000
10
293.5448747845
20
217.5336826582
30
0.0000000000
10
293.5269692535
20
217.5374935202
30
0.0000000000
10
293.5088952517
20
217.5402880219
30
0.0000000000
11
293.5623431452
21
217.5283270314
31
0.0000000000
11
293.5088952517
21
217.5402880219
31
0.0000000000
0
SPLINE
5
4E4
100
AcDbEntity
8
0
100
AcDbSpline
6
CONTINUOUS
70
0
71
3
72
8
73
4
74
2
42
0.0000001000
43
0.0000001000
44
0.0000000001
40
0.0000000000
40
0.0000000000
40
0.0000000000
40
0.0000000000
40
1.0000000000
40
1.0000000000
40
1.0000000000
40
1.0000000000
10
293.5088952517
20
217.5402880219
30
0.0000000000
10
293.4894246684
20
217.5432984552
30
0.0000000000
10
293.4697585729
20
217.5451293911
30
0.0000000000
10
293.4500651736
20
217.5457940897
30
0.0000000000
11
293.5088952517
21
217.5402880219
31
0.0000000000
11
293.4500651736
21
217.5457940897
31
0.0000000000
0
SPLINE
5
4E5
100
AcDbEntity
8
0
100
AcDbSpline
6
CONTINUOUS
70
0
71
3
72
8
73
4
74
2
42
0.0000001000
43
0.0000001000
44
0.0000000001
40
0.0000000000
40
0.0000000000
40
0.0000000000
40
0.0000000000
40
1.0000000000
40
1.0000000000
40
1.0000000000
40
1.0000000000
10
293.4500651736
20
217.5457940897
30
0.0000000000
10
293.4294782548
20
217.5464889467
30
0.0000000000
10
293.4088614984
20
217.5459093377
30
0.0000000000
10
293.3884070629
20
217.5440704109
30
0.0000000000
11
293.4500651736
21
217.5457940897
31
0.0000000000
11
293.3884070629
21
217.5440704109
31
0.0000000000
0
SPLINE
5
4E6
100
AcDbEntity
8
0
100
AcDbSpline
6
CONTINUOUS
70
0
71
3
72
10
73
6
74
4
42
0.0000001000
43
0.0000001000
44
0.0000000001
40
0.0000000000
40
0.0000000000
40
0.0000000000
40
0.0000000000
40
0.4055233163
40
0.8031086352
40
1.0000000000
40
1.0000000000
40
1.0000000000
40
1.0000000000
10
293.6687649727
20
217.4581111063
30
0.0000000000
10
293.6684741569
20
217.4678440948
30
0.0000000000
10
293.6661427879
20
217.4871229829
30
0.0000000000
10
293.6587201703
20
217.5101052586
30
0.0000000000
10
293.6523386975
20
217.5229331554
30
0.0000000000
10
293.6500214490
20
217.5270647861
30
0.0000000000
11
293.6687649727
21
217.4581111063
31
0.0000000000
11
293.6651942673
21
217.4871040506
31
0.0000000000
11
293.6563498230
21
217.5143443838
31
0.0000000000
11
293.6500214490
21
217.5270647861
31
0.0000000000
0
SPLINE
5
4E7
100
AcDbEntity
8
0
100
AcDbSpline
6
CONTINUOUS
70
0
71
3
72
8
73
4
74
2
42
0.0000001000
43
0.0000001000
44
0.0000000001
40
0.0000000000
40
0.0000000000
40
0.0000000000
40
0.0000000000
40
1.0000000000
40
1.0000000000
40
1.0000000000
40
1.0000000000
10
293.6500214490
20
217.5270647861
30
0.0000000000
10
293.6477080376
20
217.5311895751
30
0.0000000000
10
293.6451916030
20
217.5351977677
30
0.0000000000
10
293.6424843638
20
217.5390640495
30
0.0000000000
11
293.6500214490
21
217.5270647861
31
0.0000000000
11
293.6424843638
21
217.5390640495
31
0.0000000000
0
SPLINE
5
4E8
100
AcDbEntity
8
0
100
AcDbSpline
6
CONTINUOUS
70
0
71
3
72
9
73
5
74
3
42
0.0000001000
43
0.0000001000
44
0.0000000001
40
0.0000000000
40
0.0000000000
40
0.0000000000
40
0.0000000000
40
0.6089949106
40
1.0000000000
40
1.0000000000
40
1.0000000000
40
1.0000000000
10
293.6424843638
20
217.5390640495
30
0.0000000000
10
293.6301782611
20
217.5566336678
30
0.0000000000
10
293.5954135545
20
217.5737297636
30
0.0000000000
10
293.5600706281
20
217.5779923416
30
0.0000000000
10
293.5462609315
20
217.5782868372
30
0.0000000000
11
293.6424843638
21
217.5390640495
31
0.0000000000
11
293.5876207552
21
217.5726969101
31
0.0000000000
11
293.5462609315
21
217.5782868372
31
0.0000000000
0
SPLINE
5
4E9
100
AcDbEntity
8
0
100
AcDbSpline
6
CONTINUOUS
70
0
71
3
72
9
73
5
74
3
42
0.0000001000
43
0.0000001000
44
0.0000000001
40
0.0000000000
40
0.0000000000
40
0.0000000000
40
0.0000000000
40
0.2972563642
40
1.0000000000
40
1.0000000000
40
1.0000000000
40
1.0000000000
10
293.5462609315
20
217.5782868372
30
0.0000000000
10
293.5301545477
20
217.5786303104
30
0.0000000000
10
293.4760148513
20
217.5735064745
30
0.0000000000
10
293.4237814452
20
217.5578491576
30
0.0000000000
10
293.3883955014
20
217.5440694486
30
0.0000000000
11
293.5462609315
21
217.5782868372
31
0.0000000000
11
293.4981362514
21
217.5746533722
31
0.0000000000
11
293.3883955014
21
217.5440694486
31
0.0000000000
0
SPLINE
5
4EA
100
AcDbEntity
8
0
100
AcDbSpline
6
CONTINUOUS
70
0
71
3
72
10
73
6
74
4
42
0.0000001000
43
0.0000001000
44
0.0000000001
40
0.0000000000
40
0.0000000000
40
0.0000000000
40
0.0000000000
40
0.3732346773
40
0.7815337556
40
1.0000000000
40
1.0000000000
40
1.0000000000
40
1.0000000000
10
280.7253960103
20
199.0484360235
30
0.0000000000
10
280.7373845089
20
199.0046290299
30
0.0000000000
10
280.7624354628
20
198.9128850778
30
0.0000000000
10
280.7939389173
20
198.7953459093
30
0.0000000000
10
280.8132726792
20
198.7215675857
30
0.0000000000
10
280.8199599599
20
198.6958378438
30
0.0000000000
11
280.7253960103
21
199.0484360235
31
0.0000000000
11
280.7612134666
21
198.9169746187
31
0.0000000000
11
280.7997446735
21
198.7729869235
31
0.0000000000
11
280.8199599599
21
198.6958378438
31
0.0000000000
0
SPLINE
5
4EB
100
AcDbEntity
8
0
100
AcDbSpline
6
CONTINUOUS
70
0
71
3
72
9
73
5
74
3
42
0.0000001000
43
0.0000001000
44
0.0000000001
40
0.0000000000
40
0.0000000000
40
0.0000000000
40
0.0000000000
40
0.3184977829
40
1.0000000000
40
1.0000000000
40
1.0000000000
40
1.0000000000
10
280.8199599599
20
198.6958378438
30
0.0000000000
10
280.8269604536
20
198.6689029949
30
0.0000000000
10
280.8487622105
20
198.5842882768
30
0.0000000000
10
280.8699856603
20
198.4995254705
30
0.0000000000
10
280.8841592764
20
198.4416886863
30
0.0000000000
11
280.8199599599
21
198.6958378438
31
0.0000000000
11
280.8407894121
21
198.6149887725
31
0.0000000000
11
280.8841592764
21
198.4416886863
31
0.0000000000
0
SPLINE
5
4EC
100
AcDbEntity
8
0
100
AcDbSpline
6
CONTINUOUS
70
0
71
3
72
9
73
5
74
3
42
0.0000001000
43
0.0000001000
44
0.0000000001
40
0.0000000000
40
0.0000000000
40
0.0000000000
40
0.0000000000
40
0.6083211810
40
1.0000000000
40
1.0000000000
40
1.0000000000
40
1.0000000000
10
302.9774454438
20
217.5390640114
30
0.0000000000
10
302.9897427877
20
217.5566205134
30
0.0000000000
10
303.0245164169
20
217.5737222567
30
0.0000000000
10
303.0598735082
20
217.5779873701
30
0.0000000000
10
303.0737125374
20
217.5782805303
30
0.0000000000
11
302.9774454438
21
217.5390640114
31
0.0000000000
11
303.0322657710
21
217.5726769640
31
0.0000000000
11
303.0737125374
21
217.5782805303
31
0.0000000000
0
SPLINE
5
4ED
100
AcDbEntity
8
0
100
AcDbSpline
6
CONTINUOUS
70
0
71
3
72
9
73
5
74
3
42
0.0000001000
43
0.0000001000
44
0.0000000001
40
0.0000000000
40
0.0000000000
40
0.0000000000
40
0.0000000000
40
0.2979017501
40
1.0000000000
40
1.0000000000
40
1.0000000000
40
1.0000000000
10
303.0737125374
20
217.5782805303
30
0.0000000000
10
303.0898497614
20
217.5786223744
30
0.0000000000
10
303.1439755870
20
217.5734830517
30
0.0000000000
10
303.1961838192
20
217.5578148656
30
0.0000000000
10
303.2315341151
20
217.5440694765
30
0.0000000000
11
303.0737125374
21
217.5782805303
31
0.0000000000
11
303.1219279400
21
217.5746259592
31
0.0000000000
11
303.2315341151
21
217.5440694765
31
0.0000000000
0
SPLINE
5
4EE
100
AcDbEntity
8
0
100
AcDbSpline
6
CONTINUOUS
70
0
71
3
72
14
73
10
74
8
42
0.0000001000
43
0.0000001000
44
0.0000000001
40
0.0000000000
40
0.0000000000
40
0.0000000000
40
0.0000000000
40
0.1128061099
40
0.2358893822
40
0.3679541552
40
0.5087889982
40
0.6590190484
40
0.8215039970
40
1.0000000000
40
1.0000000000
40
1.0000000000
40
1.0000000000
10
283.9463713105
20
178.5462032081
30
0.0000000000
10
283.9519281129
20
178.4784154923
30
0.0000000000
10
283.9626005210
20
178.3365839000
30
0.0000000000
10
283.9754218667
20
178.1150870375
30
0.0000000000
10
283.9839061876
20
177.8764605274
30
0.0000000000
10
283.9866800731
20
177.6213332674
30
0.0000000000
10
283.9854385064
20
177.3478793213
30
0.0000000000
10
283.9900713423
20
177.0516807451
30
0.0000000000
10
284.0094904375
20
176.8465612669
30
0.0000000000
10
284.0259539500
20
176.7402059544
30
0.0000000000
11
283.9463713105
21
178.5462032081
31
0.0000000000
11
283.9615746038
21
178.3427251206
31
0.0000000000
11
283.9743121510
21
178.1204550493
31
0.0000000000
11
283.9827679120
21
177.8817241430
31
0.0000000000
11
283.9859852097
21
177.6270004257
31
0.0000000000
11
283.9863502996
21
177.3552624541
31
0.0000000000
11
283.9935996366
21
177.0614468237
31
0.0000000000
11
284.0259539500
21
176.7402059544
31
0.0000000000
0
SPLINE
5
4EF
100
AcDbEntity
8
0
100
AcDbSpline
6
CONTINUOUS
70
0
71
3
72
10
73
6
74
4
42
0.0000001000
43
0.0000001000
44
0.0000000001
40
0.0000000000
40
0.0000000000
40
0.0000000000
40
0.0000000000
40
0.3288281038
40
0.6611386869
40
1.0000000000
40
1.0000000000
40
1.0000000000
40
1.0000000000
10
302.9774454438
20
217.5390640114
30
0.0000000000
10
302.9720263787
20
217.5313248966
30
0.0000000000
10
302.9626681022
20
217.5146213995
30
0.0000000000
10
302.9537870753
20
217.4871213844
30
0.0000000000
10
302.9514564759
20
217.4678426300
30
0.0000000000
10
302.9511660624
20
217.4581109323
30
0.0000000000
11
302.9774454438
21
217.5390640114
31
0.0000000000
11
302.9635799088
21
217.5143438087
31
0.0000000000
11
302.9547351479
21
217.4871001398
31
0.0000000000
11
302.9511660624
21
217.4581109323
31
0.0000000000
0
SPLINE
5
4F0
100
AcDbEntity
8
0
100
AcDbSpline
6
CONTINUOUS
70
0
71
3
72
9
73
5
74
3
42
0.0000001000
43
0.0000001000
44
0.0000000001
40
0.0000000000
40
0.0000000000
40
0.0000000000
40
0.0000000000
40
0.6191478024
40
1.0000000000
40
1.0000000000
40
1.0000000000
40
1.0000000000
10
302.9511765427
20
217.4581091639
30
0.0000000000
10
302.9653133574
20
217.4806222553
30
0.0000000000
10
303.0017514514
20
217.5076749310
30
0.0000000000
10
303.0419565666
20
217.5235433913
30
0.0000000000
10
303.0576207364
20
217.5283448590
30
0.0000000000
11
302.9511765427
21
217.4581091639
31
0.0000000000
11
303.0118785541
21
217.5098340628
31
0.0000000000
11
303.0576207364
21
217.5283448590
31
0.0000000000
0
SPLINE
5
4F1
100
AcDbEntity
8
0
100
AcDbSpline
6
CONTINUOUS
70
0
71
3
72
8
73
4
74
2
42
0.0000001000
43
0.0000001000
44
0.0000000001
40
0.0000000000
40
0.0000000000
40
0.0000000000
40
0.0000000000
40
1.0000000000
40
1.0000000000
40
1.0000000000
40
1.0000000000
10
303.0576207364
20
217.5283448590
30
0.0000000000
10
303.0751305355
20
217.5337120592
30
0.0000000000
10
303.0930801242
20
217.5375272521
30
0.0000000000
10
303.1111979208
20
217.5403214607
30
0.0000000000
11
303.0576207364
21
217.5283448590
31
0.0000000000
11
303.1111979208
21
217.5403214607
31
0.0000000000
0
SPLINE
5
4F2
100
AcDbEntity
8
0
100
AcDbSpline
6
CONTINUOUS
70
0
71
3
72
8
73
4
74
2
42
0.0000001000
43
0.0000001000
44
0.0000000001
40
0.0000000000
40
0.0000000000
40
0.0000000000
40
0.0000000000
40
1.0000000000
40
1.0000000000
40
1.0000000000
40
1.0000000000
10
303.1111979208
20
217.5403214607
30
0.0000000000
10
303.1306631197
20
217.5433234717
30
0.0000000000
10
303.1503224757
20
217.5451469924
30
0.0000000000
10
303.1700084504
20
217.5458046810
30
0.0000000000
11
303.1111979208
21
217.5403214607
31
0.0000000000
11
303.1700084504
21
217.5458046810
31
0.0000000000
0
SPLINE
5
4F3
100
AcDbEntity
8
0
100
AcDbSpline
6
CONTINUOUS
70
0
71
3
72
8
73
4
74
2
42
0.0000001000
43
0.0000001000
44
0.0000000001
40
0.0000000000
40
0.0000000000
40
0.0000000000
40
0.0000000000
40
1.0000000000
40
1.0000000000
40
1.0000000000
40
1.0000000000
10
303.1700084504
20
217.5458046810
30
0.0000000000
10
303.1905476385
20
217.5464908746
30
0.0000000000
10
303.2111158027
20
217.5459079891
30
0.0000000000
10
303.2315226629
20
217.5440704010
30
0.0000000000
11
303.1700084504
21
217.5458046810
31
0.0000000000
11
303.2315226629
21
217.5440704010
31
0.0000000000
0
SPLINE
5
4F4
100
AcDbEntity
8
0
100
AcDbSpline
6
CONTINUOUS
70
0
71
3
72
22
73
18
74
16
42
0.0000001000
43
0.0000001000
44
0.0000000001
40
0.0000000000
40
0.0000000000
40
0.0000000000
40
0.0000000000
40
0.0293735442
40
0.0641368217
40
0.1034148135
40
0.1463637560
40
0.1921685958
40
0.2403819458
40
0.2920545891
40
0.3487257821
40
0.4120772297
40
0.4840130461
40
0.5669098996
40
0.6625365875
40
0.7696711369
40
0.8852686493
40
1.0000000000
40
1.0000000000
40
1.0000000000
40
1.0000000000
10
312.5939757758
20
176.7402059544
30
0.0000000000
10
312.5966701858
20
176.7577118172
30
0.0000000000
10
312.6022078185
20
176.7959897085
30
0.0000000000
10
312.6099254743
20
176.8578730720
30
0.0000000000
10
312.6171160988
20
176.9280559569
30
0.0000000000
10
312.6232207613
20
177.0050231169
30
0.0000000000
10
312.6279127796
20
177.0874861327
30
0.0000000000
10
312.6311387392
20
177.1752822569
30
0.0000000000
10
312.6330195937
20
177.2696696099
30
0.0000000000
10
312.6337817948
20
177.3731992953
30
0.0000000000
10
312.6338056826
20
177.4889488255
30
0.0000000000
10
312.6337631710
20
177.6205120488
30
0.0000000000
10
312.6347497130
20
177.7715363341
30
0.0000000000
10
312.6382551943
20
177.9437580270
30
0.0000000000
10
312.6456939459
20
178.1355938170
30
0.0000000000
10
312.6575005525
20
178.3387503032
30
0.0000000000
10
312.6679065019
20
178.4772524107
30
0.0000000000
10
312.6735584153
20
178.5462032081
30
0.0000000000
11
312.5939757758
21
176.7402059544
31
0.0000000000
11
312.6015848970
21
176.7927943275
31
0.0000000000
11
312.6093736786
21
176.8551960256
31
0.0000000000
11
312.6166318765
21
176.9258772447
31
0.0000000000
11
312.6228055859
21
177.0033251372
31
0.0000000000
11
312.6275599392
21
177.0860484432
31
0.0000000000
11
312.6308264298
21
177.1732040045
31
0.0000000000
11
312.6327728713
21
177.2666582643
31
0.0000000000
11
312.6336366812
21
177.3691714046
31
0.0000000000
11
312.6337951425
21
177.4837724893
31
0.0000000000
11
312.6339034642
21
177.6139025481
31
0.0000000000
11
312.6350203196
21
177.7638567369
31
0.0000000000
11
312.6386143256
21
177.9368056996
31
0.0000000000
11
312.6460950219
21
178.1304650081
31
0.0000000000
11
312.6581221756
21
178.3392318771
31
0.0000000000
11
312.6735584153
21
178.5462032081
31
0.0000000000
0
SPLINE
5
4F5
100
AcDbEntity
8
0
100
AcDbSpline
62
7
6
CONTINUOUS
70
0
71
3
72
9
73
5
74
3
42
0.0000001000
43
0.0000001000
44
0.0000000001
40
0.0000000000
40
0.0000000000
40
0.0000000000
40
0.0000000000
40
0.5138741839
40
1.0000000000
40
1.0000000000
40
1.0000000000
40
1.0000000000
10
315.8978807459
20
198.7641073000
30
0.0000000000
10
315.9320985485
20
198.8405106666
30
0.0000000000
10
315.9916229562
20
198.9922338213
30
0.0000000000
10
316.0383252684
20
199.1490700663
30
0.0000000000
10
316.0524450697
20
199.2269964526
30
0.0000000000
11
315.8978807459
21
198.7641073000
31
0.0000000000
11
315.9898887732
21
198.9977940880
31
0.0000000000
11
316.0524450697
21
199.2269964526
31
0.0000000000
0
SPLINE
5
4F6
100
AcDbEntity
8
0
100
AcDbSpline
6
CONTINUOUS
70
0
71
3
72
14
73
10
74
8
42
0.0000001000
43
0.0000001000
44
0.0000000001
40
0.0000000000
40
0.0000000000
40
0.0000000000
40
0.0000000000
40
0.0606974003
40
0.1486727384
40
0.2691245859
40
0.4231722062
40
0.6051322316
40
0.8025499884
40
1.0000000000
40
1.0000000000
40
1.0000000000
40
1.0000000000
10
305.4405995646
20
219.6137435776
30
0.0000000000
10
305.4545171314
20
219.5196317392
30
0.0000000000
10
305.4885287555
20
219.2891018079
30
0.0000000000
10
305.5497139990
20
218.8717447306
30
0.0000000000
10
305.6322827977
20
218.3096441811
30
0.0000000000
10
305.7361964875
20
217.6017893437
30
0.0000000000
10
305.8576651449
20
216.7745845073
30
0.0000000000
10
305.9890002971
20
215.8800713112
30
0.0000000000
10
306.0789045518
20
215.2677316447
30
0.0000000000
10
306.1238654537
20
214.9615375511
30
0.0000000000
11
305.4405995646
21
219.6137435776
31
0.0000000000
11
305.4822532556
21
219.3313934385
31
0.0000000000
11
305.5423469310
21
218.9221115571
31
0.0000000000
11
305.6246225383
21
218.3617410631
31
0.0000000000
11
305.7298466302
21
217.6450751759
31
0.0000000000
11
305.8541426463
21
216.7985550761
31
0.0000000000
11
305.9889926301
21
215.8801212829
31
0.0000000000
11
306.1238654537
21
214.9615375511
31
0.0000000000
0
SPLINE
5
4F7
100
AcDbEntity
8
0
100
AcDbSpline
6
CONTINUOUS
70
0
71
3
72
11
73
7
74
5
42
0.0000001000
43
0.0000001000
44
0.0000000001
40
0.0000000000
40
0.0000000000
40
0.0000000000
40
0.0000000000
40
0.2442977205
40
0.4917151335
40
0.7438322185
40
1.0000000000
40
1.0000000000
40
1.0000000000
40
1.0000000000
10
306.4059605274
20
218.8554698672
30
0.0000000000
10
306.3865040743
20
218.9614756782
30
0.0000000000
10
306.3066333181
20
219.1694462146
30
0.0000000000
10
306.0820941120
20
219.4181441873
30
0.0000000000
10
305.7814390930
20
219.5766459166
30
0.0000000000
10
305.5546704912
20
219.6098290630
30
0.0000000000
10
305.4416768932
20
219.6077212959
30
0.0000000000
11
306.4059605274
21
218.8554698672
31
0.0000000000
11
306.2902162793
21
219.1573727303
31
0.0000000000
11
306.0717508878
21
219.4013030566
31
0.0000000000
11
305.7770110261
21
219.5577314747
31
0.0000000000
11
305.4416768932
21
219.6077212959
31
0.0000000000
0
SPLINE
5
4F8
100
AcDbEntity
8
0
100
AcDbSpline
6
CONTINUOUS
70
0
71
3
72
13
73
9
74
7
42
0.0000001000
43
0.0000001000
44
0.0000000001
40
0.0000000000
40
0.0000000000
40
0.0000000000
40
0.0000000000
40
0.1604272609
40
0.3224419152
40
0.4888537152
40
0.6600584431
40
0.8329522383
40
1.0000000000
40
1.0000000000
40
1.0000000000
40
1.0000000000
10
305.1999728901
20
219.8634875070
30
0.0000000000
10
305.2201131244
20
219.8634706749
30
0.0000000000
10
305.2608478056
20
219.8570851509
30
0.0000000000
10
305.3166944530
20
219.8298033096
30
0.0000000000
10
305.3643565150
20
219.7880350583
30
0.0000000000
10
305.4018254630
20
219.7353925523
30
0.0000000000
10
305.4276926024
20
219.6762869010
30
0.0000000000
10
305.4378352903
20
219.6345317443
30
0.0000000000
10
305.4405995646
20
219.6137435776
30
0.0000000000
11
305.1999728901
21
219.8634875070
31
0.0000000000
11
305.2596821115
21
219.8542427821
31
0.0000000000
11
305.3146859382
21
219.8278276202
31
0.0000000000
11
305.3620948018
21
219.7868346781
31
0.0000000000
11
305.3997602819
21
219.7345005745
31
0.0000000000
11
305.4261621054
21
219.6749780577
31
0.0000000000
11
305.4405995646
21
219.6137435776
31
0.0000000000
0
SPLINE
5
4F9
100
AcDbEntity
8
0
100
AcDbSpline
6
CONTINUOUS
70
0
71
3
72
10
73
6
74
4
42
0.0000001000
43
0.0000001000
44
0.0000000001
40
0.0000000000
40
0.0000000000
40
0.0000000000
40
0.0000000000
40
0.3076188481
40
0.6487323856
40
1.0000000000
40
1.0000000000
40
1.0000000000
40
1.0000000000
10
291.4201576677
20
219.8634875382
30
0.0000000000
10
291.4859110711
20
219.8634794410
30
0.0000000000
10
291.6250666667
20
219.8476716813
30
0.0000000000
10
291.8277789883
20
219.7737798624
30
0.0000000000
10
291.9517820491
20
219.6898270360
30
0.0000000000
10
292.0085082547
20
219.6406376078
30
0.0000000000
11
291.4201576677
21
219.8634875382
31
0.0000000000
11
291.6161619188
21
219.8412637825
31
0.0000000000
11
291.8217518684
21
219.7665709726
31
0.0000000000
11
292.0085082547
21
219.6406376078
31
0.0000000000
0
SPLINE
5
4FA
100
AcDbEntity
8
0
100
AcDbSpline
62
7
6
CONTINUOUS
70
0
71
3
72
9
73
5
74
3
42
0.0000001000
43
0.0000001000
44
0.0000000001
40
0.0000000000
40
0.0000000000
40
0.0000000000
40
0.0000000000
40
0.4855414277
40
1.0000000000
40
1.0000000000
40
1.0000000000
40
1.0000000000
10
280.5674981080
20
199.2269964526
30
0.0000000000
10
280.5815811241
20
199.1491613068
30
0.0000000000
10
280.6283087255
20
198.9923342482
30
0.0000000000
10
280.6877841759
20
198.8405948766
30
0.0000000000
10
280.7220489799
20
198.7641095587
30
0.0000000000
11
280.5674981080
21
199.2269964526
31
0.0000000000
11
280.6299628082
21
198.9980686636
31
0.0000000000
11
280.7220489799
21
198.7641095587
31
0.0000000000
0
SPLINE
5
4FB
100
AcDbEntity
8
0
100
AcDbSpline
6
CONTINUOUS
70
0
71
3
72
8
73
4
74
2
42
0.0000001000
43
0.0000001000
44
0.0000000001
40
0.0000000000
40
0.0000000000
40
0.0000000000
40
0.0000000000
40
1.0000000000
40
1.0000000000
40
1.0000000000
40
1.0000000000
10
315.7357707290
20
198.4416900437
30
0.0000000000
10
315.7432948191
20
198.4723969812
30
0.0000000000
10
315.7509010823
20
198.5030838935
30
0.0000000000
10
315.7585865090
20
198.5337510246
30
0.0000000000
11
315.7357707290
21
198.4416900437
31
0.0000000000
11
315.7585865090
21
198.5337510246
31
0.0000000000
0
SPLINE
5
4FC
100
AcDbEntity
8
0
100
AcDbSpline
6
CONTINUOUS
70
0
71
3
72
9
73
5
74
3
42
0.0000001000
43
0.0000001000
44
0.0000000001
40
0.0000000000
40
0.0000000000
40
0.0000000000
40
0.0000000000
40
0.4879874684
40
1.0000000000
40
1.0000000000
40
1.0000000000
40
1.0000000000
10
315.7585865090
20
198.5337510246
30
0.0000000000
10
315.7666344744
20
198.5658647928
30
0.0000000000
10
315.7833045208
20
198.6316289337
30
0.0000000000
10
315.8003245933
20
198.6973031606
30
0.0000000000
10
315.8091235127
20
198.7309070656
30
0.0000000000
11
315.7585865090
21
198.5337510246
31
0.0000000000
11
315.7829873743
21
198.6300275347
31
0.0000000000
11
315.8091235127
21
198.7309070656
31
0.0000000000
0
SPLINE
5
4FD
100
AcDbEntity
8
0
100
AcDbSpline
6
CONTINUOUS
70
0
71
3
72
9
73
5
74
3
42
0.0000001000
43
0.0000001000
44
0.0000000001
40
0.0000000000
40
0.0000000000
40
0.0000000000
40
0.0000000000
40
0.3268961036
40
1.0000000000
40
1.0000000000
40
1.0000000000
40
1.0000000000
10
315.8091235127
20
198.7309070656
30
0.0000000000
10
315.8182011905
20
198.7655755757
30
0.0000000000
10
315.8462453948
20
198.8715571511
30
0.0000000000
10
315.8750551838
20
198.9773332775
30
0.0000000000
10
315.8945322602
20
199.0485077314
30
0.0000000000
11
315.8091235127
21
198.7309070656
31
0.0000000000
11
315.8366180839
21
198.8348435493
31
0.0000000000
11
315.8945322602
21
199.0485077314
31
0.0000000000
0
SPLINE
5
4FE
100
AcDbEntity
8
0
100
AcDbSpline
62
7
6
CONTINUOUS
70
0
71
3
72
9
73
5
74
3
42
0.0000001000
43
0.0000001000
44
0.0000000001
40
0.0000000000
40
0.0000000000
40
0.0000000000
40
0.0000000000
40
0.4947554404
40
1.0000000000
40
1.0000000000
40
1.0000000000
40
1.0000000000
10
280.7220489799
20
198.7641095587
30
0.0000000000
10
280.7225464867
20
198.8109241969
30
0.0000000000
10
280.7236119471
20
198.9055453439
30
0.0000000000
10
280.7247820402
20
199.0001652418
30
0.0000000000
10
280.7253900992
20
199.0479712117
30
0.0000000000
11
280.7220489799
21
198.7641095587
31
0.0000000000
11
280.7236263837
21
198.9045525456
31
0.0000000000
11
280.7253900992
21
199.0479712117
31
0.0000000000
0
SPLINE
5
4FF
100
AcDbEntity
8
0
100
AcDbSpline
62
7
6
CONTINUOUS
70
0
71
3
72
9
73
5
74
3
42
0.0000001000
43
0.0000001000
44
0.0000000001
40
0.0000000000
40
0.0000000000
40
0.0000000000
40
0.0000000000
40
0.5107627808
40
1.0000000000
40
1.0000000000
40
1.0000000000
40
1.0000000000
10
315.8945937506
20
199.0437795113
30
0.0000000000
10
315.8951988466
20
198.9961646756
30
0.0000000000
10
315.8963454605
20
198.9029411917
30
0.0000000000
10
315.8973961924
20
198.8097165672
30
0.0000000000
10
315.8978807459
20
198.7641073000
30
0.0000000000
11
315.8945937506
21
199.0437795113
31
0.0000000000
11
315.8963451285
21
198.9009342063
31
0.0000000000
11
315.8978807459
21
198.7641073000
31
0.0000000000
0
SPLINE
5
500
100
AcDbEntity
8
0
100
AcDbSpline
62
7
6
CONTINUOUS
70
0
71
3
72
9
73
5
74
3
42
0.0000001000
43
0.0000001000
44
0.0000000001
40
0.0000000000
40
0.0000000000
40
0.0000000000
40
0.0000000000
40
0.6643050087
40
1.0000000000
40
1.0000000000
40
1.0000000000
40
1.0000000000
10
292.2004051401
20
219.5828799090
30
0.0000000000
10
292.1831140847
20
219.5971609627
30
0.0000000000
10
292.1540085189
20
219.6151849409
30
0.0000000000
10
292.1222379790
20
219.6270742984
30
0.0000000000
10
292.1113606285
20
219.6303590422
30
0.0000000000
11
292.2004051401
21
219.5828799090
31
0.0000000000
11
292.1432680823
21
219.6184005855
31
0.0000000000
11
292.1113606285
21
219.6303590422
31
0.0000000000
0
SPLINE
5
501
100
AcDbEntity
8
0
100
AcDbSpline
62
7
6
CONTINUOUS
70
0
71
3
72
9
73
5
74
3
42
0.0000001000
43
0.0000001000
44
0.0000000001
40
0.0000000000
40
0.0000000000
40
0.0000000000
40
0.0000000000
40
0.3303937590
40
1.0000000000
40
1.0000000000
40
1.0000000000
40
1.0000000000
10
292.1113606285
20
219.6303590422
30
0.0000000000
10
292.1003890476
20
219.6336722417
30
0.0000000000
10
292.0665282033
20
219.6415248490
30
0.0000000000
10
292.0315191402
20
219.6426508141
30
0.0000000000
10
292.0084358790
20
219.6406861934
30
0.0000000000
11
292.1113606285
21
219.6303590422
31
0.0000000000
11
292.0778888848
21
219.6381268661
31
0.0000000000
11
292.0084358790
21
219.6406861934
31
0.0000000000
0
SPLINE
5
502
100
AcDbEntity
8
0
100
AcDbSpline
62
7
6
CONTINUOUS
70
0
71
3
72
11
73
7
74
5
42
0.0000001000
43
0.0000001000
44
0.0000000001
40
0.0000000000
40
0.0000000000
40
0.0000000000
40
0.0000000000
40
0.1441830299
40
0.3643248845
40
0.6758556895
40
1.0000000000
40
1.0000000000
40
1.0000000000
40
1.0000000000
10
293.6825240629
20
216.7465657526
30
0.0000000000
10
293.6825240629
20
216.7626344076
30
0.0000000000
10
293.6579809826
20
216.8012430102
30
0.0000000000
10
293.5880408477
20
216.8317022084
30
0.0000000000
10
293.4958773577
20
216.8573127938
30
0.0000000000
10
293.4245261199
20
216.8611400168
30
0.0000000000
10
293.3884070629
20
216.8605037229
30
0.0000000000
11
293.6825240629
21
216.7465657526
31
0.0000000000
11
293.6610370940
21
216.7897181018
31
0.0000000000
11
293.5971146704
21
216.8262032931
31
0.0000000000
11
293.4965404093
21
216.8532857079
31
0.0000000000
11
293.3884070629
21
216.8605037229
31
0.0000000000
0
SPLINE
5
503
100
AcDbEntity
8
0
100
AcDbSpline
6
CONTINUOUS
70
0
71
3
72
8
73
4
74
2
42
0.0000001000
43
0.0000001000
44
0.0000000001
40
0.0000000000
40
0.0000000000
40
0.0000000000
40
0.0000000000
40
1.0000000000
40
1.0000000000
40
1.0000000000
40
1.0000000000
10
292.0085082547
20
219.6406376078
30
0.0000000000
10
292.0388355382
20
219.5945458197
30
0.0000000000
10
292.0691659202
20
219.5484560707
30
0.0000000000
10
292.0994978716
20
219.5023673544
30
0.0000000000
11
292.0085082547
21
219.6406376078
31
0.0000000000
11
292.0994978716
21
219.5023673544
31
0.0000000000
0
SPLINE
5
504
100
AcDbEntity
8
0
100
AcDbSpline
6
CONTINUOUS
70
0
71
3
72
8
73
4
74
2
42
0.0000001000
43
0.0000001000
44
0.0000000001
40
0.0000000000
40
0.0000000000
40
0.0000000000
40
0.0000000000
40
1.0000000000
40
1.0000000000
40
1.0000000000
40
1.0000000000
10
292.0994978716
20
219.5023673544
30
0.0000000000
10
292.1036138931
20
219.4961131525
30
0.0000000000
10
292.1077299435
20
219.4898589697
30
0.0000000000
10
292.1118460190
20
219.4836048034
30
0.0000000000
11
292.0994978716
21
219.5023673544
31
0.0000000000
11
292.1118460190
21
219.4836048034
31
0.0000000000
0
SPLINE
5
505
100
AcDbEntity
8
0
100
AcDbSpline
6
CONTINUOUS
70
0
71
3
72
8
73
4
74
2
42
0.0000001000
43
0.0000001000
44
0.0000000001
40
0.0000000000
40
0.0000000000
40
0.0000000000
40
0.0000000000
40
1.0000000000
40
1.0000000000
40
1.0000000000
40
1.0000000000
10
292.1118460190
20
219.4836048034
30
0.0000000000
10
292.1457462536
20
219.4320951294
30
0.0000000000
10
292.1796481895
20
219.3805865749
30
0.0000000000
10
292.2135496919
20
219.3290777352
30
0.0000000000
11
292.1118460190
21
219.4836048034
31
0.0000000000
11
292.2135496919
21
219.3290777352
31
0.0000000000
0
SPLINE
5
506
100
AcDbEntity
8
0
100
AcDbSpline
6
CONTINUOUS
70
0
71
3
72
10
73
6
74
4
42
0.0000001000
43
0.0000001000
44
0.0000000001
40
0.0000000000
40
0.0000000000
40
0.0000000000
40
0.0000000000
40
0.2534960128
40
0.5874139034
40
1.0000000000
40
1.0000000000
40
1.0000000000
40
1.0000000000
10
292.2135496919
20
219.3290777352
30
0.0000000000
10
292.3128269041
20
219.1782391695
30
0.0000000000
10
292.5428685167
20
218.8287026775
30
0.0000000000
10
292.9345281995
20
218.2336874512
30
0.0000000000
10
293.2268226945
20
217.7894528905
30
0.0000000000
10
293.3884070629
20
217.5439519767
30
0.0000000000
11
292.2135496919
21
219.3290777352
31
0.0000000000
11
292.5113785010
21
218.8765601785
31
0.0000000000
11
292.9037008240
21
218.2804855627
31
0.0000000000
11
293.3884070629
21
217.5439519767
31
0.0000000000
0
SPLINE
5
507
100
AcDbEntity
8
0
100
AcDbSpline
6
CONTINUOUS
70
0
71
3
72
10
73
6
74
4
42
0.0000001000
43
0.0000001000
44
0.0000000001
40
0.0000000000
40
0.0000000000
40
0.0000000000
40
0.0000000000
40
0.4119894461
40
0.7462559456
40
1.0000000000
40
1.0000000000
40
1.0000000000
40
1.0000000000
10
303.2315226629
20
217.5440975304
30
0.0000000000
10
303.3928466996
20
217.7892000288
30
0.0000000000
10
303.6850839905
20
218.2331503324
30
0.0000000000
10
304.0766451121
20
218.8280825169
30
0.0000000000
10
304.3068870898
20
219.1779089809
30
0.0000000000
10
304.4062431422
20
219.3288696532
30
0.0000000000
11
303.2315226629
21
217.5440975304
31
0.0000000000
11
303.7155107588
21
218.2793945037
31
0.0000000000
11
304.1081745406
21
218.8759879306
31
0.0000000000
11
304.4062431422
21
219.3288696532
31
0.0000000000
0
SPLINE
5
508
100
AcDbEntity
8
0
100
AcDbSpline
6
CONTINUOUS
70
0
71
3
72
8
73
4
74
2
42
0.0000001000
43
0.0000001000
44
0.0000000001
40
0.0000000000
40
0.0000000000
40
0.0000000000
40
0.0000000000
40
1.0000000000
40
1.0000000000
40
1.0000000000
40
1.0000000000
10
304.4062431422
20
219.3288696532
30
0.0000000000
10
304.4442823759
20
219.3866661151
30
0.0000000000
10
304.4823215784
20
219.4444625977
30
0.0000000000
10
304.5203580216
20
219.5022608960
30
0.0000000000
11
304.4062431422
21
219.3288696532
31
0.0000000000
11
304.5203580216
21
219.5022608960
31
0.0000000000
0
SPLINE
5
509
100
AcDbEntity
8
0
100
AcDbSpline
6
CONTINUOUS
70
0
71
3
72
8
73
4
74
2
42
0.0000001000
43
0.0000001000
44
0.0000000001
40
0.0000000000
40
0.0000000000
40
0.0000000000
40
0.0000000000
40
1.0000000000
40
1.0000000000
40
1.0000000000
40
1.0000000000
10
304.5203580216
20
219.5022608960
30
0.0000000000
10
304.5225517685
20
219.5055944053
30
0.0000000000
10
304.5247455062
20
219.5089279206
30
0.0000000000
10
304.5269392342
20
219.5122614423
30
0.0000000000
11
304.5203580216
21
219.5022608960
31
0.0000000000
11
304.5269392342
21
219.5122614423
31
0.0000000000
0
SPLINE
5
50A
100
AcDbEntity
8
0
100
AcDbSpline
6
CONTINUOUS
70
0
71
3
72
8
73
4
74
2
42
0.0000001000
43
0.0000001000
44
0.0000000001
40
0.0000000000
40
0.0000000000
40
0.0000000000
40
0.0000000000
40
1.0000000000
40
1.0000000000
40
1.0000000000
40
1.0000000000
10
304.5269392342
20
219.5122614423
30
0.0000000000
10
304.5550881374
20
219.5550356513
30
0.0000000000
10
304.5832354432
20
219.5978109113
30
0.0000000000
10
304.6113800459
20
219.6405879499
30
0.0000000000
11
304.5269392342
21
219.5122614423
31
0.0000000000
11
304.6113800459
21
219.6405879499
31
0.0000000000
0
SPLINE
5
50B
100
AcDbEntity
8
0
100
AcDbSpline
62
7
6
CONTINUOUS
70
0
71
3
72
9
73
5
74
3
42
0.0000001000
43
0.0000001000
44
0.0000000001
40
0.0000000000
40
0.0000000000
40
0.0000000000
40
0.0000000000
40
0.6643059567
40
1.0000000000
40
1.0000000000
40
1.0000000000
40
1.0000000000
10
304.4195247737
20
219.5828802447
30
0.0000000000
10
304.4368157917
20
219.5971612162
30
0.0000000000
10
304.4659211959
20
219.6151852035
30
0.0000000000
10
304.4976916310
20
219.6270742377
30
0.0000000000
10
304.5085689131
20
219.6303588880
30
0.0000000000
11
304.4195247737
21
219.5828802447
31
0.0000000000
11
304.4766616630
21
219.6184007309
31
0.0000000000
11
304.5085689131
21
219.6303588880
31
0.0000000000
0
SPLINE
5
50C
100
AcDbEntity
8
0
100
AcDbSpline
62
7
6
CONTINUOUS
70
0
71
3
72
9
73
5
74
3
42
0.0000001000
43
0.0000001000
44
0.0000000001
40
0.0000000000
40
0.0000000000
40
0.0000000000
40
0.0000000000
40
0.3303910715
40
1.0000000000
40
1.0000000000
40
1.0000000000
40
1.0000000000
10
304.5085689131
20
219.6303588880
30
0.0000000000
10
304.5195404447
20
219.6336719991
30
0.0000000000
10
304.5534014082
20
219.6415244760
30
0.0000000000
10
304.5884105099
20
219.6426509847
30
0.0000000000
10
304.6114939071
20
219.6406863019
30
0.0000000000
11
304.5085689131
21
219.6303588880
31
0.0000000000
11
304.5420404935
21
219.6381265806
31
0.0000000000
11
304.6114939071
21
219.6406863019
31
0.0000000000
0
SPLINE
5
50D
100
AcDbEntity
8
0
100
AcDbSpline
62
7
6
CONTINUOUS
70
0
71
3
72
11
73
7
74
5
42
0.0000001000
43
0.0000001000
44
0.0000000001
40
0.0000000000
40
0.0000000000
40
0.0000000000
40
0.0000000000
40
0.2503276295
40
0.5239716033
40
0.8309825710
40
1.0000000000
40
1.0000000000
40
1.0000000000
40
1.0000000000
10
315.8648395870
20
200.2073864526
30
0.0000000000
10
315.8677098681
20
200.1250799135
30
0.0000000000
10
315.8736687565
20
199.9527987071
30
0.0000000000
10
315.8820685725
20
199.6795373607
30
0.0000000000
10
315.8881046704
20
199.4329706964
30
0.0000000000
10
315.8910469770
20
199.2763863897
30
0.0000000000
10
315.8919822734
20
199.2207881553
30
0.0000000000
11
315.8648395870
21
200.2073864526
31
0.0000000000
11
315.8732523940
21
199.9604600089
31
0.0000000000
11
315.8814660649
21
199.6905023276
31
0.0000000000
11
315.8888453389
21
199.3875768522
31
0.0000000000
11
315.8919822734
21
199.2207881553
31
0.0000000000
0
SPLINE
5
50E
100
AcDbEntity
8
0
100
AcDbSpline
62
7
6
CONTINUOUS
70
0
71
3
72
8
73
4
74
2
42
0.0000001000
43
0.0000001000
44
0.0000000001
40
0.0000000000
40
0.0000000000
40
0.0000000000
40
0.0000000000
40
1.0000000000
40
1.0000000000
40
1.0000000000
40
1.0000000000
10
315.8919822734
20
199.2207881553
30
0.0000000000
10
315.8929748137
20
199.1617870819
30
0.0000000000
10
315.8938441625
20
199.1027839705
30
0.0000000000
10
315.8945937506
20
199.0437795113
30
0.0000000000
11
315.8919822734
21
199.2207881553
31
0.0000000000
11
315.8945937506
21
199.0437795113
31
0.0000000000
0
SPLINE
5
50F
100
AcDbEntity
8
0
100
AcDbSpline
6
CONTINUOUS
70
0
71
3
72
15
73
11
74
9
42
0.0000001000
43
0.0000001000
44
0.0000000001
40
0.0000000000
40
0.0000000000
40
0.0000000000
40
0.0000000000
40
0.1069391298
40
0.2272542756
40
0.3570022564
40
0.4920536438
40
0.6285040979
40
0.7620010705
40
0.8874831506
40
1.0000000000
40
1.0000000000
40
1.0000000000
40
1.0000000000
10
315.8648393249
20
200.2073864526
30
0.0000000000
10
315.8648387561
20
200.1525310429
30
0.0000000000
10
315.8549963243
20
200.0357358160
30
0.0000000000
10
315.8070935231
20
199.8578810225
30
0.0000000000
10
315.7188046979
20
199.6796061889
30
0.0000000000
10
315.5903263856
20
199.5168200358
30
0.0000000000
10
315.4287825184
20
199.3836687002
30
0.0000000000
10
315.2472911906
20
199.2897697482
30
0.0000000000
10
315.0627143925
20
199.2377879495
30
0.0000000000
10
314.9403737338
20
199.2269967878
30
0.0000000000
10
314.8826571816
20
199.2269964526
30
0.0000000000
11
315.8648393249
21
200.2073864526
31
0.0000000000
11
315.8510028244
21
200.0434029321
31
0.0000000000
11
315.8028556244
21
199.8646224146
31
0.0000000000
11
315.7142389201
21
199.6856987032
31
0.0000000000
11
315.5854888432
21
199.5225554868
31
0.0000000000
11
315.4234594073
21
199.3889954219
31
0.0000000000
11
315.2410062480
21
199.2945783236
31
0.0000000000
11
315.0551352975
21
199.2422313840
31
0.0000000000
11
314.8826571816
21
199.2269964526
31
0.0000000000
0
SPLINE
5
510
100
AcDbEntity
8
0
100
AcDbSpline
6
CONTINUOUS
70
0
71
3
72
10
73
6
74
4
42
0.0000001000
43
0.0000001000
44
0.0000000001
40
0.0000000000
40
0.0000000000
40
0.0000000000
40
0.0000000000
40
0.3563133693
40
0.6927982924
40
1.0000000000
40
1.0000000000
40
1.0000000000
40
1.0000000000
10
315.7357645120
20
198.4416626677
30
0.0000000000
10
315.6414496722
20
198.3961534632
30
0.0000000000
10
315.4505960544
20
198.3222447977
30
0.0000000000
10
315.1623819287
20
198.2597068517
30
0.0000000000
10
314.9729437377
20
198.2466072552
30
0.0000000000
10
314.8826571816
20
198.2466064526
30
0.0000000000
11
315.7357645120
21
198.4416626677
31
0.0000000000
11
315.4428004775
21
198.3282190034
31
0.0000000000
11
315.1528712774
21
198.2652960869
31
0.0000000000
11
314.8826571816
21
198.2466064526
31
0.0000000000
0
SPLINE
5
511
100
AcDbEntity
8
0
100
AcDbSpline
6
CONTINUOUS
70
0
71
3
72
11
73
7
74
5
42
0.0000001000
43
0.0000001000
44
0.0000000001
40
0.0000000000
40
0.0000000000
40
0.0000000000
40
0.0000000000
40
0.2659573745
40
0.5273328180
40
0.7745483428
40
1.0000000000
40
1.0000000000
40
1.0000000000
40
1.0000000000
10
304.6113800459
20
219.6405879499
30
0.0000000000
10
304.6543808737
20
219.6778761479
30
0.0000000000
10
304.7465497377
20
219.7442841621
30
0.0000000000
10
304.8974480493
20
219.8151013308
30
0.0000000000
10
305.0502252556
20
219.8550675707
30
0.0000000000
10
305.1515658723
20
219.8634815255
30
0.0000000000
10
305.1998139795
20
219.8634875375
30
0.0000000000
11
304.6113800459
21
219.6405879499
31
0.0000000000
11
304.7500383531
21
219.7402333306
31
0.0000000000
11
304.9019946099
21
219.8114281182
31
0.0000000000
11
305.0555657532
21
219.8515142753
31
0.0000000000
11
305.1998139795
21
219.8634875375
31
0.0000000000
0
SPLINE
5
512
100
AcDbEntity
8
0
100
AcDbSpline
6
CONTINUOUS
70
0
71
3
72
14
73
10
74
8
42
0.0000001000
43
0.0000001000
44
0.0000000001
40
0.0000000000
40
0.0000000000
40
0.0000000000
40
0.0000000000
40
0.1980945026
40
0.3957041992
40
0.5777214393
40
0.7319349874
40
0.8525569675
40
0.9404050125
40
1.0000000000
40
1.0000000000
40
1.0000000000
40
1.0000000000
10
290.4960642721
20
214.9615375511
30
0.0000000000
10
290.5411582618
20
215.2686384525
30
0.0000000000
10
290.6312259227
20
215.8820901350
30
0.0000000000
10
290.7627245883
20
216.7777190121
30
0.0000000000
10
290.8842515798
20
217.6053178074
30
0.0000000000
10
290.9882225027
20
218.3135690015
30
0.0000000000
10
291.0708166222
20
218.8758232833
30
0.0000000000
10
291.1317364491
20
219.2914127240
30
0.0000000000
10
291.1654655059
20
219.5199656168
30
0.0000000000
10
291.1790588261
20
219.6123502233
30
0.0000000000
11
290.4960642721
21
214.9615375511
31
0.0000000000
11
290.6313365121
21
215.8828416840
31
0.0000000000
11
290.7662768290
21
216.8018911929
31
0.0000000000
11
290.8905745105
21
217.6484220899
31
0.0000000000
11
290.9958802537
21
218.3656435411
31
0.0000000000
11
291.0782472452
21
218.9266362986
31
0.0000000000
11
291.1382358025
21
219.3352027435
31
0.0000000000
11
291.1790588261
21
219.6123502233
31
0.0000000000
0
SPLINE
5
513
100
AcDbEntity
8
0
100
AcDbSpline
6
CONTINUOUS
70
0
71
3
72
12
73
8
74
6
42
0.0000001000
43
0.0000001000
44
0.0000000001
40
0.0000000000
40
0.0000000000
40
0.0000000000
40
0.0000000000
40
0.2229636792
40
0.4457176243
40
0.6523358039
40
0.8371667576
40
1.0000000000
40
1.0000000000
40
1.0000000000
40
1.0000000000
10
291.1790588261
20
219.6123502233
30
0.0000000000
10
291.1829942098
20
219.6401462333
30
0.0000000000
10
291.1974124336
20
219.6950100012
30
0.0000000000
10
291.2373248875
20
219.7678392433
30
0.0000000000
10
291.2925415152
20
219.8236356700
30
0.0000000000
10
291.3554535920
20
219.8564556587
30
0.0000000000
10
291.3995048319
20
219.8634792303
30
0.0000000000
10
291.4200072677
20
219.8634875312
30
0.0000000000
11
291.1790588261
21
219.6123502233
31
0.0000000000
11
291.2006353734
21
219.6937590762
31
0.0000000000
11
291.2416305973
21
219.7672369806
31
0.0000000000
11
291.2970742152
21
219.8221651513
31
0.0000000000
11
291.3592478787
21
219.8539249941
31
0.0000000000
11
291.4200072677
21
219.8634875312
31
0.0000000000
0
SPLINE
5
514
100
AcDbEntity
8
0
100
AcDbSpline
6
CONTINUOUS
70
0
71
3
72
11
73
7
74
5
42
0.0000001000
43
0.0000001000
44
0.0000000001
40
0.0000000000
40
0.0000000000
40
0.0000000000
40
0.0000000000
40
0.2443897401
40
0.4917434669
40
0.7438257623
40
1.0000000000
40
1.0000000000
40
1.0000000000
40
1.0000000000
10
290.2144834887
20
218.8583933969
30
0.0000000000
10
290.2338818527
20
218.9644522147
30
0.0000000000
10
290.3136846177
20
219.1724828818
30
0.0000000000
10
290.5382348014
20
219.4211836234
30
0.0000000000
10
290.8388989825
20
219.5796000853
30
0.0000000000
10
291.0656695292
20
219.6127067998
30
0.0000000000
10
291.1786664054
20
219.6105620288
30
0.0000000000
11
290.2144834887
21
218.8583933969
31
0.0000000000
11
290.3301592028
21
219.1604563926
31
0.0000000000
11
290.5485707760
21
219.4043261439
31
0.0000000000
11
290.8433050763
21
219.5606738968
31
0.0000000000
11
291.1786664054
21
219.6105620288
31
0.0000000000
0
SPLINE
5
515
100
AcDbEntity
8
0
100
AcDbSpline
6
CONTINUOUS
70
0
71
3
72
10
73
6
74
4
42
0.0000001000
43
0.0000001000
44
0.0000000001
40
0.0000000000
40
0.0000000000
40
0.0000000000
40
0.0000000000
40
0.3070898534
40
0.6435878100
40
1.0000000000
40
1.0000000000
40
1.0000000000
40
1.0000000000
10
281.7372725442
20
198.2466064526
30
0.0000000000
10
281.6470188906
20
198.2466071874
30
0.0000000000
10
281.4576100902
20
198.2597003010
30
0.0000000000
10
281.1693929675
20
198.3222242691
30
0.0000000000
10
280.9785062368
20
198.3961404840
30
0.0000000000
10
280.8841652478
20
198.4416622509
30
0.0000000000
11
281.7372725442
21
198.2466064526
31
0.0000000000
11
281.4671564602
21
198.2652826146
31
0.0000000000
11
281.1772131019
21
198.3281940329
31
0.0000000000
11
280.8841652478
21
198.4416622509
31
0.0000000000
0
SPLINE
5
516
100
AcDbEntity
8
0
100
AcDbSpline
6
CONTINUOUS
70
0
71
3
72
15
73
11
74
9
42
0.0000001000
43
0.0000001000
44
0.0000000001
40
0.0000000000
40
0.0000000000
40
0.0000000000
40
0.0000000000
40
0.1124634776
40
0.2379435798
40
0.3714711204
40
0.5079662900
40
0.6430583824
40
0.7728263123
40
0.8931263504
40
1.0000000000
40
1.0000000000
40
1.0000000000
40
1.0000000000
10
281.7372725442
20
199.2269964526
30
0.0000000000
10
281.6795833835
20
199.2269967595
30
0.0000000000
10
281.5572715188
20
199.2377802596
30
0.0000000000
10
281.3727025860
20
199.2897427446
30
0.0000000000
10
281.1911711162
20
199.3836479414
30
0.0000000000
10
281.0295796713
20
199.5168374285
30
0.0000000000
10
280.9010774073
20
199.6796752194
30
0.0000000000
10
280.8127978557
20
199.8579813185
30
0.0000000000
10
280.7649238085
20
200.0358112010
30
0.0000000000
10
280.7550909685
20
200.1525646448
30
0.0000000000
10
280.7550903935
20
200.2073864526
30
0.0000000000
11
281.7372725442
21
199.2269964526
31
0.0000000000
11
281.5648756459
21
199.2422169265
31
0.0000000000
11
281.3790031978
21
199.2945471452
31
0.0000000000
11
281.1965023505
21
199.3889743334
31
0.0000000000
11
281.0344193433
21
199.5225775122
31
0.0000000000
11
280.9056408569
21
199.6857780405
31
0.0000000000
11
280.8170304892
21
199.8647390931
31
0.0000000000
11
280.7689099555
21
200.0435026670
31
0.0000000000
11
280.7550903935
21
200.2073864526
31
0.0000000000
0
SPLINE
5
517
100
AcDbEntity
8
0
100
AcDbSpline
62
7
6
CONTINUOUS
70
0
71
3
72
8
73
4
74
2
42
0.0000001000
43
0.0000001000
44
0.0000000001
40
0.0000000000
40
0.0000000000
40
0.0000000000
40
0.0000000000
40
1.0000000000
40
1.0000000000
40
1.0000000000
40
1.0000000000
10
280.7253900992
20
199.0479712117
30
0.0000000000
10
280.7263741362
20
199.1253168709
30
0.0000000000
10
280.7275714445
20
199.2026602097
30
0.0000000000
10
280.7289827241
20
199.2799997214
30
0.0000000000
11
280.7253900992
21
199.0479712117
31
0.0000000000
11
280.7289827241
21
199.2799997214
31
0.0000000000
0
SPLINE
5
518
100
AcDbEntity
8
0
100
AcDbSpline
62
7
6
CONTINUOUS
70
0
71
3
72
10
73
6
74
4
42
0.0000001000
43
0.0000001000
44
0.0000000001
40
0.0000000000
40
0.0000000000
40
0.0000000000
40
0.0000000000
40
0.2319465896
40
0.6413288112
40
1.0000000000
40
1.0000000000
40
1.0000000000
40
1.0000000000
10
280.7289827241
20
199.2799997214
30
0.0000000000
10
280.7302914422
20
199.3517187675
30
0.0000000000
10
280.7344187896
20
199.5500117455
30
0.0000000000
10
280.7430545037
20
199.8591490089
30
0.0000000000
10
280.7512244143
20
200.0965331182
30
0.0000000000
10
280.7550901390
20
200.2073864526
30
0.0000000000
11
280.7289827241
21
199.2799997214
31
0.0000000000
11
280.7334614413
21
199.4951457854
31
0.0000000000
11
280.7439291580
21
199.8748115248
31
0.0000000000
11
280.7550901390
21
200.2073864526
31
0.0000000000
0
SPLINE
5
519
100
AcDbEntity
8
0
100
AcDbSpline
62
7
6
CONTINUOUS
70
0
71
3
72
13
73
9
74
7
42
0.0000001000
43
0.0000001000
44
0.0000000001
40
0.0000000000
40
0.0000000000
40
0.0000000000
40
0.0000000000
40
0.0793040248
40
0.2243100568
40
0.4053590171
40
0.6041824346
40
0.8071215467
40
1.0000000000
40
1.0000000000
40
1.0000000000
40
1.0000000000
10
292.3015866701
20
216.4524487526
30
0.0000000000
10
292.2848769559
20
216.4524487526
30
0.0000000000
10
292.2489159562
20
216.4934374491
30
0.0000000000
10
292.1863765940
20
216.5448471605
30
0.0000000000
10
292.1055943127
20
216.6230352801
30
0.0000000000
10
292.0141335581
20
216.7041669990
30
0.0000000000
10
291.9183578966
20
216.7852185590
30
0.0000000000
10
291.8525053621
20
216.8364020693
30
0.0000000000
10
291.8197830629
20
216.8605037229
30
0.0000000000
11
292.3015866701
21
216.4524487526
31
0.0000000000
11
292.2596184474
21
216.4798640626
31
0.0000000000
11
292.1919615154
21
216.5417037266
31
0.0000000000
11
292.1080690175
21
216.6195456214
31
0.0000000000
11
292.0143726347
21
216.7033083168
31
0.0000000000
11
291.9161853724
21
216.7858623012
31
0.0000000000
11
291.8197830629
21
216.8605037229
31
0.0000000000
0
SPLINE
5
51A
100
AcDbEntity
8
0
100
AcDbSpline
6
CONTINUOUS
70
0
71
3
72
9
73
5
74
3
42
0.0000001000
43
0.0000001000
44
0.0000000001
40
0.0000000000
40
0.0000000000
40
0.0000000000
40
0.0000000000
40
0.4238665985
40
1.0000000000
40
1.0000000000
40
1.0000000000
40
1.0000000000
10
302.9374056629
20
217.4200350966
30
0.0000000000
10
302.9373901021
20
217.4258186184
30
0.0000000000
10
302.9400315533
20
217.4395492874
30
0.0000000000
10
302.9470681866
20
217.4514069567
30
0.0000000000
10
302.9511765427
20
217.4581091639
30
0.0000000000
11
302.9374056629
21
217.4200350966
31
0.0000000000
11
302.9404189991
21
217.4371220538
31
0.0000000000
11
302.9511765427
21
217.4581091639
31
0.0000000000
0
SPLINE
5
51B
100
AcDbEntity
8
0
100
AcDbSpline
62
7
6
CONTINUOUS
70
0
71
3
72
13
73
9
74
7
42
0.0000001000
43
0.0000001000
44
0.0000000001
40
0.0000000000
40
0.0000000000
40
0.0000000000
40
0.0000000000
40
0.1928784533
40
0.3958175654
40
0.5946409829
40
0.7756899432
40
0.9206959752
40
1.0000000000
40
1.0000000000
40
1.0000000000
40
1.0000000000
10
304.8001466629
20
216.8605037229
30
0.0000000000
10
304.7674243637
20
216.8364020693
30
0.0000000000
10
304.7015718292
20
216.7852185590
30
0.0000000000
10
304.6057961677
20
216.7041669990
30
0.0000000000
10
304.5143354131
20
216.6230352801
30
0.0000000000
10
304.4335531318
20
216.5448471605
30
0.0000000000
10
304.3710137696
20
216.4934374491
30
0.0000000000
10
304.3350527699
20
216.4524487526
30
0.0000000000
10
304.3183430557
20
216.4524487526
30
0.0000000000
11
304.8001466629
21
216.8605037229
31
0.0000000000
11
304.7037443534
21
216.7858623012
31
0.0000000000
11
304.6055570911
21
216.7033083168
31
0.0000000000
11
304.5118607083
21
216.6195456214
31
0.0000000000
11
304.4279682104
21
216.5417037266
31
0.0000000000
11
304.3603112784
21
216.4798640626
31
0.0000000000
11
304.3183430557
21
216.4524487526
31
0.0000000000
0
SPLINE
5
51C
100
AcDbEntity
8
0
100
AcDbSpline
62
7
6
CONTINUOUS
70
0
71
3
72
11
73
7
74
5
42
0.0000001000
43
0.0000001000
44
0.0000000001
40
0.0000000000
40
0.0000000000
40
0.0000000000
40
0.0000000000
40
0.2554095685
40
0.5150452118
40
0.7810121160
40
1.0000000000
40
1.0000000000
40
1.0000000000
40
1.0000000000
10
182.4261651425
20
105.0064700546
30
0.0000000000
10
182.4652089627
20
105.0064700546
30
0.0000000000
10
182.5448352608
20
104.9903807650
30
0.0000000000
10
182.6456570581
20
104.9205591588
30
0.0000000000
10
182.7073080380
20
104.8210351806
30
0.0000000000
10
182.7202188484
20
104.7459783855
30
0.0000000000
10
182.7202623240
20
104.7123530312
30
0.0000000000
11
182.4261651425
21
105.0064700546
31
0.0000000000
11
182.5409509658
21
104.9831463788
31
0.0000000000
11
182.6389025212
21
104.9154481490
31
0.0000000000
11
182.7030036938
21
104.8116768998
31
0.0000000000
11
182.7202623240
21
104.7123530312
31
0.0000000000
0
SPLINE
5
51D
100
AcDbEntity
8
0
100
AcDbSpline
62
7
6
CONTINUOUS
70
0
71
3
72
12
73
8
74
6
42
0.0000001000
43
0.0000001000
44
0.0000000001
40
0.0000000000
40
0.0000000000
40
0.0000000000
40
0.0000000000
40
0.2531663614
40
0.4973379523
40
0.7374798648
40
0.9890333076
40
1.0000000000
40
1.0000000000
40
1.0000000000
40
1.0000000000
10
182.4261651425
20
114.2613516546
30
0.0000000000
10
182.4649066833
20
114.2613516546
30
0.0000000000
10
182.5418800701
20
114.2768032768
30
0.0000000000
10
182.6378590331
20
114.3411061464
30
0.0000000000
10
182.7030801818
20
114.4362240848
30
0.0000000000
10
182.7199696956
20
114.5132554549
30
0.0000000000
10
182.7202790006
20
114.5537757150
30
0.0000000000
10
182.7202771326
20
114.5554686491
30
0.0000000000
11
182.4261651425
21
114.2613516546
31
0.0000000000
11
182.5400985481
21
114.2843155820
31
0.0000000000
11
182.6332731809
21
114.3466360180
31
0.0000000000
11
182.6956144192
21
114.4375623487
31
0.0000000000
11
182.7202383050
21
114.5503907797
31
0.0000000000
11
182.7202771326
21
114.5554686491
31
0.0000000000
0
SPLINE
5
51E
100
AcDbEntity
8
0
100
AcDbSpline
62
7
6
CONTINUOUS
70
0
71
3
72
12
73
8
74
6
42
0.0000001000
43
0.0000001000
44
0.0000000001
40
0.0000000000
40
0.0000000000
40
0.0000000000
40
0.0000000000
40
0.2531663614
40
0.4973379523
40
0.7374798648
40
0.9890333076
40
1.0000000000
40
1.0000000000
40
1.0000000000
40
1.0000000000
10
63.7342596334
20
114.2613516546
30
0.0000000000
10
63.6955180926
20
114.2613516546
30
0.0000000000
10
63.6185447058
20
114.2768032768
30
0.0000000000
10
63.5225657428
20
114.3411061464
30
0.0000000000
10
63.4573445941
20
114.4362240848
30
0.0000000000
10
63.4404550803
20
114.5132554549
30
0.0000000000
10
63.4401457753
20
114.5537757150
30
0.0000000000
10
63.4401476433
20
114.5554686491
30
0.0000000000
11
63.7342596334
21
114.2613516546
31
0.0000000000
11
63.6203262279
21
114.2843155820
31
0.0000000000
11
63.5271515950
21
114.3466360180
31
0.0000000000
11
63.4648103567
21
114.4375623487
31
0.0000000000
11
63.4401864710
21
114.5503907797
31
0.0000000000
11
63.4401476433
21
114.5554686491
31
0.0000000000
0
SPLINE
5
51F
100
AcDbEntity
8
0
100
AcDbSpline
62
7
6
CONTINUOUS
70
0
71
3
72
11
73
7
74
5
42
0.0000001000
43
0.0000001000
44
0.0000000001
40
0.0000000000
40
0.0000000000
40
0.0000000000
40
0.0000000000
40
0.2554095685
40
0.5150452118
40
0.7810121160
40
1.0000000000
40
1.0000000000
40
1.0000000000
40
1.0000000000
10
63.7342596334
20
105.0064700546
30
0.0000000000
10
63.6952158132
20
105.0064700546
30
0.0000000000
10
63.6155895151
20
104.9903807650
30
0.0000000000
10
63.5147677179
20
104.9205591588
30
0.0000000000
10
63.4531167379
20
104.8210351806
30
0.0000000000
10
63.4402059275
20
104.7459783855
30
0.0000000000
10
63.4401624519
20
104.7123530312
30
0.0000000000
11
63.7342596334
21
105.0064700546
31
0.0000000000
11
63.6194738101
21
104.9831463788
31
0.0000000000
11
63.5215222547
21
104.9154481490
31
0.0000000000
11
63.4574210822
21
104.8116768998
31
0.0000000000
11
63.4401624519
21
104.7123530312
31
0.0000000000
0
SPLINE
5
520
100
AcDbEntity
8
0
100
AcDbSpline
6
CONTINUOUS
70
0
71
3
72
14
73
10
74
8
42
0.0000001000
43
0.0000001000
44
0.0000000001
40
0.0000000000
40
0.0000000000
40
0.0000000000
40
0.0000000000
40
0.0456302041
40
0.1313047989
40
0.2619983759
40
0.4281932798
40
0.6147563034
40
0.8079239815
40
1.0000000000
40
1.0000000000
40
1.0000000000
40
1.0000000000
10
183.0800803880
20
101.8200102638
30
0.0000000000
10
183.0800546624
20
101.8731559877
30
0.0000000000
10
182.9596980012
20
102.0031202722
30
0.0000000000
10
182.6808647397
20
102.1099146460
30
0.0000000000
10
182.2475497214
20
102.2304149848
30
0.0000000000
10
181.6934308112
20
102.3263079374
30
0.0000000000
10
181.0621276119
20
102.4062361510
30
0.0000000000
10
180.3986902923
20
102.4647003412
30
0.0000000000
10
179.9507573847
20
102.4920229144
30
0.0000000000
10
179.7273146385
20
102.5029937440
30
0.0000000000
11
183.0800803880
21
101.8200102638
31
0.0000000000
11
182.9940624384
21
101.9542530662
31
0.0000000000
11
182.7264557801
21
102.0884217407
31
0.0000000000
11
182.2869835060
21
102.2125226222
31
0.0000000000
11
181.7159761425
21
102.3182008693
31
0.0000000000
11
181.0694116451
21
102.4012211465
31
0.0000000000
11
180.3971836245
21
102.4617782015
31
0.0000000000
11
179.7273146385
21
102.5029937440
31
0.0000000000
0
SPLINE
5
521
100
AcDbEntity
8
0
100
AcDbSpline
6
CONTINUOUS
70
0
71
3
72
12
73
8
74
6
42
0.0000001000
43
0.0000001000
44
0.0000000001
40
0.0000000000
40
0.0000000000
40
0.0000000000
40
0.0000000000
40
0.1707398693
40
0.3692179162
40
0.5822944502
40
0.7967906495
40
1.0000000000
40
1.0000000000
40
1.0000000000
40
1.0000000000
10
179.7273146385
20
102.5029937440
30
0.0000000000
10
179.6380941760
20
102.5072028052
30
0.0000000000
10
179.4454883063
20
102.5234253648
30
0.0000000000
10
179.1434977167
20
102.5638942573
30
0.0000000000
10
178.8205358656
20
102.6185379126
30
0.0000000000
10
178.4963764663
20
102.6803069168
30
0.0000000000
10
178.2820997048
20
102.7231412970
30
0.0000000000
10
178.1778618231
20
102.7440059729
30
0.0000000000
11
179.7273146385
21
102.5029937440
31
0.0000000000
11
179.4601979894
21
102.5242248494
31
0.0000000000
11
179.1513320501
21
102.5645819492
31
0.0000000000
11
178.8214775079
21
102.6195439488
31
0.0000000000
11
178.4906769934
21
102.6819213098
31
0.0000000000
11
178.1778618231
21
102.7440059729
31
0.0000000000
0
SPLINE
5
522
100
AcDbEntity
8
0
100
AcDbSpline
6
CONTINUOUS
70
0
71
3
72
11
73
7
74
5
42
0.0000001000
43
0.0000001000
44
0.0000000001
40
0.0000000000
40
0.0000000000
40
0.0000000000
40
0.0000000000
40
0.1532377054
40
0.3830080153
40
0.6750125440
40
1.0000000000
40
1.0000000000
40
1.0000000000
40
1.0000000000
10
179.4177713353
20
101.5384323726
30
0.0000000000
10
179.4647648322
20
101.5630416332
30
0.0000000000
10
179.5498646087
20
101.6746967713
30
0.0000000000
10
179.6360847270
20
101.8904014067
30
0.0000000000
10
179.7028376363
20
102.1777139983
30
0.0000000000
10
179.7262390161
20
102.3902789607
30
0.0000000000
10
179.7326287284
20
102.5026001636
30
0.0000000000
11
179.4177713353
21
101.5384323726
31
0.0000000000
11
179.5270689403
21
101.6541046411
31
0.0000000000
11
179.6231878639
21
101.8725124878
31
0.0000000000
11
179.6945845359
21
102.1672427889
31
0.0000000000
11
179.7326287284
21
102.5026001636
31
0.0000000000
0
SPLINE
5
523
100
AcDbEntity
8
0
100
AcDbSpline
6
CONTINUOUS
70
0
71
3
72
12
73
8
74
6
42
0.0000001000
43
0.0000001000
44
0.0000000001
40
0.0000000000
40
0.0000000000
40
0.0000000000
40
0.0000000000
40
0.1392678169
40
0.3218909049
40
0.5395344178
40
0.7728569643
40
1.0000000000
40
1.0000000000
40
1.0000000000
40
1.0000000000
10
179.4172366456
20
101.5385981739
30
0.0000000000
10
179.3397125024
20
101.5622988003
30
0.0000000000
10
179.1729724272
20
101.6548032063
30
0.0000000000
10
178.9343087733
20
101.8596832998
30
0.0000000000
10
178.6816023022
20
102.1290412299
30
0.0000000000
10
178.4279929200
20
102.4315384749
30
0.0000000000
10
178.2607146971
20
102.6409806040
30
0.0000000000
10
178.1777328871
20
102.7439145899
30
0.0000000000
11
179.4172366456
21
101.5385981739
31
0.0000000000
11
179.1999888669
21
101.6479088086
31
0.0000000000
11
178.9534247909
21
101.8501672662
31
0.0000000000
11
178.6904665089
21
102.1245771028
31
0.0000000000
11
178.4269485367
21
102.4353306687
31
0.0000000000
11
178.1777328871
21
102.7439145899
31
0.0000000000
0
SPLINE
5
524
100
AcDbEntity
8
0
100
AcDbSpline
6
CONTINUOUS
70
0
71
3
72
14
73
10
74
8
42
0.0000001000
43
0.0000001000
44
0.0000000001
40
0.0000000000
40
0.0000000000
40
0.0000000000
40
0.0000000000
40
0.0531082384
40
0.1423907541
40
0.2742230890
40
0.4398728225
40
0.6248018424
40
0.8157373340
40
1.0000000000
40
1.0000000000
40
1.0000000000
40
1.0000000000
10
182.0996903880
20
100.8557266295
30
0.0000000000
10
182.0996479542
20
100.9061609264
30
0.0000000000
10
182.0134799710
20
101.0309602449
30
0.0000000000
10
181.7805850270
20
101.1473369921
30
0.0000000000
10
181.4314489394
20
101.2660738343
30
0.0000000000
10
180.9834170698
20
101.3636398743
30
0.0000000000
10
180.4751453505
20
101.4432256124
30
0.0000000000
10
179.9462464744
20
101.5012211952
30
0.0000000000
10
179.5908816073
20
101.5279230665
30
0.0000000000
10
179.4162226042
20
101.5386043334
30
0.0000000000
11
182.0996903880
21
100.8557266295
31
0.0000000000
11
182.0305349791
21
100.9903004394
31
0.0000000000
11
181.8147963498
21
101.1250475077
31
0.0000000000
11
181.4604557701
21
101.2495718729
31
0.0000000000
11
181.0005493124
21
101.3554141033
31
0.0000000000
11
180.4802703006
21
101.4383913925
31
0.0000000000
11
179.9396647363
21
101.4987665918
31
0.0000000000
11
179.4162226042
21
101.5386043334
31
0.0000000000
0
SPLINE
5
525
100
AcDbEntity
8
0
100
AcDbSpline
6
CONTINUOUS
70
0
71
3
72
11
73
7
74
5
42
0.0000001000
43
0.0000001000
44
0.0000000001
40
0.0000000000
40
0.0000000000
40
0.0000000000
40
0.0000000000
40
0.2519072974
40
0.5027021574
40
0.7519139492
40
1.0000000000
40
1.0000000000
40
1.0000000000
40
1.0000000000
10
182.0996903880
20
100.8557266295
30
0.0000000000
10
182.2271197130
20
100.8557266317
30
0.0000000000
10
182.4841362246
20
100.9056214164
30
0.0000000000
10
182.8099586401
20
101.1196056664
30
0.0000000000
10
183.0287617723
20
101.4401375256
30
0.0000000000
10
183.0800803880
20
101.6945139465
30
0.0000000000
10
183.0800803880
20
101.8200102632
30
0.0000000000
11
182.0996903880
21
100.8557266295
31
0.0000000000
11
182.4748656863
21
100.9291268431
31
0.0000000000
11
182.7929273834
21
101.1381554078
31
0.0000000000
11
183.0054514392
21
101.4509920392
31
0.0000000000
11
183.0800803880
21
101.8200102632
31
0.0000000000
0
SPLINE
5
526
100
AcDbEntity
8
0
100
AcDbSpline
6
CONTINUOUS
70
0
71
3
72
12
73
8
74
6
42
0.0000001000
43
0.0000001000
44
0.0000000001
40
0.0000000000
40
0.0000000000
40
0.0000000000
40
0.0000000000
40
0.2621570224
40
0.5023417563
40
0.7087138367
40
0.8748824171
40
1.0000000000
40
1.0000000000
40
1.0000000000
40
1.0000000000
10
67.9823668839
20
102.7440437156
30
0.0000000000
10
67.8865534378
20
102.6252934030
30
0.0000000000
10
67.7046462856
20
102.3963595927
30
0.0000000000
10
67.4373377564
20
102.0821102277
30
0.0000000000
10
67.1893550423
20
101.8249833442
30
0.0000000000
10
66.9651024466
20
101.6408181395
30
0.0000000000
10
66.8132270469
20
101.5595547173
30
0.0000000000
10
66.7434850916
20
101.5385981639
30
0.0000000000
11
67.9823668839
21
102.7440437156
31
0.0000000000
11
67.6946299032
21
102.3880323273
31
0.0000000000
11
67.4210258655
21
102.0701873170
31
0.0000000000
11
67.1678370777
21
101.8137803375
31
0.0000000000
11
66.9398947303
21
101.6342606484
31
0.0000000000
11
66.7434850916
21
101.5385981639
31
0.0000000000
0
SPLINE
5
527
100
AcDbEntity
8
0
100
AcDbSpline
6
CONTINUOUS
70
0
71
3
72
13
73
9
74
7
42
0.0000001000
43
0.0000001000
44
0.0000000001
40
0.0000000000
40
0.0000000000
40
0.0000000000
40
0.0000000000
40
0.1962056472
40
0.3843739358
40
0.5616208036
40
0.7254630383
40
0.8729021005
40
1.0000000000
40
1.0000000000
40
1.0000000000
40
1.0000000000
10
67.9825533292
20
102.7439562202
30
0.0000000000
10
67.8821962569
20
102.7238649772
30
0.0000000000
10
67.6855683767
20
102.6846288503
30
0.0000000000
10
67.3978396950
20
102.6294597109
30
0.0000000000
10
67.1258776271
20
102.5818552329
30
0.0000000000
10
66.8738424482
20
102.5439149365
30
0.0000000000
10
66.6466785619
20
102.5173642938
30
0.0000000000
10
66.5038298672
20
102.5062194534
30
0.0000000000
10
66.4375960713
20
102.5032761528
30
0.0000000000
11
67.9825533292
21
102.7439562202
31
0.0000000000
11
67.6813802396
21
102.6841936060
31
0.0000000000
11
67.3920954676
21
102.6291897793
31
0.0000000000
11
67.1188006484
21
102.5817809156
31
0.0000000000
11
66.8651830332
21
102.5441154356
31
0.0000000000
11
66.6359688729
21
102.5177136121
31
0.0000000000
11
66.4375960713
21
102.5032761528
31
0.0000000000
0
SPLINE
5
528
100
AcDbEntity
8
0
100
AcDbSpline
6
CONTINUOUS
70
0
71
3
72
14
73
10
74
8
42
0.0000001000
43
0.0000001000
44
0.0000000001
40
0.0000000000
40
0.0000000000
40
0.0000000000
40
0.0000000000
40
0.1888851625
40
0.3776762800
40
0.5605871551
40
0.7253947995
40
0.8573640031
40
0.9469256930
40
1.0000000000
40
1.0000000000
40
1.0000000000
40
1.0000000000
10
66.7410789292
20
101.5386040068
30
0.0000000000
10
66.5622396440
20
101.5275654122
30
0.0000000000
10
66.2049421332
20
101.5003577041
30
0.0000000000
10
65.6762344756
20
101.4419627283
30
0.0000000000
10
65.1732671421
20
101.3628576679
30
0.0000000000
10
64.7282709519
20
101.2658301843
30
0.0000000000
10
64.3799260165
20
101.1473639419
30
0.0000000000
10
64.1468809652
20
101.0309885928
30
0.0000000000
10
64.0607715433
20
100.9060737933
30
0.0000000000
10
64.0607343880
20
100.8557266295
30
0.0000000000
11
66.7410789292
21
101.5386040068
31
0.0000000000
11
66.2051280354
21
101.4973159445
31
0.0000000000
11
65.6712305405
21
101.4372004773
31
0.0000000000
11
65.1572387951
21
101.3549130491
31
0.0000000000
11
64.7001889755
21
101.2496360916
31
0.0000000000
11
64.3458558052
21
101.1251500640
31
0.0000000000
11
64.1296910565
21
100.9901086311
31
0.0000000000
11
64.0607343880
21
100.8557266295
31
0.0000000000
0
SPLINE
5
529
100
AcDbEntity
8
0
100
AcDbSpline
6
CONTINUOUS
70
0
71
3
72
14
73
10
74
8
42
0.0000001000
43
0.0000001000
44
0.0000000001
40
0.0000000000
40
0.0000000000
40
0.0000000000
40
0.0000000000
40
0.1937161531
40
0.3852177849
40
0.5703785545
40
0.7363921964
40
0.8677840699
40
0.9541496465
40
1.0000000000
40
1.0000000000
40
1.0000000000
40
1.0000000000
10
66.4375960713
20
102.5032761528
30
0.0000000000
10
66.2119629892
20
102.4921258338
30
0.0000000000
10
65.7634863082
20
102.4648612938
30
0.0000000000
10
65.1008706605
20
102.4064455191
30
0.0000000000
10
64.4725022076
20
102.3270818725
30
0.0000000000
10
63.9186559456
20
102.2316534911
30
0.0000000000
10
63.4832146837
20
102.1111278944
30
0.0000000000
10
63.2022306037
20
102.0042204434
30
0.0000000000
10
63.0803674594
20
101.8734801480
30
0.0000000000
10
63.0803443880
20
101.8200102638
30
0.0000000000
11
66.4375960713
21
102.5032761528
31
0.0000000000
11
65.7611520409
21
102.4616224619
31
0.0000000000
11
65.0938748642
21
102.4015287864
31
0.0000000000
11
64.4513271155
21
102.3192531792
31
0.0000000000
11
63.8801315903
21
102.2140290873
31
0.0000000000
11
63.4375743289
21
102.0897330712
31
0.0000000000
11
63.1671809178
21
101.9548830874
31
0.0000000000
11
63.0803443880
21
101.8200102638
31
0.0000000000
0
SPLINE
5
52A
100
AcDbEntity
8
0
100
AcDbSpline
6
CONTINUOUS
70
0
71
3
72
11
73
7
74
5
42
0.0000001000
43
0.0000001000
44
0.0000000001
40
0.0000000000
40
0.0000000000
40
0.0000000000
40
0.0000000000
40
0.1529970340
40
0.3827585711
40
0.6748533301
40
1.0000000000
40
1.0000000000
40
1.0000000000
40
1.0000000000
10
66.7321375561
20
101.5379151901
30
0.0000000000
10
66.6853342367
20
101.5626235954
30
0.0000000000
10
66.6007251639
20
101.6743866800
30
0.0000000000
10
66.5150757705
20
101.8900610685
30
0.0000000000
10
66.4488988661
20
102.1773697480
30
0.0000000000
10
66.4258287860
20
102.3898960682
30
0.0000000000
10
66.4196009358
20
102.5021988243
30
0.0000000000
11
66.7321375561
21
101.5379151901
31
0.0000000000
11
66.6234509743
21
101.6536594382
31
0.0000000000
11
66.5279218497
21
101.8721248297
31
0.0000000000
11
66.4571146090
21
102.1668646914
31
0.0000000000
11
66.4196009358
21
102.5021988243
31
0.0000000000
0
SPLINE
5
52B
100
AcDbEntity
8
0
100
AcDbSpline
6
CONTINUOUS
70
0
71
3
72
11
73
7
74
5
42
0.0000001000
43
0.0000001000
44
0.0000000001
40
0.0000000000
40
0.0000000000
40
0.0000000000
40
0.0000000000
40
0.2519098873
40
0.5027052563
40
0.7519159500
40
1.0000000000
40
1.0000000000
40
1.0000000000
40
1.0000000000
10
64.0607343880
20
100.8557266295
30
0.0000000000
10
63.9333037523
20
100.8557266295
30
0.0000000000
10
63.6762855874
20
100.9056222647
30
0.0000000000
10
63.3504632415
20
101.1196085783
30
0.0000000000
10
63.1316622415
20
101.4401401699
30
0.0000000000
10
63.0803443880
20
101.6945149586
30
0.0000000000
10
63.0803443880
20
101.8200102638
30
0.0000000000
11
64.0607343880
21
100.8557266295
31
0.0000000000
11
63.6855553779
21
100.9291283504
31
0.0000000000
11
63.3674939710
21
101.1381587666
31
0.0000000000
11
63.1549721332
21
101.4509948923
31
0.0000000000
11
63.0803443880
21
101.8200102638
31
0.0000000000
0
SPLINE
5
52C
100
AcDbEntity
8
0
100
AcDbSpline
6
CONTINUOUS
70
0
71
3
72
12
73
8
74
6
42
0.0000001000
43
0.0000001000
44
0.0000000001
40
0.0000000000
40
0.0000000000
40
0.0000000000
40
0.0000000000
40
0.2621570224
40
0.5023417563
40
0.7087138367
40
0.8748824171
40
1.0000000000
40
1.0000000000
40
1.0000000000
40
1.0000000000
10
178.1780578921
20
116.5237779936
30
0.0000000000
10
178.2738713382
20
116.6425283061
30
0.0000000000
10
178.4557784903
20
116.8714621164
30
0.0000000000
10
178.7230870195
20
117.1857114814
30
0.0000000000
10
178.9710697336
20
117.4428383650
30
0.0000000000
10
179.1953223293
20
117.6270035697
30
0.0000000000
10
179.3471977291
20
117.7082669919
30
0.0000000000
10
179.4169396844
20
117.7292235453
30
0.0000000000
11
178.1780578921
21
116.5237779936
31
0.0000000000
11
178.4657948728
21
116.8797893819
31
0.0000000000
11
178.7393989104
21
117.1976343922
31
0.0000000000
11
178.9925876982
21
117.4540413717
31
0.0000000000
11
179.2205300456
21
117.6335610607
31
0.0000000000
11
179.4169396844
21
117.7292235453
31
0.0000000000
0
SPLINE
5
52D
100
AcDbEntity
8
0
100
AcDbSpline
6
CONTINUOUS
70
0
71
3
72
13
73
9
74
7
42
0.0000001000
43
0.0000001000
44
0.0000000001
40
0.0000000000
40
0.0000000000
40
0.0000000000
40
0.0000000000
40
0.1962160371
40
0.3843942709
40
0.5616505064
40
0.7255034063
40
0.8729430496
40
1.0000000000
40
1.0000000000
40
1.0000000000
40
1.0000000000
10
178.1778714618
20
116.5238654829
30
0.0000000000
10
178.2782285414
20
116.5439567274
30
0.0000000000
10
178.4748564233
20
116.5831928712
30
0.0000000000
10
178.7625851096
20
116.6383619912
30
0.0000000000
10
179.0345481943
20
116.6859666976
30
0.0000000000
10
179.2865807052
20
116.7239063917
30
0.0000000000
10
179.5137171209
20
116.7504544059
30
0.0000000000
10
179.6565372549
20
116.7615971087
30
0.0000000000
10
179.7227462187
20
116.7645391091
30
0.0000000000
11
178.1778714618
21
116.5238654829
31
0.0000000000
11
178.4790445717
21
116.5836281101
31
0.0000000000
11
178.7683293355
21
116.6386319348
31
0.0000000000
11
179.0416241466
21
116.6860407966
31
0.0000000000
11
179.2952448662
21
116.7237066888
31
0.0000000000
11
179.5244477973
21
116.7501073253
31
0.0000000000
11
179.7227462187
21
116.7645391091
31
0.0000000000
0
SPLINE
5
52E
100
AcDbEntity
8
0
100
AcDbSpline
6
CONTINUOUS
70
0
71
3
72
14
73
10
74
8
42
0.0000001000
43
0.0000001000
44
0.0000000001
40
0.0000000000
40
0.0000000000
40
0.0000000000
40
0.0000000000
40
0.1903686851
40
0.3802258461
40
0.5636436432
40
0.7278749714
40
0.8586608072
40
0.9473407999
40
1.0000000000
40
1.0000000000
40
1.0000000000
40
1.0000000000
10
179.4193609190
20
117.7292177024
30
0.0000000000
10
179.5996081310
20
117.7403428932
30
0.0000000000
10
179.9593219131
20
117.7677751161
30
0.0000000000
10
180.4909019104
20
117.8267054875
30
0.0000000000
10
180.9947492760
20
117.9063517804
30
0.0000000000
10
181.4384844227
20
118.0037344564
30
0.0000000000
10
181.7841968567
20
118.1220199653
30
0.0000000000
10
182.0148971924
20
118.2381340211
30
0.0000000000
10
182.0996482092
20
118.3621407865
30
0.0000000000
10
182.0996903880
20
118.4120950796
30
0.0000000000
11
179.4193609190
21
117.7292177024
31
0.0000000000
11
179.9595256877
21
117.7709006530
31
0.0000000000
11
180.4964212386
21
117.8315914281
31
0.0000000000
11
181.0117755522
21
117.9145526415
31
0.0000000000
11
181.4670842739
21
118.0201174008
31
0.0000000000
11
181.8179856682
21
118.1442294600
31
0.0000000000
11
182.0316278353
21
118.2785795839
31
0.0000000000
11
182.0996903880
21
118.4120950796
31
0.0000000000
0
SPLINE
5
52F
100
AcDbEntity
8
0
100
AcDbSpline
6
CONTINUOUS
70
0
71
3
72
14
73
10
74
8
42
0.0000001000
43
0.0000001000
44
0.0000000001
40
0.0000000000
40
0.0000000000
40
0.0000000000
40
0.0000000000
40
0.1952138016
40
0.3877722590
40
0.5734606498
40
0.7389487043
40
0.8691833821
40
0.9545850466
40
1.0000000000
40
1.0000000000
40
1.0000000000
40
1.0000000000
10
179.7227462187
20
116.7645391091
30
0.0000000000
10
179.9501350811
20
116.7757753718
30
0.0000000000
10
180.4016058272
20
116.8032624757
30
0.0000000000
10
181.0678221686
20
116.8622086203
30
0.0000000000
10
181.6973879856
20
116.9421243851
30
0.0000000000
10
182.2498827966
20
117.0379346746
30
0.0000000000
10
182.6820392383
20
117.1583112030
30
0.0000000000
10
182.9602714166
20
117.2650493103
30
0.0000000000
10
183.0800547119
20
117.3948466780
30
0.0000000000
10
183.0800803880
20
117.4478114454
30
0.0000000000
11
179.7227462187
21
116.7645391091
31
0.0000000000
11
180.4044496549
21
116.8065862267
31
0.0000000000
11
181.0754218342
21
116.8672461982
31
0.0000000000
11
181.7197758021
21
116.9502032778
31
0.0000000000
11
182.2890674524
21
117.0557698228
31
0.0000000000
11
182.7275200875
21
117.1797890474
31
0.0000000000
11
182.9945181388
21
117.3139215401
31
0.0000000000
11
183.0800803880
21
117.4478114454
31
0.0000000000
0
SPLINE
5
530
100
AcDbEntity
8
0
100
AcDbSpline
6
CONTINUOUS
70
0
71
3
72
11
73
7
74
5
42
0.0000001000
43
0.0000001000
44
0.0000000001
40
0.0000000000
40
0.0000000000
40
0.0000000000
40
0.0000000000
40
0.1529967737
40
0.3827581980
40
0.6748530662
40
1.0000000000
40
1.0000000000
40
1.0000000000
40
1.0000000000
10
179.4282872198
20
117.7299065191
30
0.0000000000
10
179.4750906360
20
117.7051984298
30
0.0000000000
10
179.5597000574
20
117.5934355474
30
0.0000000000
10
179.6453496709
20
117.3777612406
30
0.0000000000
10
179.7115268211
20
117.0904523458
30
0.0000000000
10
179.7345969811
20
116.8779257907
30
0.0000000000
10
179.7408248572
20
116.7656228849
30
0.0000000000
11
179.4282872198
21
117.7299065191
31
0.0000000000
11
179.5369740960
21
117.6141628025
31
0.0000000000
11
179.6325035339
21
117.3956975377
31
0.0000000000
11
179.7033110345
21
117.1009574565
31
0.0000000000
11
179.7408248572
21
116.7656228849
31
0.0000000000
0
SPLINE
5
531
100
AcDbEntity
8
0
100
AcDbSpline
6
CONTINUOUS
70
0
71
3
72
11
73
7
74
5
42
0.0000001000
43
0.0000001000
44
0.0000000001
40
0.0000000000
40
0.0000000000
40
0.0000000000
40
0.0000000000
40
0.2519098873
40
0.5027052565
40
0.7519159501
40
1.0000000000
40
1.0000000000
40
1.0000000000
40
1.0000000000
10
182.0996903880
20
118.4120950796
30
0.0000000000
10
182.2271210237
20
118.4120950796
30
0.0000000000
10
182.4841391887
20
118.3621994445
30
0.0000000000
10
182.8099615345
20
118.1482131308
30
0.0000000000
10
183.0287625344
20
117.8276815391
30
0.0000000000
10
183.0800803880
20
117.5733067505
30
0.0000000000
10
183.0800803880
20
117.4478114454
30
0.0000000000
11
182.0996903880
21
118.4120950796
31
0.0000000000
11
182.4748693981
21
118.3386933587
31
0.0000000000
11
182.7929308051
21
118.1296629424
31
0.0000000000
11
183.0054526428
21
117.8168268167
31
0.0000000000
11
183.0800803880
21
117.4478114454
31
0.0000000000
0
SPLINE
5
532
100
AcDbEntity
8
0
100
AcDbSpline
62
7
6
CONTINUOUS
70
0
71
3
72
9
73
5
74
3
42
0.0000001000
43
0.0000001000
44
0.0000000001
40
0.0000000000
40
0.0000000000
40
0.0000000000
40
0.0000000000
40
0.9889433983
40
1.0000000000
40
1.0000000000
40
1.0000000000
40
1.0000000000
10
179.4162226042
20
101.5386043334
30
0.0000000000
10
179.0487644400
20
101.5386043334
30
0.0000000000
10
178.6771980410
20
101.5387783803
30
0.0000000000
10
178.3056316419
20
101.5389524272
30
0.0000000000
10
178.3015233802
20
101.5389543514
30
0.0000000000
11
179.4162226042
21
101.5386043334
31
0.0000000000
11
178.3138481653
21
101.5389485785
31
0.0000000000
11
178.3015233802
21
101.5389543514
31
0.0000000000
0
SPLINE
5
533
100
AcDbEntity
8
0
100
AcDbSpline
62
7
6
CONTINUOUS
70
0
71
3
72
9
73
5
74
3
42
0.0000001000
43
0.0000001000
44
0.0000000001
40
0.0000000000
40
0.0000000000
40
0.0000000000
40
0.0000000000
40
0.5638830934
40
1.0000000000
40
1.0000000000
40
1.0000000000
40
1.0000000000
10
66.7443138435
20
117.7292173415
30
0.0000000000
10
67.1117533958
20
117.7292173415
30
0.0000000000
10
67.7633769853
20
117.7289121116
30
0.0000000000
10
68.4150005748
20
117.7286068817
30
0.0000000000
10
68.6991846513
20
117.7285533923
30
0.0000000000
11
66.7443138435
21
117.7292173415
31
0.0000000000
11
67.8466324465
21
117.7288731136
31
0.0000000000
11
68.6991846513
21
117.7285533923
31
0.0000000000
0
SPLINE
5
534
100
AcDbEntity
8
0
100
AcDbSpline
62
7
6
CONTINUOUS
70
0
71
3
72
11
73
7
74
5
42
0.0000001000
43
0.0000001000
44
0.0000000001
40
0.0000000000
40
0.0000000000
40
0.0000000000
40
0.0000000000
40
0.3826545503
40
0.7070770283
40
0.9238676602
40
1.0000000000
40
1.0000000000
40
1.0000000000
40
1.0000000000
10
111.7248011591
20
126.3985798546
30
0.0000000000
10
111.7226183992
20
126.5236300861
30
0.0000000000
10
111.7185850500
20
126.7547005020
30
0.0000000000
10
111.7133150714
20
127.0566173738
30
0.0000000000
10
111.7097935743
20
127.2583638090
30
0.0000000000
10
111.7081226664
20
127.3540900597
30
0.0000000000
10
111.7076883880
20
127.3789698546
30
0.0000000000
11
111.7248011591
21
126.3985798546
31
0.0000000000
11
111.7182528793
21
126.7737305491
31
0.0000000000
11
111.7127011117
21
127.0917911023
31
0.0000000000
11
111.7089912233
21
127.3043304700
31
0.0000000000
11
111.7076883880
21
127.3789698546
31
0.0000000000
0
SPLINE
5
535
100
AcDbEntity
8
0
100
AcDbSpline
6
CONTINUOUS
70
0
71
3
72
14
73
10
74
8
42
0.0000001000
43
0.0000001000
44
0.0000000001
40
0.0000000000
40
0.0000000000
40
0.0000000000
40
0.0000000000
40
0.0535639887
40
0.1438380672
40
0.2767287052
40
0.4428414275
40
0.6273009417
40
0.8171800201
40
1.0000000000
40
1.0000000000
40
1.0000000000
40
1.0000000000
10
64.0607343880
20
118.4120950796
30
0.0000000000
10
64.0607720111
20
118.3612273024
30
0.0000000000
10
64.1484600235
20
118.2354132958
30
0.0000000000
10
64.3837599431
20
118.1188578844
30
0.0000000000
10
64.7354308947
20
117.9999928905
30
0.0000000000
10
65.1845500383
20
117.9028162421
30
0.0000000000
10
65.6918927347
20
117.8237709592
30
0.0000000000
10
66.2180142789
20
117.7662870458
30
0.0000000000
10
66.5710200700
20
117.7398155592
30
0.0000000000
10
66.7443138435
20
117.7292173415
30
0.0000000000
11
64.0607343880
21
118.4120950796
31
0.0000000000
11
64.1308808494
21
118.2765692018
31
0.0000000000
11
64.3494626598
21
118.1410378315
31
0.0000000000
11
64.7069284261
21
118.0163001570
31
0.0000000000
11
65.1682760048
21
117.9108128030
31
0.0000000000
11
65.6873101104
21
117.8284797631
31
0.0000000000
11
66.2249574253
21
117.7686685541
31
0.0000000000
11
66.7443138435
21
117.7292173415
31
0.0000000000
0
SPLINE
5
536
100
AcDbEntity
8
0
100
AcDbSpline
6
CONTINUOUS
70
0
71
3
72
14
73
10
74
8
42
0.0000001000
43
0.0000001000
44
0.0000000001
40
0.0000000000
40
0.0000000000
40
0.0000000000
40
0.0000000000
40
0.0460825715
40
0.1327769476
40
0.2645599875
40
0.4312210462
40
0.6173055958
40
0.8094058767
40
1.0000000000
40
1.0000000000
40
1.0000000000
40
1.0000000000
10
63.0803443880
20
117.4478114454
30
0.0000000000
10
63.0803676350
20
117.3941357762
30
0.0000000000
10
63.2029235959
20
117.2631693853
30
0.0000000000
10
63.4845457123
20
117.1562476015
30
0.0000000000
10
63.9211127458
20
117.0356215898
30
0.0000000000
10
64.4765503688
20
116.9401183958
30
0.0000000000
10
65.1067019152
20
116.8607400986
30
0.0000000000
10
65.7666772210
20
116.8027969539
30
0.0000000000
10
66.2116743963
20
116.7757025787
30
0.0000000000
10
66.4334059833
20
116.7648168914
30
0.0000000000
11
63.0803443880
21
117.4478114454
31
0.0000000000
11
63.1677006878
21
117.3125392054
31
0.0000000000
11
63.4389242428
21
117.1775988885
31
0.0000000000
11
63.8823230128
21
117.0533012070
31
0.0000000000
11
64.4550892321
21
116.9479954637
31
0.0000000000
11
65.1000893771
21
116.8656284723
31
0.0000000000
11
65.7686623979
21
116.8056399150
31
0.0000000000
11
66.4334059833
21
116.7648168914
31
0.0000000000
0
SPLINE
5
537
100
AcDbEntity
8
0
100
AcDbSpline
6
CONTINUOUS
70
0
71
3
72
11
73
7
74
5
42
0.0000001000
43
0.0000001000
44
0.0000000001
40
0.0000000000
40
0.0000000000
40
0.0000000000
40
0.0000000000
40
0.2519060020
40
0.5027005976
40
0.7519129342
40
1.0000000000
40
1.0000000000
40
1.0000000000
40
1.0000000000
10
64.0607343880
20
118.4120950796
30
0.0000000000
10
63.9333057182
20
118.4120950787
30
0.0000000000
10
63.6762900365
20
118.3622007233
30
0.0000000000
10
63.3504675900
20
118.1482175116
30
0.0000000000
10
63.1316633873
20
117.8276855199
30
0.0000000000
10
63.0803443880
20
117.5733082765
30
0.0000000000
10
63.0803443880
20
117.4478114462
30
0.0000000000
11
64.0607343880
21
118.4120950796
31
0.0000000000
11
63.6855609441
21
118.3386956245
31
0.0000000000
11
63.3674991115
21
118.1296679961
31
0.0000000000
11
63.1549739456
21
117.8168311189
31
0.0000000000
11
63.0803443880
21
117.4478114462
31
0.0000000000
0
SPLINE
5
538
100
AcDbEntity
8
0
100
AcDbSpline
6
CONTINUOUS
70
0
71
3
72
12
73
8
74
6
42
0.0000001000
43
0.0000001000
44
0.0000000001
40
0.0000000000
40
0.0000000000
40
0.0000000000
40
0.0000000000
40
0.1727137374
40
0.3733412633
40
0.5875322752
40
0.8009895809
40
1.0000000000
40
1.0000000000
40
1.0000000000
40
1.0000000000
10
66.4334059833
20
116.7648168914
30
0.0000000000
10
66.5236393136
20
116.7605536360
30
0.0000000000
10
66.7183511135
20
116.7440575034
30
0.0000000000
10
67.0229675418
20
116.7030190654
30
0.0000000000
10
67.3469766345
20
116.6479893843
30
0.0000000000
10
67.6689323930
20
116.5865378656
30
0.0000000000
10
67.8804791700
20
116.5442483450
30
0.0000000000
10
67.9825426624
20
116.5238197436
30
0.0000000000
11
66.4334059833
21
116.7648168914
31
0.0000000000
11
66.7035476422
21
116.7432403441
31
0.0000000000
11
67.0156678851
21
116.7022451202
31
0.0000000000
11
67.3471462677
21
116.6468015023
31
0.0000000000
11
67.6762569567
21
116.5846278388
31
0.0000000000
11
67.9825426624
21
116.5238197436
31
0.0000000000
0
SPLINE
5
539
100
AcDbEntity
8
0
100
AcDbSpline
6
CONTINUOUS
70
0
71
3
72
11
73
7
74
5
42
0.0000001000
43
0.0000001000
44
0.0000000001
40
0.0000000000
40
0.0000000000
40
0.0000000000
40
0.0000000000
40
0.1532021324
40
0.3829665304
40
0.6749855311
40
1.0000000000
40
1.0000000000
40
1.0000000000
40
1.0000000000
10
66.7426465298
20
117.7293922288
30
0.0000000000
10
66.6956754938
20
117.7047766495
30
0.0000000000
10
66.6106399305
20
117.5931048721
30
0.0000000000
10
66.5244932619
20
117.3774078920
30
0.0000000000
10
66.4578044127
20
117.0900936478
30
0.0000000000
10
66.4344337216
20
116.8775307244
30
0.0000000000
10
66.4280567275
20
116.7652093120
30
0.0000000000
11
66.7426465298
21
117.7293922288
31
0.0000000000
11
66.6334266878
21
117.6137165147
31
0.0000000000
11
66.5373834334
21
117.3953049415
31
0.0000000000
11
66.4660523900
21
117.1005706412
31
0.0000000000
11
66.4280567275
21
116.7652093120
31
0.0000000000
0
SPLINE
5
53A
100
AcDbEntity
8
0
100
AcDbSpline
6
CONTINUOUS
70
0
71
3
72
12
73
8
74
6
42
0.0000001000
43
0.0000001000
44
0.0000000001
40
0.0000000000
40
0.0000000000
40
0.0000000000
40
0.0000000000
40
0.1409611890
40
0.3259082790
40
0.5450856165
40
0.7774980546
40
1.0000000000
40
1.0000000000
40
1.0000000000
40
1.0000000000
10
66.7431788077
20
117.7292235389
30
0.0000000000
10
66.8216394921
20
117.7052200527
30
0.0000000000
10
66.9903072218
20
117.6111950222
30
0.0000000000
10
67.2308630718
20
117.4035887772
30
0.0000000000
10
67.4842630200
20
117.1325453778
30
0.0000000000
10
67.7361319579
20
116.8316566642
30
0.0000000000
10
67.9013966530
20
116.6247485971
30
0.0000000000
10
67.9826620708
20
116.5239040724
30
0.0000000000
11
66.7431788077
21
117.7292235389
31
0.0000000000
11
66.9628965244
21
117.6182535335
31
0.0000000000
11
67.2120979783
21
117.4128222290
31
0.0000000000
11
67.4763933652
21
117.1359947243
31
0.0000000000
11
67.7386054664
21
116.8262276578
31
0.0000000000
11
67.9826620708
21
116.5239040724
31
0.0000000000
0
SPLINE
5
53B
100
AcDbEntity
8
0
100
AcDbSpline
6
CONTINUOUS
70
0
71
3
72
9
73
5
74
3
42
0.0000001000
43
0.0000001000
44
0.0000000001
40
0.0000000000
40
0.0000000000
40
0.0000000000
40
0.0000000000
40
0.4517049594
40
1.0000000000
40
1.0000000000
40
1.0000000000
40
1.0000000000
10
64.0851268557
20
114.2613516546
30
0.0000000000
10
64.0797876030
20
114.2613516546
30
0.0000000000
10
64.0882206487
20
114.2817513287
30
0.0000000000
10
64.0850937094
20
114.2903310760
30
0.0000000000
10
64.0851268557
20
114.2968119600
30
0.0000000000
11
64.0851268557
21
114.2613516546
31
0.0000000000
11
64.0850474312
21
114.2773692157
31
0.0000000000
11
64.0851268557
21
114.2968119600
31
0.0000000000
0
SPLINE
5
53C
100
AcDbEntity
8
0
100
AcDbSpline
6
CONTINUOUS
70
0
71
3
72
9
73
5
74
3
42
0.0000001000
43
0.0000001000
44
0.0000000001
40
0.0000000000
40
0.0000000000
40
0.0000000000
40
0.0000000000
40
0.4961308653
40
1.0000000000
40
1.0000000000
40
1.0000000000
40
1.0000000000
10
64.0851268557
20
114.2968119600
30
0.0000000000
10
64.0799415147
20
114.2968124616
30
0.0000000000
10
64.0694885462
20
114.2974502921
30
0.0000000000
10
64.0591756432
20
114.2996340460
30
0.0000000000
10
64.0542157977
20
114.3014040701
30
0.0000000000
11
64.0851268557
21
114.2968119600
31
0.0000000000
11
64.0696039106
21
114.2978258790
31
0.0000000000
11
64.0542157977
21
114.3014040701
31
0.0000000000
0
SPLINE
5
53D
100
AcDbEntity
8
0
100
AcDbSpline
62
7
6
CONTINUOUS
70
0
71
3
72
9
73
5
74
3
42
0.0000001000
43
0.0000001000
44
0.0000000001
40
0.0000000000
40
0.0000000000
40
0.0000000000
40
0.0000000000
40
0.4667997008
40
1.0000000000
40
1.0000000000
40
1.0000000000
40
1.0000000000
10
64.0851268557
20
114.2613516546
30
0.0000000000
10
64.0722807188
20
114.2614503715
30
0.0000000000
10
64.0447927538
20
114.2637934671
30
0.0000000000
10
64.0177470318
20
114.2699928957
30
0.0000000000
10
64.0039989390
20
114.2751225077
30
0.0000000000
11
64.0851268557
21
114.2613516546
31
0.0000000000
11
64.0467143367
21
114.2644781867
31
0.0000000000
11
64.0039989390
21
114.2751225077
31
0.0000000000
0
SPLINE
5
53E
100
AcDbEntity
8
0
100
AcDbSpline
6
CONTINUOUS
70
0
71
3
72
8
73
4
74
2
42
0.0000001000
43
0.0000001000
44
0.0000000001
40
0.0000000000
40
0.0000000000
40
0.0000000000
40
0.0000000000
40
1.0000000000
40
1.0000000000
40
1.0000000000
40
1.0000000000
10
64.0039989390
20
114.2751225077
30
0.0000000000
10
63.9868046217
20
114.2814440030
30
0.0000000000
10
63.9703138723
20
114.2898702613
30
0.0000000000
10
63.9548213985
20
114.2999554654
30
0.0000000000
11
64.0039989390
21
114.2751225077
31
0.0000000000
11
63.9548213985
21
114.2999554654
31
0.0000000000
0
SPLINE
5
53F
100
AcDbEntity
8
0
100
AcDbSpline
6
CONTINUOUS
70
0
71
3
72
9
73
5
74
3
42
0.0000001000
43
0.0000001000
44
0.0000000001
40
0.0000000000
40
0.0000000000
40
0.0000000000
40
0.0000000000
40
0.4902207500
40
1.0000000000
40
1.0000000000
40
1.0000000000
40
1.0000000000
10
63.9548213985
20
114.2999554654
30
0.0000000000
10
63.9388716822
20
114.3103383228
30
0.0000000000
10
63.9084942548
20
114.3351050669
30
0.0000000000
10
63.8838578034
20
114.3651641986
30
0.0000000000
10
63.8728489690
20
114.3815254955
30
0.0000000000
11
63.9548213985
21
114.2999554654
31
0.0000000000
11
63.9104680423
21
114.3358925140
31
0.0000000000
11
63.8728489690
21
114.3815254955
31
0.0000000000
0
SPLINE
5
540
100
AcDbEntity
8
0
100
AcDbSpline
6
CONTINUOUS
70
0
71
3
72
9
73
5
74
3
42
0.0000001000
43
0.0000001000
44
0.0000000001
40
0.0000000000
40
0.0000000000
40
0.0000000000
40
0.0000000000
40
0.3286696098
40
1.0000000000
40
1.0000000000
40
1.0000000000
40
1.0000000000
10
63.8728489690
20
114.3815254955
30
0.0000000000
10
63.8615170464
20
114.3983669651
30
0.0000000000
10
63.8320367662
20
114.4529538562
30
0.0000000000
10
63.8183523218
20
114.5143114481
30
0.0000000000
10
63.8158045187
20
114.5554686546
30
0.0000000000
11
63.8728489690
21
114.3815254955
31
0.0000000000
11
63.8438448269
21
114.4349804658
31
0.0000000000
11
63.8158045187
21
114.5554686546
31
0.0000000000
0
SPLINE
5
541
100
AcDbEntity
8
0
100
AcDbSpline
6
CONTINUOUS
70
0
71
3
72
10
73
6
74
4
42
0.0000001000
43
0.0000001000
44
0.0000000001
40
0.0000000000
40
0.0000000000
40
0.0000000000
40
0.0000000000
40
0.2830868974
40
0.6139776204
40
1.0000000000
40
1.0000000000
40
1.0000000000
40
1.0000000000
10
64.0039957748
20
114.2751107448
30
0.0000000000
10
64.0094262573
20
114.2754250443
30
0.0000000000
10
64.0210931003
20
114.2783062901
30
0.0000000000
10
64.0380595972
20
114.2875920407
30
0.0000000000
10
64.0487903315
20
114.2963417678
30
0.0000000000
10
64.0542236477
20
114.3013913537
30
0.0000000000
11
64.0039957748
21
114.2751107448
31
0.0000000000
11
64.0199190404
21
114.2786814501
31
0.0000000000
11
64.0368189865
21
114.2875258945
31
0.0000000000
11
64.0542236477
21
114.3013913537
31
0.0000000000
0
SPLINE
5
542
100
AcDbEntity
8
0
100
AcDbSpline
6
CONTINUOUS
70
0
71
3
72
8
73
4
74
2
42
0.0000001000
43
0.0000001000
44
0.0000000001
40
0.0000000000
40
0.0000000000
40
0.0000000000
40
0.0000000000
40
1.0000000000
40
1.0000000000
40
1.0000000000
40
1.0000000000
10
64.0542236477
20
114.3013913537
30
0.0000000000
10
64.0357316334
20
114.3071134903
30
0.0000000000
10
64.0177502378
20
114.3146563293
30
0.0000000000
10
64.0005041641
20
114.3237032106
30
0.0000000000
11
64.0542236477
21
114.3013913537
31
0.0000000000
11
64.0005041641
21
114.3237032106
31
0.0000000000
0
SPLINE
5
543
100
AcDbEntity
8
0
100
AcDbSpline
6
CONTINUOUS
70
0
71
3
72
8
73
4
74
2
42
0.0000001000
43
0.0000001000
44
0.0000000001
40
0.0000000000
40
0.0000000000
40
0.0000000000
40
0.0000000000
40
1.0000000000
40
1.0000000000
40
1.0000000000
40
1.0000000000
10
64.0005041641
20
114.3237032106
30
0.0000000000
10
63.9826648037
20
114.3330613161
30
0.0000000000
10
63.9656122274
20
114.3440287259
30
0.0000000000
10
63.9495951354
20
114.3562549623
30
0.0000000000
11
64.0005041641
21
114.3237032106
31
0.0000000000
11
63.9495951354
21
114.3562549623
31
0.0000000000
0
SPLINE
5
544
100
AcDbEntity
8
0
100
AcDbSpline
6
CONTINUOUS
70
0
71
3
72
8
73
4
74
2
42
0.0000001000
43
0.0000001000
44
0.0000000001
40
0.0000000000
40
0.0000000000
40
0.0000000000
40
0.0000000000
40
1.0000000000
40
1.0000000000
40
1.0000000000
40
1.0000000000
10
63.9495951354
20
114.3562549623
30
0.0000000000
10
63.9332027110
20
114.3687676991
30
0.0000000000
10
63.9178948691
20
114.3825989507
30
0.0000000000
10
63.9038069445
20
114.3975794214
30
0.0000000000
11
63.9495951354
21
114.3562549623
31
0.0000000000
11
63.9038069445
21
114.3975794214
31
0.0000000000
0
SPLINE
5
545
100
AcDbEntity
8
0
100
AcDbSpline
6
CONTINUOUS
70
0
71
3
72
9
73
5
74
3
42
0.0000001000
43
0.0000001000
44
0.0000000001
40
0.0000000000
40
0.0000000000
40
0.0000000000
40
0.0000000000
40
0.3377107487
40
1.0000000000
40
1.0000000000
40
1.0000000000
40
1.0000000000
10
63.9038069445
20
114.3975794214
30
0.0000000000
10
63.8897354146
20
114.4125424587
30
0.0000000000
10
63.8516719229
20
114.4602447700
30
0.0000000000
10
63.8254625278
20
114.5165209811
30
0.0000000000
10
63.8157949519
20
114.5554802161
30
0.0000000000
11
63.9038069445
21
114.3975794214
31
0.0000000000
11
63.8653784566
21
114.4457394661
31
0.0000000000
11
63.8157949519
21
114.5554802161
31
0.0000000000
0
SPLINE
5
546
100
AcDbEntity
8
0
100
AcDbSpline
6
CONTINUOUS
70
0
71
3
72
9
73
5
74
3
42
0.0000001000
43
0.0000001000
44
0.0000000001
40
0.0000000000
40
0.0000000000
40
0.0000000000
40
0.0000000000
40
0.5481196579
40
1.0000000000
40
1.0000000000
40
1.0000000000
40
1.0000000000
10
64.0851268557
20
104.9710097491
30
0.0000000000
10
64.0850766712
20
104.9774885334
30
0.0000000000
10
64.0881472094
20
104.9860694615
30
0.0000000000
10
64.0797882133
20
105.0064700546
30
0.0000000000
10
64.0851296074
20
105.0064700546
30
0.0000000000
11
64.0851268557
21
104.9710097491
31
0.0000000000
11
64.0850088820
21
104.9904463271
31
0.0000000000
11
64.0851296074
21
105.0064700546
31
0.0000000000
0
SPLINE
5
547
100
AcDbEntity
8
0
100
AcDbSpline
6
CONTINUOUS
70
0
71
3
72
9
73
5
74
3
42
0.0000001000
43
0.0000001000
44
0.0000000001
40
0.0000000000
40
0.0000000000
40
0.0000000000
40
0.0000000000
40
0.4963306817
40
1.0000000000
40
1.0000000000
40
1.0000000000
40
1.0000000000
10
64.0851268557
20
104.9710097491
30
0.0000000000
10
64.0799391047
20
104.9710143717
30
0.0000000000
10
64.0694808127
20
104.9704231411
30
0.0000000000
10
64.0591737055
20
104.9681965832
30
0.0000000000
10
64.0542186859
20
104.9664182977
30
0.0000000000
11
64.0851268557
21
104.9710097491
31
0.0000000000
11
64.0695948058
21
104.9700246266
31
0.0000000000
11
64.0542186859
21
104.9664182977
31
0.0000000000
0
SPLINE
5
548
100
AcDbEntity
8
0
100
AcDbSpline
6
CONTINUOUS
70
0
71
3
72
8
73
4
74
2
42
0.0000001000
43
0.0000001000
44
0.0000000001
40
0.0000000000
40
0.0000000000
40
0.0000000000
40
0.0000000000
40
1.0000000000
40
1.0000000000
40
1.0000000000
40
1.0000000000
10
64.0542236224
20
104.9664302737
30
0.0000000000
10
64.0357610354
20
104.9607162504
30
0.0000000000
10
64.0178084835
20
104.9531864421
30
0.0000000000
10
64.0005884214
20
104.9441570403
30
0.0000000000
11
64.0542236224
21
104.9664302737
31
0.0000000000
11
64.0005884214
21
104.9441570403
31
0.0000000000
0
SPLINE
5
549
100
AcDbEntity
8
0
100
AcDbSpline
6
CONTINUOUS
70
0
71
3
72
8
73
4
74
2
42
0.0000001000
43
0.0000001000
44
0.0000000001
40
0.0000000000
40
0.0000000000
40
0.0000000000
40
0.0000000000
40
1.0000000000
40
1.0000000000
40
1.0000000000
40
1.0000000000
10
64.0005884214
20
104.9441570403
30
0.0000000000
10
63.9827451413
20
104.9348008518
30
0.0000000000
10
63.9656883300
20
104.9238345608
30
0.0000000000
10
63.9496654797
20
104.9116099465
30
0.0000000000
11
64.0005884214
21
104.9441570403
31
0.0000000000
11
63.9496654797
21
104.9116099465
31
0.0000000000
0
SPLINE
5
54A
100
AcDbEntity
8
0
100
AcDbSpline
6
CONTINUOUS
70
0
71
3
72
8
73
4
74
2
42
0.0000001000
43
0.0000001000
44
0.0000000001
40
0.0000000000
40
0.0000000000
40
0.0000000000
40
0.0000000000
40
1.0000000000
40
1.0000000000
40
1.0000000000
40
1.0000000000
10
63.9496654797
20
104.9116099465
30
0.0000000000
10
63.9332321158
20
104.8990721314
30
0.0000000000
10
63.9178863729
20
104.8852106893
30
0.0000000000
10
63.9037663623
20
104.8701951217
30
0.0000000000
11
63.9496654797
21
104.9116099465
31
0.0000000000
11
63.9037663623
21
104.8701951217
31
0.0000000000
0
SPLINE
5
54B
100
AcDbEntity
8
0
100
AcDbSpline
6
CONTINUOUS
70
0
71
3
72
9
73
5
74
3
42
0.0000001000
43
0.0000001000
44
0.0000000001
40
0.0000000000
40
0.0000000000
40
0.0000000000
40
0.0000000000
40
0.3383821343
40
1.0000000000
40
1.0000000000
40
1.0000000000
40
1.0000000000
10
63.9037663623
20
104.8701951217
30
0.0000000000
10
63.8896716604
20
104.8552064681
30
0.0000000000
10
63.8516278090
20
104.8075129177
30
0.0000000000
10
63.8254501850
20
104.7512483741
30
0.0000000000
10
63.8157949321
20
104.7123416024
30
0.0000000000
11
63.9037663623
21
104.8701951217
31
0.0000000000
11
63.8652836534
21
104.8219477775
31
0.0000000000
11
63.8157949321
21
104.7123416024
31
0.0000000000
0
SPLINE
5
54C
100
AcDbEntity
8
0
100
AcDbSpline
6
CONTINUOUS
70
0
71
3
72
10
73
6
74
4
42
0.0000001000
43
0.0000001000
44
0.0000000001
40
0.0000000000
40
0.0000000000
40
0.0000000000
40
0.0000000000
40
0.4471675061
40
0.8304897987
40
1.0000000000
40
1.0000000000
40
1.0000000000
40
1.0000000000
10
64.0542236224
20
104.9664302737
30
0.0000000000
10
64.0487902204
20
104.9714798761
30
0.0000000000
10
64.0380590930
20
104.9802297681
30
0.0000000000
10
64.0234124374
20
104.9882461066
30
0.0000000000
10
64.0145599668
20
104.9909731997
30
0.0000000000
10
64.0118042466
20
104.9915918730
30
0.0000000000
11
64.0542236224
21
104.9664302737
31
0.0000000000
11
64.0368187378
21
104.9802958087
31
0.0000000000
11
64.0199176654
21
104.9891405696
31
0.0000000000
11
64.0118042466
21
104.9915918730
31
0.0000000000
0
SPLINE
5
54D
100
AcDbEntity
8
0
100
AcDbSpline
6
CONTINUOUS
70
0
71
3
72
8
73
4
74
2
42
0.0000001000
43
0.0000001000
44
0.0000000001
40
0.0000000000
40
0.0000000000
40
0.0000000000
40
0.0000000000
40
1.0000000000
40
1.0000000000
40
1.0000000000
40
1.0000000000
10
64.0118042466
20
104.9915918730
30
0.0000000000
10
64.0092295611
20
104.9921699030
30
0.0000000000
10
64.0066187675
20
104.9925580613
30
0.0000000000
10
64.0039960467
20
104.9927096551
30
0.0000000000
11
64.0118042466
21
104.9915918730
31
0.0000000000
11
64.0039960467
21
104.9927096551
31
0.0000000000
0
SPLINE
5
54E
100
AcDbEntity
8
0
100
AcDbSpline
6
CONTINUOUS
70
0
71
3
72
8
73
4
74
2
42
0.0000001000
43
0.0000001000
44
0.0000000001
40
0.0000000000
40
0.0000000000
40
0.0000000000
40
0.0000000000
40
1.0000000000
40
1.0000000000
40
1.0000000000
40
1.0000000000
10
64.0039988662
20
104.9926991748
30
0.0000000000
10
63.9868327085
20
104.9863880929
30
0.0000000000
10
63.9703680863
20
104.9779792050
30
0.0000000000
10
63.9548980390
20
104.9679159984
30
0.0000000000
11
64.0039988662
21
104.9926991748
31
0.0000000000
11
63.9548980390
21
104.9679159984
31
0.0000000000
0
SPLINE
5
54F
100
AcDbEntity
8
0
100
AcDbSpline
6
CONTINUOUS
70
0
71
3
72
9
73
5
74
3
42
0.0000001000
43
0.0000001000
44
0.0000000001
40
0.0000000000
40
0.0000000000
40
0.0000000000
40
0.0000000000
40
0.4896246713
40
1.0000000000
40
1.0000000000
40
1.0000000000
40
1.0000000000
10
63.9548980390
20
104.9679159984
30
0.0000000000
10
63.9389468609
20
104.9575398181
30
0.0000000000
10
63.9085280977
20
104.9327555270
30
0.0000000000
10
63.8838600870
20
104.9026625903
30
0.0000000000
10
63.8728279285
20
104.8862615744
30
0.0000000000
11
63.9548980390
21
104.9679159984
31
0.0000000000
11
63.9105379483
21
104.9319971634
31
0.0000000000
11
63.8728279285
21
104.8862615744
31
0.0000000000
0
SPLINE
5
550
100
AcDbEntity
8
0
100
AcDbSpline
6
CONTINUOUS
70
0
71
3
72
9
73
5
74
3
42
0.0000001000
43
0.0000001000
44
0.0000000001
40
0.0000000000
40
0.0000000000
40
0.0000000000
40
0.0000000000
40
0.3294648347
40
1.0000000000
40
1.0000000000
40
1.0000000000
40
1.0000000000
10
63.8728279285
20
104.8862615744
30
0.0000000000
10
63.8614730356
20
104.8693807637
30
0.0000000000
10
63.8320172926
20
104.8147922057
30
0.0000000000
10
63.8183655510
20
104.7534513099
30
0.0000000000
10
63.8158045126
20
104.7123530546
30
0.0000000000
11
63.8728279285
21
104.8862615744
31
0.0000000000
11
63.8437792507
21
104.8326777967
31
0.0000000000
11
63.8158045126
21
104.7123530546
31
0.0000000000
0
SPLINE
5
551
100
AcDbEntity
8
0
100
AcDbSpline
6
CONTINUOUS
70
0
71
3
72
10
73
6
74
4
42
0.0000001000
43
0.0000001000
44
0.0000000001
40
0.0000000000
40
0.0000000000
40
0.0000000000
40
0.0000000000
40
0.4120812006
40
0.8112781999
40
1.0000000000
40
1.0000000000
40
1.0000000000
40
1.0000000000
10
182.3446208421
20
104.7123530546
30
0.0000000000
10
182.3420636231
20
104.7534520785
30
0.0000000000
10
182.3240380326
20
104.8344299785
30
0.0000000000
10
182.2678745830
20
104.9197384266
30
0.0000000000
10
182.2214753793
20
104.9575426908
30
0.0000000000
10
182.2055237803
20
104.9679187951
30
0.0000000000
11
182.3446208421
21
104.7123530546
31
0.0000000000
11
182.3166467022
21
104.8326795677
31
0.0000000000
11
182.2498849957
21
104.9319997978
31
0.0000000000
11
182.2055237803
21
104.9679187951
31
0.0000000000
0
SPLINE
5
552
100
AcDbEntity
8
0
100
AcDbSpline
6
CONTINUOUS
70
0
71
3
72
8
73
4
74
2
42
0.0000001000
43
0.0000001000
44
0.0000000001
40
0.0000000000
40
0.0000000000
40
0.0000000000
40
0.0000000000
40
1.0000000000
40
1.0000000000
40
1.0000000000
40
1.0000000000
10
182.2055237803
20
104.9679187951
30
0.0000000000
10
182.1900533200
20
104.9779819310
30
0.0000000000
10
182.1735882239
20
104.9863905254
30
0.0000000000
10
182.1564214823
20
104.9927008011
30
0.0000000000
11
182.2055237803
21
104.9679187951
31
0.0000000000
11
182.1564214823
21
104.9927008011
31
0.0000000000
0
SPLINE
5
553
100
AcDbEntity
8
0
100
AcDbSpline
6
CONTINUOUS
70
0
71
3
72
10
73
6
74
4
42
0.0000001000
43
0.0000001000
44
0.0000000001
40
0.0000000000
40
0.0000000000
40
0.0000000000
40
0.0000000000
40
0.3962292620
40
0.8020050519
40
1.0000000000
40
1.0000000000
40
1.0000000000
40
1.0000000000
10
182.3446292563
20
104.7123504063
30
0.0000000000
10
182.3349779189
20
104.7512501041
30
0.0000000000
10
182.2999271734
20
104.8265832116
30
0.0000000000
10
182.2297003753
20
104.9013562988
30
0.0000000000
10
182.1776832493
20
104.9347996109
30
0.0000000000
10
182.1598386779
20
104.9441564023
30
0.0000000000
11
182.3446292563
21
104.7123504063
31
0.0000000000
11
182.2951523659
21
104.8219362199
31
0.0000000000
11
182.2107651558
21
104.9116069662
31
0.0000000000
11
182.1598386779
21
104.9441564023
31
0.0000000000
0
SPLINE
5
554
100
AcDbEntity
8
0
100
AcDbSpline
6
CONTINUOUS
70
0
71
3
72
8
73
4
74
2
42
0.0000001000
43
0.0000001000
44
0.0000000001
40
0.0000000000
40
0.0000000000
40
0.0000000000
40
0.0000000000
40
1.0000000000
40
1.0000000000
40
1.0000000000
40
1.0000000000
10
182.1598386779
20
104.9441564023
30
0.0000000000
10
182.1426173946
20
104.9531863728
30
0.0000000000
10
182.1246635389
20
104.9607165733
30
0.0000000000
10
182.1061996220
20
104.9664307696
30
0.0000000000
11
182.1598386779
21
104.9441564023
31
0.0000000000
11
182.1061996220
21
104.9664307696
31
0.0000000000
0
SPLINE
5
555
100
AcDbEntity
8
0
100
AcDbSpline
6
CONTINUOUS
70
0
71
3
72
10
73
6
74
4
42
0.0000001000
43
0.0000001000
44
0.0000000001
40
0.0000000000
40
0.0000000000
40
0.0000000000
40
0.0000000000
40
0.4485088474
40
0.8310878651
40
1.0000000000
40
1.0000000000
40
1.0000000000
40
1.0000000000
10
182.1061996203
20
104.9664199506
30
0.0000000000
10
182.1115824477
20
104.9714324191
30
0.0000000000
10
182.1222207385
20
104.9800734824
30
0.0000000000
10
182.1368129530
20
104.9878247411
30
0.0000000000
10
182.1456235527
20
104.9902820037
30
0.0000000000
10
182.1483578010
20
104.9908060879
30
0.0000000000
11
182.1061996203
21
104.9664199506
31
0.0000000000
11
182.1234983583
21
104.9801185165
31
0.0000000000
11
182.1402980740
21
104.9886062734
31
0.0000000000
11
182.1483578010
21
104.9908060879
31
0.0000000000
0
SPLINE
5
556
100
AcDbEntity
8
0
100
AcDbSpline
6
CONTINUOUS
70
0
71
3
72
8
73
4
74
2
42
0.0000001000
43
0.0000001000
44
0.0000000001
40
0.0000000000
40
0.0000000000
40
0.0000000000
40
0.0000000000
40
1.0000000000
40
1.0000000000
40
1.0000000000
40
1.0000000000
10
182.1483578010
20
104.9908060879
30
0.0000000000
10
182.1509195847
20
104.9912971151
30
0.0000000000
10
182.1535127200
20
104.9915875303
30
0.0000000000
10
182.1561077032
20
104.9916296015
30
0.0000000000
11
182.1483578010
21
104.9908060879
31
0.0000000000
11
182.1561077032
21
104.9916296015
31
0.0000000000
0
SPLINE
5
557
100
AcDbEntity
8
0
100
AcDbSpline
6
CONTINUOUS
70
0
71
3
72
9
73
5
74
3
42
0.0000001000
43
0.0000001000
44
0.0000000001
40
0.0000000000
40
0.0000000000
40
0.0000000000
40
0.0000000000
40
0.5279950711
40
1.0000000000
40
1.0000000000
40
1.0000000000
40
1.0000000000
10
182.1564214823
20
104.9927008011
30
0.0000000000
10
182.1428461178
20
104.9978954135
30
0.0000000000
10
182.1158124264
20
105.0042497833
30
0.0000000000
10
182.0882918334
20
105.0064843821
30
0.0000000000
10
182.0752979202
20
105.0064700546
30
0.0000000000
11
182.1564214823
21
104.9927008011
31
0.0000000000
11
182.1141630683
21
105.0034570605
31
0.0000000000
11
182.0752979202
21
105.0064700546
31
0.0000000000
0
SPLINE
5
558
100
AcDbEntity
8
0
100
AcDbSpline
6
CONTINUOUS
70
0
71
3
72
9
73
5
74
3
42
0.0000001000
43
0.0000001000
44
0.0000000001
40
0.0000000000
40
0.0000000000
40
0.0000000000
40
0.0000000000
40
0.5036686672
40
1.0000000000
40
1.0000000000
40
1.0000000000
40
1.0000000000
10
182.1062045617
20
104.9664188391
30
0.0000000000
10
182.1012497619
20
104.9681969156
30
0.0000000000
10
182.0909431639
20
104.9704231919
30
0.0000000000
10
182.0804854113
20
104.9710143893
30
0.0000000000
10
182.0752979202
20
104.9710097491
30
0.0000000000
11
182.1062045617
21
104.9664188391
31
0.0000000000
11
182.0908291957
21
104.9700247366
31
0.0000000000
11
182.0752979202
21
104.9710097491
31
0.0000000000
0
SPLINE
5
559
100
AcDbEntity
8
0
100
AcDbSpline
62
7
6
CONTINUOUS
70
0
71
3
72
11
73
7
74
5
42
0.0000001000
43
0.0000001000
44
0.0000000001
40
0.0000000000
40
0.0000000000
40
0.0000000000
40
0.0000000000
40
0.1996169529
40
0.4428885321
40
0.7100588451
40
1.0000000000
40
1.0000000000
40
1.0000000000
40
1.0000000000
10
66.5967073905
20
115.7434659778
30
0.0000000000
10
66.6006700384
20
115.7363148371
30
0.0000000000
10
66.6174099332
20
115.7258368858
30
0.0000000000
10
66.6456425646
20
115.7198582867
30
0.0000000000
10
66.6784249347
20
115.7167659890
30
0.0000000000
10
66.7012271296
20
115.7163468627
30
0.0000000000
10
66.7131021724
20
115.7163468627
30
0.0000000000
11
66.5967073905
21
115.7434659778
31
0.0000000000
11
66.6159366080
21
115.7282406790
31
0.0000000000
11
66.6448311526
21
115.7205877769
31
0.0000000000
11
66.6774885592
21
115.7172525878
31
0.0000000000
11
66.7131021724
21
115.7163468627
31
0.0000000000
0
SPLINE
5
55A
100
AcDbEntity
8
0
100
AcDbSpline
6
CONTINUOUS
70
0
71
3
72
9
73
5
74
3
42
0.0000001000
43
0.0000001000
44
0.0000000001
40
0.0000000000
40
0.0000000000
40
0.0000000000
40
0.0000000000
40
0.5482266664
40
1.0000000000
40
1.0000000000
40
1.0000000000
40
1.0000000000
10
182.0752979202
20
114.2968119600
30
0.0000000000
10
182.0753949256
20
114.2903320394
30
0.0000000000
10
182.0724807799
20
114.2817511059
30
0.0000000000
10
182.0806349384
20
114.2613516546
30
0.0000000000
10
182.0752944770
20
114.2613516546
30
0.0000000000
11
182.0752979202
21
114.2968119600
31
0.0000000000
11
182.0755263071
21
114.2773713615
31
0.0000000000
11
182.0752944770
21
114.2613516546
31
0.0000000000
0
SPLINE
5
55B
100
AcDbEntity
8
0
100
AcDbSpline
6
CONTINUOUS
70
0
71
3
72
9
73
5
74
3
42
0.0000001000
43
0.0000001000
44
0.0000000001
40
0.0000000000
40
0.0000000000
40
0.0000000000
40
0.0000000000
40
0.5116821540
40
1.0000000000
40
1.0000000000
40
1.0000000000
40
1.0000000000
10
182.0752979202
20
114.2613516546
30
0.0000000000
10
182.0893853234
20
114.2613474420
30
0.0000000000
10
182.1169182304
20
114.2637262875
30
0.0000000000
10
182.1438852301
20
114.2702645085
30
0.0000000000
10
182.1564215830
20
114.2751209451
30
0.0000000000
11
182.0752979202
21
114.2613516546
31
0.0000000000
11
182.1174133526
21
114.2648708696
31
0.0000000000
11
182.1564215830
21
114.2751209451
31
0.0000000000
0
SPLINE
5
55C
100
AcDbEntity
8
0
100
AcDbSpline
6
CONTINUOUS
70
0
71
3
72
9
73
5
74
3
42
0.0000001000
43
0.0000001000
44
0.0000000001
40
0.0000000000
40
0.0000000000
40
0.0000000000
40
0.0000000000
40
0.5420445665
40
1.0000000000
40
1.0000000000
40
1.0000000000
40
1.0000000000
10
182.0752979202
20
114.2968119600
30
0.0000000000
10
182.0809633783
20
114.2968041825
30
0.0000000000
10
182.0914306957
20
114.2974518086
30
0.0000000000
10
182.1017000372
20
114.2997809601
30
0.0000000000
10
182.1062035083
20
114.3014026632
30
0.0000000000
11
182.0752979202
21
114.2968119600
31
0.0000000000
11
182.0922527156
21
114.2980003198
31
0.0000000000
11
182.1062035083
21
114.3014026632
31
0.0000000000
0
SPLINE
5
55D
100
AcDbEntity
8
0
100
AcDbSpline
6
CONTINUOUS
70
0
71
3
72
8
73
4
74
2
42
0.0000001000
43
0.0000001000
44
0.0000000001
40
0.0000000000
40
0.0000000000
40
0.0000000000
40
0.0000000000
40
1.0000000000
40
1.0000000000
40
1.0000000000
40
1.0000000000
10
182.1061996568
20
114.3013898403
30
0.0000000000
10
182.1246429208
20
114.3070973616
30
0.0000000000
10
182.1425770348
20
114.3146170732
30
0.0000000000
10
182.1597804306
20
114.3236336436
30
0.0000000000
11
182.1061996568
21
114.3013898403
31
0.0000000000
11
182.1597804306
21
114.3236336436
31
0.0000000000
0
SPLINE
5
55E
100
AcDbEntity
8
0
100
AcDbSpline
6
CONTINUOUS
70
0
71
3
72
8
73
4
74
2
42
0.0000001000
43
0.0000001000
44
0.0000000001
40
0.0000000000
40
0.0000000000
40
0.0000000000
40
0.0000000000
40
1.0000000000
40
1.0000000000
40
1.0000000000
40
1.0000000000
10
182.1597804306
20
114.3236336436
30
0.0000000000
10
182.1776256203
20
114.3329865883
30
0.0000000000
10
182.1946845542
20
114.3439501596
30
0.0000000000
10
182.2107099299
20
114.3561724016
30
0.0000000000
11
182.1597804306
21
114.3236336436
31
0.0000000000
11
182.2107099299
21
114.3561724016
31
0.0000000000
0
SPLINE
5
55F
100
AcDbEntity
8
0
100
AcDbSpline
6
CONTINUOUS
70
0
71
3
72
8
73
4
74
2
42
0.0000001000
43
0.0000001000
44
0.0000000001
40
0.0000000000
40
0.0000000000
40
0.0000000000
40
0.0000000000
40
1.0000000000
40
1.0000000000
40
1.0000000000
40
1.0000000000
10
182.2107099299
20
114.3561724016
30
0.0000000000
10
182.2271742092
20
114.3687293868
30
0.0000000000
10
182.2425475408
20
114.3826149320
30
0.0000000000
10
182.2566908340
20
114.3976584222
30
0.0000000000
11
182.2107099299
21
114.3561724016
31
0.0000000000
11
182.2566908340
21
114.3976584222
31
0.0000000000
0
SPLINE
5
560
100
AcDbEntity
8
0
100
AcDbSpline
6
CONTINUOUS
70
0
71
3
72
9
73
5
74
3
42
0.0000001000
43
0.0000001000
44
0.0000000001
40
0.0000000000
40
0.0000000000
40
0.0000000000
40
0.0000000000
40
0.3390033987
40
1.0000000000
40
1.0000000000
40
1.0000000000
40
1.0000000000
10
182.2566908340
20
114.3976584222
30
0.0000000000
10
182.2708060409
20
114.4126720384
30
0.0000000000
10
182.3088294030
20
114.4603617275
30
0.0000000000
10
182.3349890125
20
114.5166114725
30
0.0000000000
10
182.3446293135
20
114.5554713694
30
0.0000000000
11
182.2566908340
21
114.3976584222
31
0.0000000000
11
182.2952227172
21
114.4459897217
31
0.0000000000
11
182.3446293135
21
114.5554713694
31
0.0000000000
0
SPLINE
5
561
100
AcDbEntity
8
0
100
AcDbSpline
6
CONTINUOUS
70
0
71
3
72
10
73
6
74
4
42
0.0000001000
43
0.0000001000
44
0.0000000001
40
0.0000000000
40
0.0000000000
40
0.0000000000
40
0.0000000000
40
0.4471708623
40
0.8304944631
40
1.0000000000
40
1.0000000000
40
1.0000000000
40
1.0000000000
10
182.1061996568
20
114.3013898403
30
0.0000000000
10
182.1116328017
20
114.2963400828
30
0.0000000000
10
182.1223634090
20
114.2875898766
30
0.0000000000
10
182.1370093349
20
114.2795728073
30
0.0000000000
10
182.1458615173
20
114.2768455269
30
0.0000000000
10
182.1486170976
20
114.2762268171
30
0.0000000000
11
182.1061996568
21
114.3013898403
31
0.0000000000
11
182.1236037425
21
114.2875237006
31
0.0000000000
11
182.1405041242
21
114.2786782470
31
0.0000000000
11
182.1486170976
21
114.2762268171
31
0.0000000000
0
SPLINE
5
562
100
AcDbEntity
8
0
100
AcDbSpline
6
CONTINUOUS
70
0
71
3
72
8
73
4
74
2
42
0.0000001000
43
0.0000001000
44
0.0000000001
40
0.0000000000
40
0.0000000000
40
0.0000000000
40
0.0000000000
40
1.0000000000
40
1.0000000000
40
1.0000000000
40
1.0000000000
10
182.1486170976
20
114.2762268171
30
0.0000000000
10
182.1511916177
20
114.2756487608
30
0.0000000000
10
182.1538022507
20
114.2752605737
30
0.0000000000
10
182.1564248123
20
114.2751089402
30
0.0000000000
11
182.1486170976
21
114.2762268171
31
0.0000000000
11
182.1564248123
21
114.2751089402
31
0.0000000000
0
SPLINE
5
563
100
AcDbEntity
8
0
100
AcDbSpline
6
CONTINUOUS
70
0
71
3
72
8
73
4
74
2
42
0.0000001000
43
0.0000001000
44
0.0000000001
40
0.0000000000
40
0.0000000000
40
0.0000000000
40
0.0000000000
40
1.0000000000
40
1.0000000000
40
1.0000000000
40
1.0000000000
10
182.1564215830
20
114.2751209451
30
0.0000000000
10
182.1735688791
20
114.2814245014
30
0.0000000000
10
182.1900160895
20
114.2898212253
30
0.0000000000
10
182.2054712662
20
114.2998691467
30
0.0000000000
11
182.1564215830
21
114.2751209451
31
0.0000000000
11
182.2054712662
21
114.2998691467
31
0.0000000000
0
SPLINE
5
564
100
AcDbEntity
8
0
100
AcDbSpline
6
CONTINUOUS
70
0
71
3
72
9
73
5
74
3
42
0.0000001000
43
0.0000001000
44
0.0000000001
40
0.0000000000
40
0.0000000000
40
0.0000000000
40
0.0000000000
40
0.4892092396
40
1.0000000000
40
1.0000000000
40
1.0000000000
40
1.0000000000
10
182.2054712662
20
114.2998691467
30
0.0000000000
10
182.2214242322
20
114.3102406973
30
0.0000000000
10
182.2518733693
20
114.3350375028
30
0.0000000000
10
182.2765644837
20
114.3651542952
30
0.0000000000
10
182.2876136085
20
114.3815832729
30
0.0000000000
11
182.2054712662
21
114.2998691467
31
0.0000000000
11
182.2498381879
21
114.3357755595
31
0.0000000000
11
182.2876136085
21
114.3815832729
31
0.0000000000
0
SPLINE
5
565
100
AcDbEntity
8
0
100
AcDbSpline
6
CONTINUOUS
70
0
71
3
72
9
73
5
74
3
42
0.0000001000
43
0.0000001000
44
0.0000000001
40
0.0000000000
40
0.0000000000
40
0.0000000000
40
0.0000000000
40
0.3300211615
40
1.0000000000
40
1.0000000000
40
1.0000000000
40
1.0000000000
10
182.2876136085
20
114.3815832729
30
0.0000000000
10
182.2989849533
20
114.3984913605
30
0.0000000000
10
182.3284254690
20
114.4530804652
30
0.0000000000
10
182.3420611760
20
114.5144107408
30
0.0000000000
10
182.3446208516
20
114.5554686546
30
0.0000000000
11
182.2876136085
21
114.3815832729
31
0.0000000000
11
182.3166955753
21
114.4352566877
31
0.0000000000
11
182.3446208516
21
114.5554686546
31
0.0000000000
0
SPLINE
5
566
100
AcDbEntity
8
0
100
AcDbSpline
62
7
6
CONTINUOUS
70
0
71
3
72
11
73
7
74
5
42
0.0000001000
43
0.0000001000
44
0.0000000001
40
0.0000000000
40
0.0000000000
40
0.0000000000
40
0.0000000000
40
0.1995537153
40
0.4428446546
40
0.7100360630
40
1.0000000000
40
1.0000000000
40
1.0000000000
40
1.0000000000
10
66.5967166376
20
103.5243614985
30
0.0000000000
10
66.6006772555
20
103.5315100010
30
0.0000000000
10
66.6174139302
20
103.5419863936
30
0.0000000000
10
66.6456434378
20
103.5479632724
30
0.0000000000
10
66.6784255263
20
103.5510557979
30
0.0000000000
10
66.7012275743
20
103.5514748465
30
0.0000000000
10
66.7131025310
20
103.5514748465
30
0.0000000000
11
66.5967166376
21
103.5243614985
31
0.0000000000
11
66.6159375790
21
103.5395813426
31
0.0000000000
11
66.6448319887
21
103.5472340240
31
0.0000000000
11
66.6774891760
21
103.5505691387
31
0.0000000000
11
66.7131025310
21
103.5514748465
31
0.0000000000
0
SPLINE
5
567
100
AcDbEntity
8
0
100
AcDbSpline
62
7
6
CONTINUOUS
70
0
71
3
72
11
73
7
74
5
42
0.0000001000
43
0.0000001000
44
0.0000000001
40
0.0000000000
40
0.0000000000
40
0.0000000000
40
0.0000000000
40
0.1997113724
40
0.4429568478
40
0.7100957767
40
1.0000000000
40
1.0000000000
40
1.0000000000
40
1.0000000000
10
179.5637469605
20
103.5243572905
30
0.0000000000
10
179.5597783193
20
103.5315095921
30
0.0000000000
10
179.5430366922
20
103.5419867207
30
0.0000000000
10
179.5148012072
20
103.5479646757
30
0.0000000000
10
179.4820227515
20
103.5510558368
30
0.0000000000
10
179.4592231292
20
103.5514748465
30
0.0000000000
10
179.4473495199
20
103.5514748465
30
0.0000000000
11
179.5637469605
21
103.5243572905
31
0.0000000000
11
179.5445048902
21
103.5395853076
31
0.0000000000
11
179.5156127030
21
103.5472353601
31
0.0000000000
11
179.4829588391
21
103.5505694347
31
0.0000000000
11
179.4473495199
21
103.5514748465
31
0.0000000000
0
SPLINE
5
568
100
AcDbEntity
8
0
100
AcDbSpline
62
7
6
CONTINUOUS
70
0
71
3
72
11
73
7
74
5
42
0.0000001000
43
0.0000001000
44
0.0000000001
40
0.0000000000
40
0.0000000000
40
0.0000000000
40
0.0000000000
40
0.1995616105
40
0.4428528293
40
0.7100417090
40
1.0000000000
40
1.0000000000
40
1.0000000000
40
1.0000000000
10
179.5637277834
20
115.7434492421
30
0.0000000000
10
179.5597637924
20
115.7363032225
30
0.0000000000
10
179.5430275552
20
115.7258326236
30
0.0000000000
10
179.5148004089
20
115.7198570815
30
0.0000000000
10
179.4820220906
20
115.7167658144
30
0.0000000000
10
179.4592227684
20
115.7163468627
30
0.0000000000
10
179.4473492919
20
115.7163468627
30
0.0000000000
11
179.5637277834
21
115.7434492421
31
0.0000000000
11
179.5445037100
21
115.7282359459
31
0.0000000000
11
179.5156117354
21
115.7205862150
31
0.0000000000
11
179.4829582133
21
115.7172522492
31
0.0000000000
11
179.4473492919
21
115.7163468627
31
0.0000000000
0
SPLINE
5
569
100
AcDbEntity
8
0
100
AcDbSpline
6
CONTINUOUS
70
0
71
3
72
12
73
8
74
6
42
0.0000001000
43
0.0000001000
44
0.0000000001
40
0.0000000000
40
0.0000000000
40
0.0000000000
40
0.0000000000
40
0.2037771991
40
0.4068806783
40
0.6081836997
40
0.8061563594
40
1.0000000000
40
1.0000000000
40
1.0000000000
40
1.0000000000
10
179.4473827769
20
103.5514748465
30
0.0000000000
10
179.6513304191
20
103.5923769767
30
0.0000000000
10
180.0547655174
20
103.6946841004
30
0.0000000000
10
180.6378574070
20
103.9113894695
30
0.0000000000
10
181.1862691861
20
104.1931504168
30
0.0000000000
10
181.6847377793
20
104.5400914183
30
0.0000000000
10
181.9758441834
20
104.8175623114
30
0.0000000000
10
182.1062045617
20
104.9664188391
30
0.0000000000
11
179.4473827769
21
103.5514748465
31
0.0000000000
11
180.0520872078
21
103.7055565663
31
0.0000000000
11
180.6346533875
21
103.9233974120
31
0.0000000000
11
181.1821977324
21
104.2066025451
31
0.0000000000
11
181.6784597939
21
104.5548325659
31
0.0000000000
11
182.1062045617
21
104.9664188391
31
0.0000000000
0
SPLINE
5
56A
100
AcDbEntity
8
0
100
AcDbSpline
62
7
6
CONTINUOUS
70
0
71
3
72
10
73
6
74
4
42
0.0000001000
43
0.0000001000
44
0.0000000001
40
0.0000000000
40
0.0000000000
40
0.0000000000
40
0.0000000000
40
0.3079910113
40
0.6475666201
40
1.0000000000
40
1.0000000000
40
1.0000000000
40
1.0000000000
10
179.5637430229
20
103.5243605077
30
0.0000000000
10
179.5740352411
20
103.5058082348
30
0.0000000000
10
179.5935200981
20
103.4655916644
30
0.0000000000
10
179.6184103035
20
103.4013108301
30
0.0000000000
10
179.6327176667
20
103.3557906313
30
0.0000000000
10
179.6391034940
20
103.3323681735
30
0.0000000000
11
179.5637430229
21
103.5243605077
31
0.0000000000
11
179.5918081445
21
103.4672343474
31
0.0000000000
11
179.6173878969
21
103.4018875645
31
0.0000000000
11
179.6391034940
21
103.3323681735
31
0.0000000000
0
SPLINE
5
56B
100
AcDbEntity
8
0
100
AcDbSpline
6
CONTINUOUS
70
0
71
3
72
12
73
8
74
6
42
0.0000001000
43
0.0000001000
44
0.0000000001
40
0.0000000000
40
0.0000000000
40
0.0000000000
40
0.0000000000
40
0.2057029963
40
0.4101642564
40
0.6117942963
40
0.8088939186
40
1.0000000000
40
1.0000000000
40
1.0000000000
40
1.0000000000
10
179.6393218821
20
103.3324570086
30
0.0000000000
10
179.8462758020
20
103.3749729340
30
0.0000000000
10
180.2553297402
20
103.4787988366
30
0.0000000000
10
180.8470852304
20
103.6933594518
30
0.0000000000
10
181.4040309855
20
103.9680409900
30
0.0000000000
10
181.9110718063
20
104.3026297202
30
0.0000000000
10
182.2100428777
20
104.5694574243
30
0.0000000000
10
182.3446091478
20
104.7123530546
30
0.0000000000
11
179.6393218821
21
103.3324570086
31
0.0000000000
11
180.2534683650
21
103.4891792386
31
0.0000000000
11
180.8453031242
21
103.7051278378
31
0.0000000000
11
181.4017189887
21
103.9815110597
31
0.0000000000
11
181.9072681691
21
104.3180460062
31
0.0000000000
11
182.3446091478
21
104.7123530546
31
0.0000000000
0
SPLINE
5
56C
100
AcDbEntity
8
0
100
AcDbSpline
6
CONTINUOUS
70
0
71
3
72
10
73
6
74
4
42
0.0000001000
43
0.0000001000
44
0.0000000001
40
0.0000000000
40
0.0000000000
40
0.0000000000
40
0.0000000000
40
0.3279780878
40
0.6729843740
40
1.0000000000
40
1.0000000000
40
1.0000000000
40
1.0000000000
10
178.1778618231
20
102.7440059729
30
0.0000000000
10
178.3365864507
20
102.8109364494
30
0.0000000000
10
178.6621760487
20
102.9485150910
30
0.0000000000
10
179.1480759727
20
103.1479312678
30
0.0000000000
10
179.4777261300
20
103.2742667113
30
0.0000000000
10
179.6393218821
20
103.3324570086
30
0.0000000000
11
178.1778618231
21
102.7440059729
31
0.0000000000
11
178.6542735212
21
102.9442324912
31
0.0000000000
11
179.1576385740
21
103.1494956169
31
0.0000000000
11
179.6393218821
21
103.3324570086
31
0.0000000000
0
SPLINE
5
56D
100
AcDbEntity
8
0
100
AcDbSpline
6
CONTINUOUS
70
0
71
3
72
10
73
6
74
4
42
0.0000001000
43
0.0000001000
44
0.0000000001
40
0.0000000000
40
0.0000000000
40
0.0000000000
40
0.0000000000
40
0.3299143014
40
0.6755499148
40
1.0000000000
40
1.0000000000
40
1.0000000000
40
1.0000000000
10
178.1777328871
20
102.7439145899
30
0.0000000000
10
178.3284017905
20
102.8328399929
30
0.0000000000
10
178.6367291093
20
103.0152565983
30
0.0000000000
10
179.0966297136
20
103.2793260917
30
0.0000000000
10
179.4099951261
20
103.4471323222
30
0.0000000000
10
179.5637469605
20
103.5243572905
30
0.0000000000
11
178.1777328871
21
102.7439145899
31
0.0000000000
11
178.6301162548
21
103.0100515855
31
0.0000000000
11
179.1077544821
21
103.2824879860
31
0.0000000000
11
179.5637469605
21
103.5243572905
31
0.0000000000
0
SPLINE
5
56E
100
AcDbEntity
8
0
100
AcDbSpline
62
7
6
CONTINUOUS
70
0
71
3
72
8
73
4
74
2
42
0.0000001000
43
0.0000001000
44
0.0000000001
40
0.0000000000
40
0.0000000000
40
0.0000000000
40
0.0000000000
40
1.0000000000
40
1.0000000000
40
1.0000000000
40
1.0000000000
10
182.6973162970
20
114.5554686546
30
0.0000000000
10
182.6970680551
20
114.5176978535
30
0.0000000000
10
182.6901745282
20
114.4796755464
30
0.0000000000
10
182.6768035268
20
114.4440259267
30
0.0000000000
11
182.6973162970
21
114.5554686546
31
0.0000000000
11
182.6768035268
21
114.4440259267
31
0.0000000000
0
SPLINE
5
56F
100
AcDbEntity
8
0
100
AcDbSpline
62
7
6
CONTINUOUS
70
0
71
3
72
10
73
6
74
4
42
0.0000001000
43
0.0000001000
44
0.0000000001
40
0.0000000000
40
0.0000000000
40
0.0000000000
40
0.0000000000
40
0.3584046148
40
0.6895258017
40
1.0000000000
40
1.0000000000
40
1.0000000000
40
1.0000000000
10
182.6768035268
20
114.4440259267
30
0.0000000000
10
182.6629350567
20
114.4070499610
30
0.0000000000
10
182.6228474579
20
114.3408235496
30
0.0000000000
10
182.5308987267
20
114.2763244961
30
0.0000000000
10
182.4601028201
20
114.2613516546
30
0.0000000000
10
182.4261651425
20
114.2613516546
30
0.0000000000
11
182.6768035268
21
114.4440259267
31
0.0000000000
11
182.6149625375
21
114.3440801124
31
0.0000000000
11
182.5258568018
21
114.2820269230
31
0.0000000000
11
182.4261651425
21
114.2613516546
31
0.0000000000
0
SPLINE
5
570
100
AcDbEntity
8
0
100
AcDbSpline
6
CONTINUOUS
70
0
71
3
72
11
73
7
74
5
42
0.0000001000
43
0.0000001000
44
0.0000000001
40
0.0000000000
40
0.0000000000
40
0.0000000000
40
0.0000000000
40
0.2402431566
40
0.4888703227
40
0.7431264974
40
1.0000000000
40
1.0000000000
40
1.0000000000
40
1.0000000000
10
182.3446998528
20
114.5554686546
30
0.0000000000
10
182.1756076755
20
114.7350323758
30
0.0000000000
10
181.7909424123
20
115.0633182811
30
0.0000000000
10
181.1310668376
20
115.4520087506
30
0.0000000000
10
180.4064476741
20
115.7470394225
30
0.0000000000
10
179.8978982107
20
115.8822299270
30
0.0000000000
10
179.6395713058
20
115.9352998483
30
0.0000000000
11
182.3446998528
21
114.5554686546
31
0.0000000000
11
181.7856001367
21
115.0401594398
31
0.0000000000
11
181.1279795062
21
115.4325038311
31
0.0000000000
11
180.4037330311
21
115.7303615292
31
0.0000000000
11
179.6395713058
21
115.9352998483
31
0.0000000000
0
SPLINE
5
571
100
AcDbEntity
8
0
100
AcDbSpline
62
7
6
CONTINUOUS
70
0
71
3
72
10
73
6
74
4
42
0.0000001000
43
0.0000001000
44
0.0000000001
40
0.0000000000
40
0.0000000000
40
0.0000000000
40
0.0000000000
40
0.3079919070
40
0.6475688143
40
1.0000000000
40
1.0000000000
40
1.0000000000
40
1.0000000000
10
179.5637419505
20
115.7434604185
30
0.0000000000
10
179.5740365339
20
115.7620117004
30
0.0000000000
10
179.5935192828
20
115.8022297592
30
0.0000000000
10
179.6184269184
20
115.8665049312
30
0.0000000000
10
179.6327177000
20
115.9120309694
30
0.0000000000
10
179.6391039174
20
115.9354534244
30
0.0000000000
11
179.5637419505
21
115.7434604185
31
0.0000000000
11
179.5918104664
21
115.8005858508
31
0.0000000000
11
179.6173974755
21
115.8659308602
31
0.0000000000
11
179.6391039174
21
115.9354534244
31
0.0000000000
0
SPLINE
5
572
100
AcDbEntity
8
0
100
AcDbSpline
6
CONTINUOUS
70
0
71
3
72
12
73
8
74
6
42
0.0000001000
43
0.0000001000
44
0.0000000001
40
0.0000000000
40
0.0000000000
40
0.0000000000
40
0.0000000000
40
0.1938406516
40
0.3918140140
40
0.5931177824
40
0.7962220135
40
1.0000000000
40
1.0000000000
40
1.0000000000
40
1.0000000000
10
182.1062035083
20
114.3014026632
30
0.0000000000
10
181.9758451453
20
114.4502568666
30
0.0000000000
10
181.6847417857
20
114.7277273689
30
0.0000000000
10
181.1862747676
20
115.0746679601
30
0.0000000000
10
180.6378614255
20
115.3564305450
30
0.0000000000
10
180.0547675583
20
115.5731371549
30
0.0000000000
10
179.6513309725
20
115.6754446418
30
0.0000000000
10
179.4473825558
20
115.7163468627
30
0.0000000000
11
182.1062035083
21
114.3014026632
31
0.0000000000
11
181.6784664787
21
114.7129836681
31
0.0000000000
11
181.1822033511
21
115.0612157812
31
0.0000000000
11
180.6346573530
21
115.3444225260
31
0.0000000000
11
180.0520892444
21
115.5622645604
31
0.0000000000
11
179.4473825558
21
115.7163468627
31
0.0000000000
0
SPLINE
5
573
100
AcDbEntity
8
0
100
AcDbSpline
6
CONTINUOUS
70
0
71
3
72
11
73
7
74
5
42
0.0000001000
43
0.0000001000
44
0.0000000001
40
0.0000000000
40
0.0000000000
40
0.0000000000
40
0.0000000000
40
0.2480635314
40
0.5076587033
40
0.7630482047
40
1.0000000000
40
1.0000000000
40
1.0000000000
40
1.0000000000
10
179.5637277834
20
115.7434492421
30
0.0000000000
10
179.4462014370
20
115.8024848027
30
0.0000000000
10
179.2081242241
20
115.9281662344
30
0.0000000000
10
178.8553976955
20
116.1263330061
30
0.0000000000
10
178.5109129424
20
116.3270154831
30
0.0000000000
10
178.2862308768
20
116.4598929828
30
0.0000000000
10
178.1780578921
20
116.5237779936
30
0.0000000000
11
179.5637277834
21
115.7434492421
31
0.0000000000
11
179.2143457207
21
115.9267820812
31
0.0000000000
11
178.8539939846
21
116.1283652400
31
0.0000000000
11
178.5027013308
21
116.3323339004
31
0.0000000000
11
178.1780578921
21
116.5237779936
31
0.0000000000
0
SPLINE
5
574
100
AcDbEntity
8
0
100
AcDbSpline
6
CONTINUOUS
70
0
71
3
72
11
73
7
74
5
42
0.0000001000
43
0.0000001000
44
0.0000000001
40
0.0000000000
40
0.0000000000
40
0.0000000000
40
0.0000000000
40
0.2505481452
40
0.5101998598
40
0.7643285405
40
1.0000000000
40
1.0000000000
40
1.0000000000
40
1.0000000000
10
179.6395713058
20
115.9352998483
30
0.0000000000
10
179.5157418029
20
115.9798952850
30
0.0000000000
10
179.2649864327
20
116.0746145531
30
0.0000000000
10
178.8924125996
20
116.2243107000
30
0.0000000000
10
178.5289517717
20
116.3756200807
30
0.0000000000
10
178.2919336175
20
116.4757375847
30
0.0000000000
10
178.1778714618
20
116.5238654829
30
0.0000000000
11
179.6395713058
21
115.9352998483
31
0.0000000000
11
179.2699568046
21
116.0741796858
31
0.0000000000
11
178.8900462829
21
116.2261850145
31
0.0000000000
11
178.5201404877
21
116.3796776078
31
0.0000000000
11
178.1778714618
21
116.5238654829
31
0.0000000000
0
SPLINE
5
575
100
AcDbEntity
8
0
100
AcDbSpline
62
7
6
CONTINUOUS
70
0
71
3
72
15
73
11
74
9
42
0.0000001000
43
0.0000001000
44
0.0000000001
40
0.0000000000
40
0.0000000000
40
0.0000000000
40
0.0000000000
40
0.0467736703
40
0.1222100749
40
0.2240465600
40
0.3492225093
40
0.4939741283
40
0.6539478140
40
0.8243316314
40
1.0000000000
40
1.0000000000
40
1.0000000000
40
1.0000000000
10
177.0857085282
20
120.3734908330
30
0.0000000000
10
177.0846373788
20
120.3960181256
30
0.0000000000
10
177.0831482791
20
120.4549326022
30
0.0000000000
10
177.0812294931
20
120.5629401467
30
0.0000000000
10
177.0795325082
20
120.7087636045
30
0.0000000000
10
177.0780142506
20
120.8880092252
30
0.0000000000
10
177.0767863380
20
121.0952904242
30
0.0000000000
10
177.0758748574
20
121.3243708376
30
0.0000000000
10
177.0753165814
20
121.5683595593
30
0.0000000000
10
177.0751916380
20
121.7352147040
30
0.0000000000
10
177.0751916380
20
121.8199162844
30
0.0000000000
11
177.0857085282
21
120.3734908330
31
0.0000000000
11
177.0835623413
21
120.4411150176
31
0.0000000000
11
177.0815503972
21
120.5502154187
31
0.0000000000
11
177.0797332149
21
120.6975109440
31
0.0000000000
11
177.0781654607
21
120.8785714852
31
0.0000000000
11
177.0768942999
21
121.0879512108
31
0.0000000000
11
177.0759579802
21
121.3193516590
31
0.0000000000
11
177.0753846757
21
121.5658116166
31
0.0000000000
11
177.0751916380
21
121.8199162844
31
0.0000000000
0
SPLINE
5
576
100
AcDbEntity
8
0
100
AcDbSpline
62
7
6
CONTINUOUS
70
0
71
3
72
11
73
7
74
5
42
0.0000001000
43
0.0000001000
44
0.0000000001
40
0.0000000000
40
0.0000000000
40
0.0000000000
40
0.0000000000
40
0.2352850230
40
0.4850236668
40
0.7510491537
40
1.0000000000
40
1.0000000000
40
1.0000000000
40
1.0000000000
10
63.7342596334
20
114.2613516546
30
0.0000000000
10
63.6996548378
20
114.2613516546
30
0.0000000000
10
63.6276187862
20
114.2768967552
30
0.0000000000
10
63.5353379060
20
114.3431152777
30
0.0000000000
10
63.4767795610
20
114.4426747303
30
0.0000000000
10
63.4633795118
20
114.5188549465
30
0.0000000000
10
63.4631084789
20
114.5554686546
30
0.0000000000
11
63.7342596334
21
114.2613516546
31
0.0000000000
11
63.6326932162
21
114.2828386235
31
0.0000000000
11
63.5429372049
21
114.3467610471
31
0.0000000000
11
63.4824194361
21
114.4473353081
31
0.0000000000
11
63.4631084789
21
114.5554686546
31
0.0000000000
0
SPLINE
5
577
100
AcDbEntity
8
0
100
AcDbSpline
6
CONTINUOUS
70
0
71
3
72
12
73
8
74
6
42
0.0000001000
43
0.0000001000
44
0.0000000001
40
0.0000000000
40
0.0000000000
40
0.0000000000
40
0.0000000000
40
0.2037178119
40
0.4068209174
40
0.6081375194
40
0.8061734893
40
1.0000000000
40
1.0000000000
40
1.0000000000
40
1.0000000000
10
66.7128008822
20
115.7163468627
30
0.0000000000
10
66.5089284989
20
115.6754574895
30
0.0000000000
10
66.1056040415
20
115.5730928478
30
0.0000000000
10
65.5225904850
20
115.3564549011
30
0.0000000000
10
64.9741569656
20
115.0746641230
30
0.0000000000
10
64.4756690136
20
114.7277234475
30
0.0000000000
10
64.1845564519
20
114.4502348005
30
0.0000000000
10
64.0542157977
20
114.3014040701
30
0.0000000000
11
66.7128008822
21
115.7163468627
31
0.0000000000
11
66.1083323114
21
115.5622665176
31
0.0000000000
11
65.5258102051
21
115.3444449539
31
0.0000000000
11
64.9782707532
21
115.0612410060
31
0.0000000000
11
64.4818866835
21
114.7129269315
31
0.0000000000
11
64.0542157977
21
114.3014040701
31
0.0000000000
0
SPLINE
5
578
100
AcDbEntity
8
0
100
AcDbSpline
62
7
6
CONTINUOUS
70
0
71
3
72
10
73
6
74
4
42
0.0000001000
43
0.0000001000
44
0.0000000001
40
0.0000000000
40
0.0000000000
40
0.0000000000
40
0.0000000000
40
0.3079766801
40
0.6475224855
40
1.0000000000
40
1.0000000000
40
1.0000000000
40
1.0000000000
10
66.5967016090
20
115.7434705774
30
0.0000000000
10
66.5864185889
20
115.7620247617
30
0.0000000000
10
66.5669161960
20
115.8022328434
30
0.0000000000
10
66.5423319833
20
115.8666156799
30
0.0000000000
10
66.5276633529
20
115.9120163683
30
0.0000000000
10
66.5212775199
20
115.9354398385
30
0.0000000000
11
66.5967016090
21
115.7434705774
31
0.0000000000
11
66.5686776742
21
115.8006076352
31
0.0000000000
11
66.5432142554
21
115.8659868327
31
0.0000000000
11
66.5212775199
21
115.9354398385
31
0.0000000000
0
SPLINE
5
579
100
AcDbEntity
8
0
100
AcDbSpline
6
CONTINUOUS
70
0
71
3
72
11
73
7
74
5
42
0.0000001000
43
0.0000001000
44
0.0000000001
40
0.0000000000
40
0.0000000000
40
0.0000000000
40
0.0000000000
40
0.2569629198
40
0.5111743585
40
0.7597686506
40
1.0000000000
40
1.0000000000
40
1.0000000000
40
1.0000000000
10
66.5210837727
20
115.9353674628
30
0.0000000000
10
66.2626463424
20
115.8822792748
30
0.0000000000
10
65.7540193833
20
115.7470418747
30
0.0000000000
10
65.0293304601
20
115.4519982914
30
0.0000000000
10
64.3694829219
20
115.0633226194
30
0.0000000000
10
63.9848304026
20
114.7350348882
30
0.0000000000
10
63.8157311115
20
114.5554686546
30
0.0000000000
11
66.5210837727
21
115.9353674628
31
0.0000000000
11
65.7566020142
21
115.7303260256
31
0.0000000000
11
65.0324280132
21
115.4324972165
31
0.0000000000
11
64.3748440558
21
115.0401748935
31
0.0000000000
11
63.8157311115
21
114.5554686546
31
0.0000000000
0
SPLINE
5
57A
100
AcDbEntity
8
0
100
AcDbSpline
62
7
6
CONTINUOUS
70
0
71
3
72
15
73
11
74
9
42
0.0000001000
43
0.0000001000
44
0.0000000001
40
0.0000000000
40
0.0000000000
40
0.0000000000
40
0.0000000000
40
0.1756684085
40
0.3460523070
40
0.5060260615
40
0.6507776883
40
0.7759535813
40
0.8777899900
40
0.9532263438
40
1.0000000000
40
1.0000000000
40
1.0000000000
40
1.0000000000
10
69.0852331380
20
121.8199162844
30
0.0000000000
10
69.0852331380
20
121.7352146848
30
0.0000000000
10
69.0851081944
20
121.5683594818
30
0.0000000000
10
69.0845499181
20
121.3243706685
30
0.0000000000
10
69.0836384367
20
121.0952901791
30
0.0000000000
10
69.0824105235
20
120.8880089703
30
0.0000000000
10
69.0808922657
20
120.7087634098
30
0.0000000000
10
69.0791952811
20
120.5629400405
30
0.0000000000
10
69.0772764959
20
120.4549325642
30
0.0000000000
10
69.0757873968
20
120.3960181188
30
0.0000000000
10
69.0747162477
20
120.3734908330
30
0.0000000000
11
69.0852331380
21
121.8199162844
31
0.0000000000
11
69.0850401002
21
121.5658115589
31
0.0000000000
11
69.0844667952
21
121.3193514840
31
0.0000000000
11
69.0835304747
21
121.0879509364
31
0.0000000000
11
69.0822593131
21
120.8785711993
31
0.0000000000
11
69.0806915589
21
120.6975107396
31
0.0000000000
11
69.0788743773
21
120.5502153248
31
0.0000000000
11
69.0768624342
21
120.4411149972
31
0.0000000000
11
69.0747162477
21
120.3734908330
31
0.0000000000
0
SPLINE
5
57B
100
AcDbEntity
8
0
100
AcDbSpline
6
CONTINUOUS
70
0
71
3
72
10
73
6
74
4
42
0.0000001000
43
0.0000001000
44
0.0000000001
40
0.0000000000
40
0.0000000000
40
0.0000000000
40
0.0000000000
40
0.3211627397
40
0.6664358400
40
1.0000000000
40
1.0000000000
40
1.0000000000
40
1.0000000000
10
67.9825426624
20
116.5238197436
30
0.0000000000
10
67.8271182733
20
116.4582757298
30
0.0000000000
10
67.5046983579
20
116.3220329527
30
0.0000000000
10
67.0188663492
20
116.1224557712
30
0.0000000000
10
66.6859145395
20
115.9947253470
30
0.0000000000
10
66.5210837727
20
115.9353674628
30
0.0000000000
11
67.9825426624
21
116.5238197436
31
0.0000000000
11
67.5160479845
21
116.3277137987
31
0.0000000000
11
67.0123626273
21
116.1221238491
31
0.0000000000
11
66.5210837727
21
115.9353674628
31
0.0000000000
0
SPLINE
5
57C
100
AcDbEntity
8
0
100
AcDbSpline
6
CONTINUOUS
70
0
71
3
72
11
73
7
74
5
42
0.0000001000
43
0.0000001000
44
0.0000000001
40
0.0000000000
40
0.0000000000
40
0.0000000000
40
0.0000000000
40
0.2399136606
40
0.4955960180
40
0.7539571138
40
1.0000000000
40
1.0000000000
40
1.0000000000
40
1.0000000000
10
67.9826620708
20
116.5239040724
30
0.0000000000
10
67.8731006041
20
116.4592345975
30
0.0000000000
10
67.6468843672
20
116.3254634359
30
0.0000000000
10
67.3013846067
20
116.1242441519
30
0.0000000000
10
66.9499189069
20
115.9268825953
30
0.0000000000
10
66.7132992546
20
115.8020302839
30
0.0000000000
10
66.5967073905
20
115.7434659778
30
0.0000000000
11
67.9826620708
21
116.5239040724
31
0.0000000000
11
67.6538734859
21
116.3300722633
31
0.0000000000
11
67.3020838780
21
116.1258782218
31
0.0000000000
11
66.9433356184
21
115.9252896238
31
0.0000000000
11
66.5967073905
21
115.7434659778
31
0.0000000000
0
SPLINE
5
57D
100
AcDbEntity
8
0
100
AcDbSpline
6
CONTINUOUS
70
0
71
3
72
11
73
7
74
5
42
0.0000001000
43
0.0000001000
44
0.0000000001
40
0.0000000000
40
0.0000000000
40
0.0000000000
40
0.0000000000
40
0.2398283091
40
0.4885661160
40
0.7429316268
40
1.0000000000
40
1.0000000000
40
1.0000000000
40
1.0000000000
10
63.8158213284
20
104.7123530546
30
0.0000000000
10
63.9846268206
20
104.5331039140
30
0.0000000000
10
64.3689180476
20
104.2048858417
30
0.0000000000
10
65.0285738465
20
103.8161814397
30
0.0000000000
10
65.7535552956
20
103.5209151826
30
0.0000000000
10
66.2624006482
20
103.3856016636
30
0.0000000000
10
66.5209247675
20
103.3324956716
30
0.0000000000
11
63.8158213284
21
104.7123530546
31
0.0000000000
11
64.3738405578
21
104.2283649587
31
0.0000000000
11
65.0316686868
21
103.8357011769
31
0.0000000000
11
65.7561937360
21
103.5376325753
31
0.0000000000
11
66.5209247675
21
103.3324956716
31
0.0000000000
0
SPLINE
5
57E
100
AcDbEntity
8
0
100
AcDbSpline
62
7
6
CONTINUOUS
70
0
71
3
72
10
73
6
74
4
42
0.0000001000
43
0.0000001000
44
0.0000000001
40
0.0000000000
40
0.0000000000
40
0.0000000000
40
0.0000000000
40
0.3079769186
40
0.6475229517
40
1.0000000000
40
1.0000000000
40
1.0000000000
40
1.0000000000
10
66.5967032757
20
103.5243509438
30
0.0000000000
10
66.5864197387
20
103.5057969773
30
0.0000000000
10
66.5669176603
20
103.4655886331
30
0.0000000000
10
66.5423303039
20
103.4012068200
30
0.0000000000
10
66.5276640653
20
103.3558052566
30
0.0000000000
10
66.5212780763
20
103.3323818104
30
0.0000000000
11
66.5967032757
21
103.5243509438
31
0.0000000000
11
66.5686785879
21
103.4672140544
31
0.0000000000
11
66.5432136988
21
103.4018352240
31
0.0000000000
11
66.5212780763
21
103.3323818104
31
0.0000000000
0
SPLINE
5
57F
100
AcDbEntity
8
0
100
AcDbSpline
6
CONTINUOUS
70
0
71
3
72
12
73
8
74
6
42
0.0000001000
43
0.0000001000
44
0.0000000001
40
0.0000000000
40
0.0000000000
40
0.0000000000
40
0.0000000000
40
0.1938183295
40
0.3918562306
40
0.5931748732
40
0.7962800645
40
1.0000000000
40
1.0000000000
40
1.0000000000
40
1.0000000000
10
64.0542186859
20
104.9664182977
30
0.0000000000
10
64.1845537955
20
104.8175939248
30
0.0000000000
10
64.4756579357
20
104.5401062824
30
0.0000000000
10
64.9741415840
20
104.1931668225
30
0.0000000000
10
65.5225792914
20
103.9113714206
30
0.0000000000
10
66.1055982905
20
103.6947303122
30
0.0000000000
10
66.5089267375
20
103.5923645682
30
0.0000000000
10
66.7128011704
20
103.5514748465
30
0.0000000000
11
64.0542186859
21
104.9664182977
31
0.0000000000
11
64.4818682946
21
104.5549098227
31
0.0000000000
11
64.9782552603
21
104.2065900348
31
0.0000000000
11
65.5257991533
21
103.9233816504
31
0.0000000000
11
66.1083266042
21
103.7055569101
31
0.0000000000
11
66.7128011704
21
103.5514748465
31
0.0000000000
0
SPLINE
5
580
100
AcDbEntity
8
0
100
AcDbSpline
6
CONTINUOUS
70
0
71
3
72
11
73
7
74
5
42
0.0000001000
43
0.0000001000
44
0.0000000001
40
0.0000000000
40
0.0000000000
40
0.0000000000
40
0.0000000000
40
0.2477497589
40
0.5072612801
40
0.7627806972
40
1.0000000000
40
1.0000000000
40
1.0000000000
40
1.0000000000
10
66.5967166376
20
103.5243614985
30
0.0000000000
10
66.7140926061
20
103.4654013165
30
0.0000000000
10
66.9519834082
20
103.3398266264
30
0.0000000000
10
67.3045868245
20
103.1417418093
30
0.0000000000
10
67.6492131306
20
102.9409829763
30
0.0000000000
10
67.8740733980
20
102.8080001040
30
0.0000000000
10
67.9823668839
20
102.7440437156
30
0.0000000000
11
66.5967166376
21
103.5243614985
31
0.0000000000
11
66.9456555067
21
103.3412701143
31
0.0000000000
11
67.3058917365
21
103.1397649391
31
0.0000000000
11
67.6573611404
21
102.9357005832
31
0.0000000000
11
67.9823668839
21
102.7440437156
31
0.0000000000
0
SPLINE
5
581
100
AcDbEntity
8
0
100
AcDbSpline
6
CONTINUOUS
70
0
71
3
72
11
73
7
74
5
42
0.0000001000
43
0.0000001000
44
0.0000000001
40
0.0000000000
40
0.0000000000
40
0.0000000000
40
0.0000000000
40
0.2501704626
40
0.5097666228
40
0.7640451588
40
1.0000000000
40
1.0000000000
40
1.0000000000
40
1.0000000000
10
66.5209247675
20
103.3324956716
30
0.0000000000
10
66.6445619339
20
103.2879703888
30
0.0000000000
10
66.8950934199
20
103.1933392425
30
0.0000000000
10
67.2675151198
20
103.0437155713
30
0.0000000000
10
67.6311431812
20
102.8923409822
30
0.0000000000
10
67.8683595906
20
102.7921398340
30
0.0000000000
10
67.9825533292
20
102.7439562202
30
0.0000000000
11
66.5209247675
21
103.3324956716
31
0.0000000000
11
66.8899663928
21
103.1938373643
31
0.0000000000
11
67.2697810272
21
103.0418811076
31
0.0000000000
11
67.6398890159
21
102.8883099643
31
0.0000000000
11
67.9825533292
21
102.7439562202
31
0.0000000000
0
SPLINE
5
582
100
AcDbEntity
8
0
100
AcDbSpline
62
7
6
CONTINUOUS
70
0
71
3
72
9
73
5
74
3
42
0.0000001000
43
0.0000001000
44
0.0000000001
40
0.0000000000
40
0.0000000000
40
0.0000000000
40
0.0000000000
40
0.6777046041
40
1.0000000000
40
1.0000000000
40
1.0000000000
40
1.0000000000
10
63.4631084789
20
103.1437290546
30
0.0000000000
10
63.4533986807
20
103.1751016287
30
0.0000000000
10
63.4429969743
20
103.2227721153
30
0.0000000000
10
63.4401712426
20
103.2713499259
30
0.0000000000
10
63.4401416214
20
103.2870036811
30
0.0000000000
11
63.4631084789
21
103.1437290546
31
0.0000000000
11
63.4427796325
21
103.2401313641
31
0.0000000000
11
63.4401416214
21
103.2870036811
31
0.0000000000
0
SPLINE
5
583
100
AcDbEntity
8
0
100
AcDbSpline
62
7
6
CONTINUOUS
70
0
71
3
72
9
73
5
74
3
42
0.0000001000
43
0.0000001000
44
0.0000000001
40
0.0000000000
40
0.0000000000
40
0.0000000000
40
0.0000000000
40
0.6777046041
40
1.0000000000
40
1.0000000000
40
1.0000000000
40
1.0000000000
10
182.6973162970
20
116.1240926546
30
0.0000000000
10
182.7070260952
20
116.0927200805
30
0.0000000000
10
182.7174278016
20
116.0450495939
30
0.0000000000
10
182.7202535333
20
115.9964717833
30
0.0000000000
10
182.7202831545
20
115.9808180281
30
0.0000000000
11
182.6973162970
21
116.1240926546
31
0.0000000000
11
182.7176451435
21
116.0276903450
31
0.0000000000
11
182.7202831545
21
115.9808180281
31
0.0000000000
0
SPLINE
5
584
100
AcDbEntity
8
0
100
AcDbSpline
62
7
6
CONTINUOUS
70
0
71
3
72
9
73
5
74
3
42
0.0000001000
43
0.0000001000
44
0.0000000001
40
0.0000000000
40
0.0000000000
40
0.0000000000
40
0.0000000000
40
0.3222953959
40
1.0000000000
40
1.0000000000
40
1.0000000000
40
1.0000000000
10
63.4401416214
20
115.9808180281
30
0.0000000000
10
63.4401712426
20
115.9964717833
30
0.0000000000
10
63.4429969743
20
116.0450495939
30
0.0000000000
10
63.4533986807
20
116.0927200805
30
0.0000000000
10
63.4631084789
20
116.1240926546
30
0.0000000000
11
63.4401416214
21
115.9808180281
31
0.0000000000
11
63.4427796325
21
116.0276903450
31
0.0000000000
11
63.4631084789
21
116.1240926546
31
0.0000000000
0
SPLINE
5
585
100
AcDbEntity
8
0
100
AcDbSpline
62
7
6
CONTINUOUS
70
0
71
3
72
11
73
7
74
5
42
0.0000001000
43
0.0000001000
44
0.0000000001
40
0.0000000000
40
0.0000000000
40
0.0000000000
40
0.0000000000
40
0.0761323398
40
0.2929229717
40
0.6173454497
40
1.0000000000
40
1.0000000000
40
1.0000000000
40
1.0000000000
10
134.4527363880
20
127.3789698546
30
0.0000000000
10
134.4523021095
20
127.3540900597
30
0.0000000000
10
134.4506312016
20
127.2583638090
30
0.0000000000
10
134.4471097045
20
127.0566173738
30
0.0000000000
10
134.4418397259
20
126.7547005020
30
0.0000000000
10
134.4378063768
20
126.5236300861
30
0.0000000000
10
134.4356236169
20
126.3985798546
30
0.0000000000
11
134.4527363880
21
127.3789698546
31
0.0000000000
11
134.4514335527
21
127.3043304700
31
0.0000000000
11
134.4477236642
21
127.0917911023
31
0.0000000000
11
134.4421718966
21
126.7737305491
31
0.0000000000
11
134.4356236169
21
126.3985798546
31
0.0000000000
0
SPLINE
5
586
100
AcDbEntity
8
0
100
AcDbSpline
62
7
6
CONTINUOUS
70
0
71
3
72
9
73
5
74
3
42
0.0000001000
43
0.0000001000
44
0.0000000001
40
0.0000000000
40
0.0000000000
40
0.0000000000
40
0.0000000000
40
0.3222953959
40
1.0000000000
40
1.0000000000
40
1.0000000000
40
1.0000000000
10
182.7202831545
20
103.2870036811
30
0.0000000000
10
182.7202535333
20
103.2713499259
30
0.0000000000
10
182.7174278016
20
103.2227721153
30
0.0000000000
10
182.7070260952
20
103.1751016287
30
0.0000000000
10
182.6973162970
20
103.1437290546
30
0.0000000000
11
182.7202831545
21
103.2870036811
31
0.0000000000
11
182.7176451435
21
103.2401313641
31
0.0000000000
11
182.6973162970
21
103.1437290546
31
0.0000000000
0
SPLINE
5
587
100
AcDbEntity
8
0
100
AcDbSpline
6
CONTINUOUS
70
0
71
3
72
9
73
5
74
3
42
0.0000001000
43
0.0000001000
44
0.0000000001
40
0.0000000000
40
0.0000000000
40
0.0000000000
40
0.0000000000
40
0.4720029502
40
1.0000000000
40
1.0000000000
40
1.0000000000
40
1.0000000000
10
64.0851268557
20
105.0064700546
30
0.0000000000
10
64.0721322589
20
105.0064843332
30
0.0000000000
10
64.0446100956
20
105.0042495678
30
0.0000000000
10
64.0175749588
20
104.9978943466
30
0.0000000000
10
64.0039988662
20
104.9926991748
30
0.0000000000
11
64.0851268557
21
105.0064700546
31
0.0000000000
11
64.0462596774
21
105.0034567184
31
0.0000000000
11
64.0039988662
21
104.9926991748
31
0.0000000000
0
SPLINE
5
588
100
AcDbEntity
8
0
100
AcDbSpline
62
7
6
CONTINUOUS
70
0
71
3
72
15
73
11
74
9
42
0.0000001000
43
0.0000001000
44
0.0000000001
40
0.0000000000
40
0.0000000000
40
0.0000000000
40
0.0000000000
40
0.0122790588
40
0.0721797560
40
0.1788965773
40
0.3247159129
40
0.4959453412
40
0.6765530157
40
0.8499060588
40
1.0000000000
40
1.0000000000
40
1.0000000000
40
1.0000000000
10
67.3022245795
20
94.7299039406
30
0.0000000000
10
67.2913558333
20
94.7285408118
30
0.0000000000
10
67.2289804341
20
94.7307201490
30
0.0000000000
10
67.1690229006
20
94.9184215309
30
0.0000000000
10
67.1025579439
20
95.1554180557
30
0.0000000000
10
67.0566251489
20
95.5327470241
30
0.0000000000
10
67.0298635280
20
95.9603614732
30
0.0000000000
10
67.0282750681
20
96.4180080592
30
0.0000000000
10
67.0512072132
20
96.8551021394
30
0.0000000000
10
67.0843008148
20
97.1345713394
30
0.0000000000
10
67.1068828067
20
97.2629726093
30
0.0000000000
11
67.3022245795
21
94.7299039406
31
0.0000000000
11
67.2712385594
21
94.7314109249
31
0.0000000000
11
67.1873497423
21
94.8630415808
31
0.0000000000
11
67.1155815653
21
95.1317043298
31
0.0000000000
11
67.0630423377
21
95.5080314225
31
0.0000000000
11
67.0345970404
21
95.9533144676
31
0.0000000000
11
67.0327244610
21
96.4239393152
31
0.0000000000
11
67.0575445111
21
96.8749813401
31
0.0000000000
11
67.1068828067
21
97.2629726093
31
0.0000000000
0
SPLINE
5
589
100
AcDbEntity
8
0
100
AcDbSpline
62
7
6
CONTINUOUS
70
0
71
3
72
15
73
11
74
9
42
0.0000001000
43
0.0000001000
44
0.0000000001
40
0.0000000000
40
0.0000000000
40
0.0000000000
40
0.0000000000
40
0.0128550666
40
0.0740211077
40
0.1823836280
40
0.3296556703
40
0.5016549029
40
0.6819109492
40
0.8534573549
40
1.0000000000
40
1.0000000000
40
1.0000000000
40
1.0000000000
10
67.3022871924
20
106.7518000420
30
0.0000000000
10
67.2906431433
20
106.7505162461
30
0.0000000000
10
67.2250418076
20
106.7539812768
30
0.0000000000
10
67.1673060628
20
106.9486329740
30
0.0000000000
10
67.0990574970
20
107.1928348785
30
0.0000000000
10
67.0544103787
20
107.5791684916
30
0.0000000000
10
67.0287346398
20
108.0146436296
30
0.0000000000
10
67.0291861937
20
108.4775822891
30
0.0000000000
10
67.0545353120
20
108.9157546735
30
0.0000000000
10
67.0896999296
20
109.1942991672
30
0.0000000000
10
67.1136252503
20
109.3211634023
30
0.0000000000
11
67.3022871924
21
106.7518000420
31
0.0000000000
11
67.2691293298
21
106.7539979447
31
0.0000000000
11
67.1844785245
21
106.8917200325
31
0.0000000000
11
67.1125397043
21
107.1689321076
31
0.0000000000
11
67.0605928073
21
107.5546795243
31
0.0000000000
11
67.0335482135
21
108.0084559429
31
0.0000000000
11
67.0338120869
21
108.4848596539
31
0.0000000000
11
67.0613287716
21
108.9374086962
31
0.0000000000
11
67.1136252503
21
109.3211634023
31
0.0000000000
0
SPLINE
5
58A
100
AcDbEntity
8
0
100
AcDbSpline
62
7
6
CONTINUOUS
70
0
71
3
72
10
73
6
74
4
42
0.0000001000
43
0.0000001000
44
0.0000000001
40
0.0000000000
40
0.0000000000
40
0.0000000000
40
0.0000000000
40
0.1780878620
40
0.5083943856
40
1.0000000000
40
1.0000000000
40
1.0000000000
40
1.0000000000
10
175.8156428515
20
125.2839108546
30
0.0000000000
10
175.8723261188
20
125.2839108546
30
0.0000000000
10
176.0036400306
20
125.1451804090
30
0.0000000000
10
176.1025289639
20
124.8540460425
30
0.0000000000
10
176.1661768108
20
124.5956920583
30
0.0000000000
10
176.1951747427
20
124.4419302556
30
0.0000000000
11
175.8156428515
21
125.2839108546
31
0.0000000000
11
175.9543792118
21
125.1855789804
31
0.0000000000
11
176.0837309248
21
124.8979263342
31
0.0000000000
11
176.1951747427
21
124.4419302556
31
0.0000000000
0
SPLINE
5
58B
100
AcDbEntity
8
0
100
AcDbSpline
62
7
6
CONTINUOUS
70
0
71
3
72
10
73
6
74
4
42
0.0000001000
43
0.0000001000
44
0.0000000001
40
0.0000000000
40
0.0000000000
40
0.0000000000
40
0.0000000000
40
0.1780878620
40
0.5083943856
40
1.0000000000
40
1.0000000000
40
1.0000000000
40
1.0000000000
10
70.3447819244
20
125.2839108546
30
0.0000000000
10
70.2880986571
20
125.2839108546
30
0.0000000000
10
70.1567847453
20
125.1451804090
30
0.0000000000
10
70.0578958120
20
124.8540460425
30
0.0000000000
10
69.9942479651
20
124.5956920583
30
0.0000000000
10
69.9652500332
20
124.4419302556
30
0.0000000000
11
70.3447819244
21
125.2839108546
31
0.0000000000
11
70.2060455641
21
125.1855789804
31
0.0000000000
11
70.0766938512
21
124.8979263342
31
0.0000000000
11
69.9652500332
21
124.4419302556
31
0.0000000000
0
SPLINE
5
58C
100
AcDbEntity
8
0
100
AcDbSpline
62
7
6
CONTINUOUS
70
0
71
3
72
15
73
11
74
9
42
0.0000001000
43
0.0000001000
44
0.0000000001
40
0.0000000000
40
0.0000000000
40
0.0000000000
40
0.0000000000
40
0.1465426489
40
0.3180890591
40
0.4983451095
40
0.6703443447
40
0.8176163868
40
0.9259789036
40
0.9871449387
40
1.0000000000
40
1.0000000000
40
1.0000000000
40
1.0000000000
10
179.0467995256
20
109.3211634023
30
0.0000000000
10
179.0707248470
20
109.1942991638
30
0.0000000000
10
179.1058894651
20
108.9157546625
30
0.0000000000
10
179.1312385832
20
108.4775822668
30
0.0000000000
10
179.1316901351
20
108.0146435964
30
0.0000000000
10
179.1060143952
20
107.5791684535
30
0.0000000000
10
179.0613672692
20
107.1928348379
30
0.0000000000
10
178.9931187119
20
106.9486329489
30
0.0000000000
10
178.9353829470
20
106.7539812587
30
0.0000000000
10
178.8697816282
20
106.7505162419
30
0.0000000000
10
178.8581375849
20
106.7518000391
30
0.0000000000
11
179.0467995256
21
109.3211634023
31
0.0000000000
11
179.0990960053
21
108.9374086860
31
0.0000000000
11
179.1266126897
21
108.4848596312
31
0.0000000000
11
179.1268765614
21
108.0084559086
31
0.0000000000
11
179.0998319647
21
107.5546794830
31
0.0000000000
11
179.0478850640
21
107.1689320667
31
0.0000000000
11
178.9759462398
21
106.8917200017
31
0.0000000000
11
178.8912954312
21
106.7539979343
31
0.0000000000
11
178.8581375849
21
106.7518000391
31
0.0000000000
0
SPLINE
5
58D
100
AcDbEntity
8
0
100
AcDbSpline
62
7
6
CONTINUOUS
70
0
71
3
72
15
73
11
74
9
42
0.0000001000
43
0.0000001000
44
0.0000000001
40
0.0000000000
40
0.0000000000
40
0.0000000000
40
0.0000000000
40
0.1656335906
40
0.3489232853
40
0.5337673741
40
0.7039711094
40
0.8443502315
40
0.9425467238
40
0.9939636475
40
1.0000000000
40
1.0000000000
40
1.0000000000
40
1.0000000000
10
179.0748580045
20
84.9146519058
30
0.0000000000
10
179.0933687258
20
84.7797218245
30
0.0000000000
10
179.1196090797
20
84.4936594275
30
0.0000000000
10
179.1339458941
20
84.0551123214
30
0.0000000000
10
179.1237273205
20
83.6112064809
30
0.0000000000
10
179.0931589101
20
83.2085107974
30
0.0000000000
10
179.0366341686
20
82.8658018813
30
0.0000000000
10
178.9838790338
20
82.6573823268
30
0.0000000000
10
178.9027751780
20
82.5112467643
30
0.0000000000
10
178.8616422971
20
82.5139023600
30
0.0000000000
10
178.8572479691
20
82.5147196606
30
0.0000000000
11
179.0748580045
21
84.9146519058
31
0.0000000000
11
179.1144801626
21
84.5079959735
31
0.0000000000
11
179.1297207550
21
84.0561175377
31
0.0000000000
11
179.1193384007
21
83.6002660331
31
0.0000000000
11
179.0841761689
21
83.1818858260
31
0.0000000000
11
179.0271964617
21
82.8403214585
31
0.0000000000
11
178.9535109702
21
82.6095717856
31
0.0000000000
11
178.8701619950
21
82.5139690971
31
0.0000000000
11
178.8572479691
21
82.5147196606
31
0.0000000000
0
SPLINE
5
58E
100
AcDbEntity
8
0
100
AcDbSpline
62
7
6
CONTINUOUS
70
0
71
3
72
15
73
11
74
9
42
0.0000001000
43
0.0000001000
44
0.0000000001
40
0.0000000000
40
0.0000000000
40
0.0000000000
40
0.0000000000
40
0.1500939412
40
0.3234469843
40
0.5040546588
40
0.6752840871
40
0.8211034227
40
0.9278202440
40
0.9877209412
40
1.0000000000
40
1.0000000000
40
1.0000000000
40
1.0000000000
10
179.0535419692
20
97.2629726093
30
0.0000000000
10
179.0761239612
20
97.1345713394
30
0.0000000000
10
179.1092175627
20
96.8551021394
30
0.0000000000
10
179.1321497079
20
96.4180080592
30
0.0000000000
10
179.1305612479
20
95.9603614732
30
0.0000000000
10
179.1037996270
20
95.5327470241
30
0.0000000000
10
179.0578668320
20
95.1554180557
30
0.0000000000
10
178.9914018753
20
94.9184215309
30
0.0000000000
10
178.9314443418
20
94.7307201490
30
0.0000000000
10
178.8690689427
20
94.7285408118
30
0.0000000000
10
178.8582001964
20
94.7299039406
30
0.0000000000
11
179.0535419692
21
97.2629726093
31
0.0000000000
11
179.1028802648
21
96.8749813401
31
0.0000000000
11
179.1277003149
21
96.4239393152
31
0.0000000000
11
179.1258277355
21
95.9533144676
31
0.0000000000
11
179.0973824382
21
95.5080314225
31
0.0000000000
11
179.0448432107
21
95.1317043298
31
0.0000000000
11
178.9730750336
21
94.8630415808
31
0.0000000000
11
178.8891862165
21
94.7314109249
31
0.0000000000
11
178.8582001964
21
94.7299039406
31
0.0000000000
0
SPLINE
5
58F
100
AcDbEntity
8
0
100
AcDbSpline
62
7
6
CONTINUOUS
70
0
71
3
72
15
73
11
74
9
42
0.0000001000
43
0.0000001000
44
0.0000000001
40
0.0000000000
40
0.0000000000
40
0.0000000000
40
0.0000000000
40
0.1656335906
40
0.3489232853
40
0.5337673741
40
0.7039711094
40
0.8443502315
40
0.9425467238
40
0.9939636475
40
1.0000000000
40
1.0000000000
40
1.0000000000
40
1.0000000000
10
67.0855667714
20
84.9146519058
30
0.0000000000
10
67.0670560501
20
84.7797218245
30
0.0000000000
10
67.0408156962
20
84.4936594275
30
0.0000000000
10
67.0264788818
20
84.0551123214
30
0.0000000000
10
67.0366974554
20
83.6112064809
30
0.0000000000
10
67.0672658658
20
83.2085107974
30
0.0000000000
10
67.1237906073
20
82.8658018813
30
0.0000000000
10
67.1765457421
20
82.6573823268
30
0.0000000000
10
67.2576495980
20
82.5112467643
30
0.0000000000
10
67.2987824788
20
82.5139023600
30
0.0000000000
10
67.3031768068
20
82.5147196606
30
0.0000000000
11
67.0855667714
21
84.9146519058
31
0.0000000000
11
67.0459446133
21
84.5079959735
31
0.0000000000
11
67.0307040209
21
84.0561175377
31
0.0000000000
11
67.0410863752
21
83.6002660331
31
0.0000000000
11
67.0762486071
21
83.1818858260
31
0.0000000000
11
67.1332283142
21
82.8403214585
31
0.0000000000
11
67.2069138058
21
82.6095717856
31
0.0000000000
11
67.2902627809
21
82.5139690971
31
0.0000000000
11
67.3031768068
21
82.5147196606
31
0.0000000000
0
ENDSEC
0
SECTION
2
OBJECTS
0
DICTIONARY
5
590
100
AcDbDictionary
3
ACAD_GROUP
350
591
3
ACAD_MLINESTYLE
350
592
0
DICTIONARY
5
591
102
{ACAD_REACTORS
330
590
102
}
100
AcDbDictionary
0
DICTIONARY
5
592
102
{ACAD_REACTORS
330
590
102
}
100
AcDbDictionary
3
STANDARD
350
593
0
MLINESTYLE
5
593
102
{ACAD_REACTORS
330
592
102
}
100
AcDbMlineStyle
2
STANDARD
70
0
3

62
256
51
90.0
52
90.0
71
2
49
0.5
62
256
6
BYLAYER
49
-0.5
62
256
6
BYLAYER
0
ENDSEC
0
EOF
