999
DXF file: W:\Tecnico\Pubblico\Pubblico di Antonio\Per_Camparini\Disegni1873\catena1873-k473gs2j.dxf
999
Pro/ENGINEER 2002030 by Parametric Technology Corporation
0
SECTION
2
HEADER
9
$ACADVER
1
AC1014
9
$EXTMAX
10
420.0000000000
20
297.0000000000
9
$EXTMIN
10
0.0000000000
20
0.0000000000
9
$LIMMIN
10
0.0000000000
20
0.0000000000
9
$LIMMAX
10
420.0000000000
20
297.0000000000
9
$VIEWCTR
10
210.0000000000
20
148.5000000000
9
$VIEWSIZE
40
297.0000000000
9
$CLAYER
8
0
9
$LTSCALE
40
23.1000000000
9
$CELTYPE
6
BYLAYER
9
$DIMSCALE
40
1
9
$DIMASZ
40
3.5000000000
9
$DIMEXO
40
2.6250000000
9
$DIMDLI
40
15.9600000000
9
$DIMEXE
40
7.5600000000
9
$DIMCEN
40
3.7800000000
9
$DIMLFAC
40
1.0000000000
9
$DIMTXT
40
3.5000000000
9
$DIMTOL
70
1
9
$DIMLIM
70
0
9
$DIMTFAC
40
1.0000000000
9
$DIMTP
40
0.0010000000
9
$DIMTM
40
0.0010000000
9
$HANDSEED
5
5A3
0
ENDSEC
0
SECTION
2
CLASSES
0
ENDSEC
0
SECTION
2
TABLES
0
TABLE
2
VPORT
5
8
100
AcDbSymbolTable
70
2
0
VPORT
5
1F4
100
AcDbSymbolTableRecord
100
AcDbViewportTableRecord
2
*ACTIVE
70
0
10
0.0
20
0.0
11
1.0
21
1.0
12
210.0000000000
22
148.5000000000
13
0.0
23
0.0
14
1.0
24
1.0
15
0.0
25
0.0
16
0.0
26
0.0
36
1.0
17
0.0
27
0.0
37
0.0
40
297.0000000000
41
1.4141414141
42
50.0
43
0.0
44
0.0
50
0.0
51
0.0
71
0
72
100
73
1
74
1
75
0
76
0
77
0
78
0
0
ENDTAB
0
TABLE
2
LTYPE
5
5
100
AcDbSymbolTable
70
6
0
LTYPE
5
14
100
AcDbSymbolTableRecord
100
AcDbLinetypeTableRecord
2
BYBLOCK
70
0
3

72
65
73
0
40
0.0
0
LTYPE
5
15
100
AcDbSymbolTableRecord
100
AcDbLinetypeTableRecord
2
BYLAYER
70
0
3

72
65
73
0
40
0.0
0
LTYPE
5
16
100
AcDbSymbolTableRecord
100
AcDbLinetypeTableRecord
2
CONTINUOUS
70
64
3
Solid line
72
65
73
0
40
0
0
LTYPE
5
1F5
100
AcDbSymbolTableRecord
100
AcDbLinetypeTableRecord
2
CENTER
70
64
3
____ _ ____ _ ____ _ ____ _ ____ _ ____ _ ____
72
65
73
4
40
0.6
49
0.375
74
0
49
-0.075
74
0
49
0.075
74
0
49
-0.075
74
0
0
LTYPE
5
1F6
100
AcDbSymbolTableRecord
100
AcDbLinetypeTableRecord
2
HIDDEN
70
64
3
- - - - - - - - - - - - - - - - - - - -
72
65
73
2
40
0.2
49
0.1
74
0
49
-0.1
74
0
0
LTYPE
5
1F7
100
AcDbSymbolTableRecord
100
AcDbLinetypeTableRecord
2
PHANTOM
70
64
3
_____ _ _ _____ _ _ _____ _ _ _____
72
65
73
6
40
0.8
49
0.45
74
0
49
-0.05
74
0
49
0.1
74
0
49
-0.05
74
0
49
0.1
74
0
49
-0.05
74
0
0
LTYPE
5
1F8
100
AcDbSymbolTableRecord
100
AcDbLinetypeTableRecord
2
DOT
70
64
3
. . . . . . . . . . . . . . . . . . . .
72
65
73
2
40
0.2
49
0.1
74
0
49
-0.1
74
0
0
LTYPE
5
1F9
100
AcDbSymbolTableRecord
100
AcDbLinetypeTableRecord
2
DASHED
70
64
3
- - - - - - - - - - - - - - - - - - - -
72
65
73
2
40
0.2
49
0.1
74
0
49
-0.1
74
0
0
ENDTAB
0
TABLE
2
LAYER
5
2
100
AcDbSymbolTable
70
36
0
LAYER
5
10
100
AcDbSymbolTableRecord
100
AcDbLayerTableRecord
2
0
70
0
62
7
6
CONTINUOUS
0
LAYER
5
1FA
100
AcDbSymbolTableRecord
100
AcDbLayerTableRecord
2
DEFAULT_1
70
0
62
7
6
CENTER
0
LAYER
5
1FB
100
AcDbSymbolTableRecord
100
AcDbLayerTableRecord
2
DEFAULT_2
70
0
62
8
6
HIDDEN
0
LAYER
5
1FC
100
AcDbSymbolTableRecord
100
AcDbLayerTableRecord
2
DEFAULT_3
70
0
62
7
6
PHANTOM
0
ENDTAB
0
TABLE
2
STYLE
5
3
100
AcDbSymbolTable
70
1
0
STYLE
5
11
100
AcDbSymbolTableRecord
100
AcDbTextStyleTableRecord
2
STANDARD
70
0
40
0.0
41
0.7143000000
50
0.0
71
0
42
0.0
3
txt
4

0
ENDTAB
0
TABLE
2
VIEW
5
6
100
AcDbSymbolTable
70
0
0
ENDTAB
0
TABLE
2
UCS
5
7
100
AcDbSymbolTable
70
0
0
ENDTAB
0
TABLE
2
APPID
5
9
100
AcDbSymbolTable
70
1
0
APPID
5
1FD
100
AcDbSymbolTableRecord
100
AcDbRegAppTableRecord
2
ACAD
70
0
0
ENDTAB
0
TABLE
2
DIMSTYLE
5
A
100
AcDbSymbolTable
70
1
0
DIMSTYLE
105
1FE
100
AcDbSymbolTableRecord
100
AcDbDimStyleTableRecord
2
STANDARD
70
0
3

4

5

6

7

40
1.0
41
3.5000000000
42
0.0625
43
0.38
44
0.18
45
0.0
46
0.0
47
0.0010000000
48
0.0010000000
140
3.5000000000
141
0.09
142
0.0
143
25.4
144
1.0000000000
145
0.0
146
1.0000000000
147
0.09
71
1
72
0
73
0
74
0
75
0
76
0
77
1
78
8
170
0
171
2
172
0
173
0
174
0
175
0
176
0
177
0
178
5
270
2
271
3
272
3
273
2
274
2
340
11
275
0
280
0
281
0
282
0
283
1
284
8
285
0
286
0
287
3
288
0
0
ENDTAB
0
TABLE
2
BLOCK_RECORD
5
1
100
AcDbSymbolTable
70
0
0
BLOCK_RECORD
5
1B
100
AcDbSymbolTableRecord
100
AcDbBlockTableRecord
2
*MODEL_SPACE
0
BLOCK_RECORD
5
1C
100
AcDbSymbolTableRecord
100
AcDbBlockTableRecord
2
*PAPER_SPACE
0
ENDTAB
0
ENDSEC
0
SECTION
2
BLOCKS
0
BLOCK
5
1E
100
AcDbEntity
8
0
100
AcDbBlockBegin
2
*MODEL_SPACE
70
0
10
0.0
20
0.0
30
0.0
3
*MODEL_SPACE
1

0
ENDBLK
5
1F
100
AcDbEntity
8
0
100
AcDbBlockEnd
0
BLOCK
5
20
100
AcDbEntity
8
0
100
AcDbBlockBegin
2
*PAPER_SPACE
70
0
10
0.0
20
0.0
30
0.0
3
*PAPER_SPACE
1

0
ENDBLK
5
21
100
AcDbEntity
8
0
100
AcDbBlockEnd
0
ENDSEC
0
SECTION
2
ENTITIES
0
LINE
5
1FF
100
AcDbEntity
8
0
100
AcDbLine
62
7
6
CONTINUOUS
10
0.0000000000
20
0.0000000000
11
0.0000000000
21
297.0000000000
0
LINE
5
200
100
AcDbEntity
8
0
100
AcDbLine
62
7
6
CONTINUOUS
10
0.0000000000
20
0.0000000000
11
420.0000000000
21
0.0000000000
0
LINE
5
201
100
AcDbEntity
8
0
100
AcDbLine
62
7
6
CONTINUOUS
10
0.0000000000
20
297.0000000000
11
420.0000000000
21
297.0000000000
0
LINE
5
202
100
AcDbEntity
8
0
100
AcDbLine
62
7
6
CONTINUOUS
10
420.0000000000
20
0.0000000000
11
420.0000000000
21
297.0000000000
0
LINE
5
203
100
AcDbEntity
8
0
100
AcDbLine
62
7
6
CONTINUOUS
10
79.4279877426
20
194.3314204989
11
79.4279877426
21
209.5960938589
0
LINE
5
204
100
AcDbEntity
8
0
100
AcDbLine
6
CONTINUOUS
10
80.4083777426
20
209.2625507623
11
80.4083777426
21
197.3706294989
0
LINE
5
205
100
AcDbEntity
8
0
100
AcDbLine
6
CONTINUOUS
10
82.2671698738
20
194.1401501837
11
82.2665123899
21
196.3902394989
0
POLYLINE
5
206
100
AcDbEntity
8
0
100
AcDb2dPolyline
6
CONTINUOUS
66
1
70
0
0
VERTEX
5
207
100
AcDbEntity
8
0
100
AcDbVertex
6
CONTINUOUS
100
AcDb2dVertex
10
82.3007275075
20
193.3510304989
0
VERTEX
5
208
100
AcDbEntity
8
0
100
AcDbVertex
6
CONTINUOUS
100
AcDb2dVertex
10
82.2940527152
20
193.3698670455
0
VERTEX
5
209
100
AcDbEntity
8
0
100
AcDbVertex
6
CONTINUOUS
100
AcDb2dVertex
10
82.2876343432
20
193.4256536744
0
VERTEX
5
20A
100
AcDbEntity
8
0
100
AcDbVertex
6
CONTINUOUS
100
AcDb2dVertex
10
82.2817190461
20
193.5162478294
0
VERTEX
5
20B
100
AcDbEntity
8
0
100
AcDbVertex
6
CONTINUOUS
100
AcDb2dVertex
10
82.2765341592
20
193.6381692133
0
VERTEX
5
20C
100
AcDbEntity
8
0
100
AcDbVertex
6
CONTINUOUS
100
AcDb2dVertex
10
82.2722789570
20
193.7867335986
0
VERTEX
5
20D
100
AcDbEntity
8
0
100
AcDbVertex
6
CONTINUOUS
100
AcDb2dVertex
10
82.2691170116
20
193.9562319448
0
VERTEX
5
20E
100
AcDbEntity
8
0
100
AcDbVertex
6
CONTINUOUS
100
AcDb2dVertex
10
82.2671698738
20
194.1401501837
0
SEQEND
5
20F
100
AcDbEntity
8
0
0
LINE
5
210
100
AcDbEntity
8
0
100
AcDbLine
62
7
6
CONTINUOUS
10
85.2878622876
20
213.9876114973
11
85.4328764926
21
197.3706294989
0
LINE
5
211
100
AcDbEntity
8
0
100
AcDbLine
62
7
6
CONTINUOUS
10
85.9279877426
20
210.0960938589
11
85.9279877426
21
209.5960938589
0
POLYLINE
5
212
100
AcDbEntity
8
0
100
AcDb2dPolyline
6
CONTINUOUS
66
1
70
0
0
VERTEX
5
213
100
AcDbEntity
8
0
100
AcDbVertex
6
CONTINUOUS
100
AcDb2dVertex
10
82.3007275075
20
197.3706294989
0
VERTEX
5
214
100
AcDbEntity
8
0
100
AcDbVertex
6
CONTINUOUS
100
AcDb2dVertex
10
82.2940524694
20
197.3517915801
0
VERTEX
5
215
100
AcDbEntity
8
0
100
AcDbVertex
6
CONTINUOUS
100
AcDb2dVertex
10
82.2876339496
20
197.2960017541
0
VERTEX
5
216
100
AcDbEntity
8
0
100
AcDbVertex
6
CONTINUOUS
100
AcDb2dVertex
10
82.2817186083
20
197.2054039928
0
VERTEX
5
217
100
AcDbEntity
8
0
100
AcDbVertex
6
CONTINUOUS
100
AcDb2dVertex
10
82.2765337687
20
197.0834799172
0
VERTEX
5
218
100
AcDbEntity
8
0
100
AcDbVertex
6
CONTINUOUS
100
AcDb2dVertex
10
82.2722786814
20
196.9349150009
0
VERTEX
5
219
100
AcDbEntity
8
0
100
AcDbVertex
6
CONTINUOUS
100
AcDb2dVertex
10
82.2691168658
20
196.7654185103
0
VERTEX
5
21A
100
AcDbEntity
8
0
100
AcDbVertex
6
CONTINUOUS
100
AcDb2dVertex
10
82.2671698273
20
196.5815041005
0
VERTEX
5
21B
100
AcDbEntity
8
0
100
AcDbVertex
6
CONTINUOUS
100
AcDb2dVertex
10
82.2665123899
20
196.3902394989
0
SEQEND
5
21C
100
AcDbEntity
8
0
0
LINE
5
21D
100
AcDbEntity
8
0
100
AcDbLine
62
7
6
CONTINUOUS
10
88.2936385992
20
197.3706294989
11
82.7936788400
21
234.8832722925
0
POLYLINE
5
21E
100
AcDbEntity
8
0
100
AcDb2dPolyline
6
CONTINUOUS
66
1
70
0
0
VERTEX
5
21F
100
AcDbEntity
8
0
100
AcDbVertex
6
CONTINUOUS
100
AcDb2dVertex
10
111.0455652426
20
169.4981417989
0
VERTEX
5
220
100
AcDbEntity
8
0
100
AcDbVertex
6
CONTINUOUS
100
AcDb2dVertex
10
111.0644031615
20
169.4690459802
0
VERTEX
5
221
100
AcDbEntity
8
0
100
AcDbVertex
6
CONTINUOUS
100
AcDb2dVertex
10
111.1201929877
20
169.4410682975
0
VERTEX
5
222
100
AcDbEntity
8
0
100
AcDbVertex
6
CONTINUOUS
100
AcDb2dVertex
10
111.2107907494
20
169.4152839174
0
VERTEX
5
223
100
AcDbEntity
8
0
100
AcDbVertex
6
CONTINUOUS
100
AcDb2dVertex
10
111.3327148254
20
169.3926837192
0
VERTEX
5
224
100
AcDbEntity
8
0
100
AcDbVertex
6
CONTINUOUS
100
AcDb2dVertex
10
111.4812797418
20
169.3741362159
0
VERTEX
5
225
100
AcDbEntity
8
0
100
AcDbVertex
6
CONTINUOUS
100
AcDb2dVertex
10
111.6507762323
20
169.3603541776
0
VERTEX
5
226
100
AcDbEntity
8
0
100
AcDbVertex
6
CONTINUOUS
100
AcDb2dVertex
10
111.8346906418
20
169.3518672404
0
VERTEX
5
227
100
AcDbEntity
8
0
100
AcDbVertex
6
CONTINUOUS
100
AcDb2dVertex
10
112.0259552426
20
169.3490015523
0
SEQEND
5
228
100
AcDbEntity
8
0
0
POLYLINE
5
229
100
AcDbEntity
8
0
100
AcDb2dPolyline
6
CONTINUOUS
66
1
70
0
0
VERTEX
5
22A
100
AcDbEntity
8
0
100
AcDbVertex
6
CONTINUOUS
100
AcDb2dVertex
10
111.0455652426
20
171.0133802473
0
VERTEX
5
22B
100
AcDbEntity
8
0
100
AcDbVertex
6
CONTINUOUS
100
AcDb2dVertex
10
111.0574867819
20
170.9901928341
0
VERTEX
5
22C
100
AcDbEntity
8
0
100
AcDbVertex
6
CONTINUOUS
100
AcDb2dVertex
10
111.0930972664
20
170.9675053856
0
VERTEX
5
22D
100
AcDbEntity
8
0
100
AcDbVertex
6
CONTINUOUS
100
AcDb2dVertex
10
111.1517756955
20
170.9458651067
0
VERTEX
5
22E
100
AcDbEntity
8
0
100
AcDbVertex
6
CONTINUOUS
100
AcDb2dVertex
10
111.2321200966
20
170.9258609896
0
VERTEX
5
22F
100
AcDbEntity
8
0
100
AcDbVertex
6
CONTINUOUS
100
AcDb2dVertex
10
111.3319929182
20
170.9080321011
0
VERTEX
5
230
100
AcDbEntity
8
0
100
AcDbVertex
6
CONTINUOUS
100
AcDb2dVertex
10
111.4489978515
20
170.8928005378
0
VERTEX
5
231
100
AcDbEntity
8
0
100
AcDbVertex
6
CONTINUOUS
100
AcDb2dVertex
10
111.5802829867
20
170.8805406579
0
VERTEX
5
232
100
AcDbEntity
8
0
100
AcDbVertex
6
CONTINUOUS
100
AcDb2dVertex
10
111.7225873890
20
170.8715597583
0
VERTEX
5
233
100
AcDbEntity
8
0
100
AcDbVertex
6
CONTINUOUS
100
AcDb2dVertex
10
111.8723752087
20
170.8660813063
0
VERTEX
5
234
100
AcDbEntity
8
0
100
AcDbVertex
6
CONTINUOUS
100
AcDb2dVertex
10
112.0259552426
20
170.8642400007
0
SEQEND
5
235
100
AcDbEntity
8
0
0
POLYLINE
5
236
100
AcDbEntity
8
0
100
AcDb2dPolyline
6
CONTINUOUS
66
1
70
0
0
VERTEX
5
237
100
AcDbEntity
8
0
100
AcDbVertex
6
CONTINUOUS
100
AcDb2dVertex
10
166.8297562426
20
169.3490015523
0
VERTEX
5
238
100
AcDbEntity
8
0
100
AcDbVertex
6
CONTINUOUS
100
AcDb2dVertex
10
167.0210208434
20
169.3518672404
0
VERTEX
5
239
100
AcDbEntity
8
0
100
AcDbVertex
6
CONTINUOUS
100
AcDb2dVertex
10
167.2049352529
20
169.3603541776
0
VERTEX
5
23A
100
AcDbEntity
8
0
100
AcDbVertex
6
CONTINUOUS
100
AcDb2dVertex
10
167.3744317433
20
169.3741362159
0
VERTEX
5
23B
100
AcDbEntity
8
0
100
AcDbVertex
6
CONTINUOUS
100
AcDb2dVertex
10
167.5229966598
20
169.3926837192
0
VERTEX
5
23C
100
AcDbEntity
8
0
100
AcDbVertex
6
CONTINUOUS
100
AcDb2dVertex
10
167.6449207358
20
169.4152839174
0
VERTEX
5
23D
100
AcDbEntity
8
0
100
AcDbVertex
6
CONTINUOUS
100
AcDb2dVertex
10
167.7355184975
20
169.4410682975
0
VERTEX
5
23E
100
AcDbEntity
8
0
100
AcDbVertex
6
CONTINUOUS
100
AcDb2dVertex
10
167.7913083236
20
169.4690459802
0
VERTEX
5
23F
100
AcDbEntity
8
0
100
AcDbVertex
6
CONTINUOUS
100
AcDb2dVertex
10
167.8101462426
20
169.4981417989
0
SEQEND
5
240
100
AcDbEntity
8
0
0
LINE
5
241
100
AcDbEntity
8
0
100
AcDbLine
62
7
6
CONTINUOUS
10
166.8297562426
20
168.5177517989
11
151.0170964826
21
168.5177517989
0
LINE
5
242
100
AcDbEntity
8
0
100
AcDbLine
62
7
6
CONTINUOUS
10
127.8386150026
20
168.5177517989
11
112.0259552426
21
168.5177517989
0
LINE
5
243
100
AcDbEntity
8
0
100
AcDbLine
6
CONTINUOUS
10
166.8297562426
20
169.3490015523
11
151.0098422759
21
169.3490015523
0
LINE
5
244
100
AcDbEntity
8
0
100
AcDbLine
6
CONTINUOUS
10
127.8458692093
20
169.3490015523
11
112.0259552426
21
169.3490015523
0
LINE
5
245
100
AcDbEntity
8
0
100
AcDbLine
62
7
6
CONTINUOUS
10
111.0455652426
20
169.4981417989
11
111.0455652426
21
171.5863724989
0
LINE
5
246
100
AcDbEntity
8
0
100
AcDbLine
6
CONTINUOUS
10
112.0259552426
20
168.5177517989
11
112.0259552426
21
172.5667624989
0
POLYLINE
5
247
100
AcDbEntity
8
0
100
AcDb2dPolyline
6
CONTINUOUS
66
1
70
0
0
VERTEX
5
248
100
AcDbEntity
8
0
100
AcDbVertex
6
CONTINUOUS
100
AcDb2dVertex
10
122.5749516426
20
171.8624228929
0
VERTEX
5
249
100
AcDbEntity
8
0
100
AcDbVertex
6
CONTINUOUS
100
AcDb2dVertex
10
122.7662132865
20
171.8787364984
0
VERTEX
5
24A
100
AcDbEntity
8
0
100
AcDbVertex
6
CONTINUOUS
100
AcDb2dVertex
10
122.9501257096
20
171.9270506403
0
VERTEX
5
24B
100
AcDbEntity
8
0
100
AcDbVertex
6
CONTINUOUS
100
AcDb2dVertex
10
123.1196212427
20
172.0055089619
0
VERTEX
5
24C
100
AcDbEntity
8
0
100
AcDbVertex
6
CONTINUOUS
100
AcDb2dVertex
10
123.2681864139
20
172.1110968340
0
VERTEX
5
24D
100
AcDbEntity
8
0
100
AcDbVertex
6
CONTINUOUS
100
AcDb2dVertex
10
123.3901118049
20
172.2397571015
0
VERTEX
5
24E
100
AcDbEntity
8
0
100
AcDbVertex
6
CONTINUOUS
100
AcDb2dVertex
10
123.4807114221
20
172.3865458059
0
VERTEX
5
24F
100
AcDbEntity
8
0
100
AcDbVertex
6
CONTINUOUS
100
AcDb2dVertex
10
123.5365029719
20
172.5458222603
0
SEQEND
5
250
100
AcDbEntity
8
0
0
POLYLINE
5
251
100
AcDbEntity
8
0
100
AcDb2dPolyline
6
CONTINUOUS
66
1
70
0
0
VERTEX
5
252
100
AcDbEntity
8
0
100
AcDbVertex
6
CONTINUOUS
100
AcDb2dVertex
10
122.5749516426
20
172.4354151445
0
VERTEX
5
253
100
AcDbEntity
8
0
100
AcDbVertex
6
CONTINUOUS
100
AcDb2dVertex
10
122.7662162434
20
172.4517292609
0
VERTEX
5
254
100
AcDbEntity
8
0
100
AcDbVertex
6
CONTINUOUS
100
AcDb2dVertex
10
122.9501306529
20
172.5000446676
0
VERTEX
5
255
100
AcDbEntity
8
0
100
AcDbVertex
6
CONTINUOUS
100
AcDb2dVertex
10
123.1196271433
20
172.5785046308
0
VERTEX
5
256
100
AcDbEntity
8
0
100
AcDbVertex
6
CONTINUOUS
100
AcDb2dVertex
10
123.2681920598
20
172.6840939779
0
VERTEX
5
257
100
AcDbEntity
8
0
100
AcDbVertex
6
CONTINUOUS
100
AcDb2dVertex
10
123.3901161358
20
172.8127549697
0
VERTEX
5
258
100
AcDbEntity
8
0
100
AcDbVertex
6
CONTINUOUS
100
AcDb2dVertex
10
123.4807138975
20
172.9595432363
0
SEQEND
5
259
100
AcDbEntity
8
0
0
LINE
5
25A
100
AcDbEntity
8
0
100
AcDbLine
6
CONTINUOUS
10
112.0259552426
20
170.8642400007
11
122.5749516426
21
170.8642400007
0
LINE
5
25B
100
AcDbEntity
8
0
100
AcDbLine
6
CONTINUOUS
10
156.2807595742
20
170.8642400007
11
166.8297562426
21
170.8642400007
0
LINE
5
25C
100
AcDbEntity
8
0
100
AcDbLine
6
CONTINUOUS
10
112.0259552426
20
171.8624228929
11
122.5749516426
21
171.8624228929
0
LINE
5
25D
100
AcDbEntity
8
0
100
AcDbLine
6
CONTINUOUS
10
156.2807598426
20
171.8624228929
11
166.8297562426
21
171.8624228929
0
LINE
5
25E
100
AcDbEntity
8
0
100
AcDbLine
6
CONTINUOUS
10
166.8297562426
20
172.4354151445
11
156.2807598426
21
172.4354151445
0
LINE
5
25F
100
AcDbEntity
8
0
100
AcDbLine
6
CONTINUOUS
10
122.5749516426
20
172.4354151445
11
112.0259552426
21
172.4354151445
0
LINE
5
260
100
AcDbEntity
8
0
100
AcDbLine
62
7
6
CONTINUOUS
10
166.8297562426
20
172.5667624989
11
156.2807598426
21
172.5667624989
0
LINE
5
261
100
AcDbEntity
8
0
100
AcDbLine
62
7
6
CONTINUOUS
10
122.5749516426
20
172.5667624989
11
112.0259552426
21
172.5667624989
0
POLYLINE
5
262
100
AcDbEntity
8
0
100
AcDb2dPolyline
6
CONTINUOUS
66
1
70
0
0
VERTEX
5
263
100
AcDbEntity
8
0
100
AcDbVertex
6
CONTINUOUS
100
AcDb2dVertex
10
156.2807598426
20
171.8624228929
0
VERTEX
5
264
100
AcDbEntity
8
0
100
AcDbVertex
6
CONTINUOUS
100
AcDb2dVertex
10
156.0894952418
20
171.8787370093
0
VERTEX
5
265
100
AcDbEntity
8
0
100
AcDbVertex
6
CONTINUOUS
100
AcDb2dVertex
10
155.9055808323
20
171.9270524160
0
VERTEX
5
266
100
AcDbEntity
8
0
100
AcDbVertex
6
CONTINUOUS
100
AcDb2dVertex
10
155.7360843418
20
172.0055123792
0
VERTEX
5
267
100
AcDbEntity
8
0
100
AcDbVertex
6
CONTINUOUS
100
AcDb2dVertex
10
155.5875194254
20
172.1111017263
0
VERTEX
5
268
100
AcDbEntity
8
0
100
AcDbVertex
6
CONTINUOUS
100
AcDb2dVertex
10
155.4655953494
20
172.2397627181
0
VERTEX
5
269
100
AcDbEntity
8
0
100
AcDbVertex
6
CONTINUOUS
100
AcDb2dVertex
10
155.3749975877
20
172.3865509847
0
VERTEX
5
26A
100
AcDbEntity
8
0
100
AcDbVertex
6
CONTINUOUS
100
AcDb2dVertex
10
155.3192077615
20
172.5458255354
0
SEQEND
5
26B
100
AcDbEntity
8
0
0
POLYLINE
5
26C
100
AcDbEntity
8
0
100
AcDb2dPolyline
6
CONTINUOUS
66
1
70
0
0
VERTEX
5
26D
100
AcDbEntity
8
0
100
AcDbVertex
6
CONTINUOUS
100
AcDb2dVertex
10
156.2807598426
20
172.4354151445
0
VERTEX
5
26E
100
AcDbEntity
8
0
100
AcDbVertex
6
CONTINUOUS
100
AcDb2dVertex
10
156.0894957258
20
172.4517291777
0
VERTEX
5
26F
100
AcDbEntity
8
0
100
AcDbVertex
6
CONTINUOUS
100
AcDb2dVertex
10
155.9055816423
20
172.5000443773
0
VERTEX
5
270
100
AcDbEntity
8
0
100
AcDbVertex
6
CONTINUOUS
100
AcDb2dVertex
10
155.7360853102
20
172.5785040707
0
VERTEX
5
271
100
AcDbEntity
8
0
100
AcDbVertex
6
CONTINUOUS
100
AcDb2dVertex
10
155.5875203533
20
172.6840931746
0
VERTEX
5
272
100
AcDbEntity
8
0
100
AcDbVertex
6
CONTINUOUS
100
AcDb2dVertex
10
155.4655960620
20
172.8127540463
0
VERTEX
5
273
100
AcDbEntity
8
0
100
AcDbVertex
6
CONTINUOUS
100
AcDb2dVertex
10
155.3749979955
20
172.9595423840
0
SEQEND
5
274
100
AcDbEntity
8
0
0
POLYLINE
5
275
100
AcDbEntity
8
0
100
AcDb2dPolyline
6
CONTINUOUS
66
1
70
0
0
VERTEX
5
276
100
AcDbEntity
8
0
100
AcDbVertex
6
CONTINUOUS
100
AcDb2dVertex
10
111.0455652426
20
171.5863724989
0
VERTEX
5
277
100
AcDbEntity
8
0
100
AcDbVertex
6
CONTINUOUS
100
AcDb2dVertex
10
111.0574083676
20
171.7179442561
0
VERTEX
5
278
100
AcDbEntity
8
0
100
AcDbVertex
6
CONTINUOUS
100
AcDb2dVertex
10
111.0928789538
20
171.8469485790
0
VERTEX
5
279
100
AcDbEntity
8
0
100
AcDbVertex
6
CONTINUOUS
100
AcDb2dVertex
10
111.1515277826
20
171.9703072290
0
VERTEX
5
27A
100
AcDbEntity
8
0
100
AcDbVertex
6
CONTINUOUS
100
AcDb2dVertex
10
111.2319899909
20
172.0844566267
0
VERTEX
5
27B
100
AcDbEntity
8
0
100
AcDbVertex
6
CONTINUOUS
100
AcDb2dVertex
10
111.3320501619
20
172.1861601433
0
VERTEX
5
27C
100
AcDbEntity
8
0
100
AcDbVertex
6
CONTINUOUS
100
AcDb2dVertex
10
111.4493022791
20
172.2730142788
0
VERTEX
5
27D
100
AcDbEntity
8
0
100
AcDbVertex
6
CONTINUOUS
100
AcDb2dVertex
10
111.5808881787
20
172.3428841615
0
VERTEX
5
27E
100
AcDbEntity
8
0
100
AcDbVertex
6
CONTINUOUS
100
AcDb2dVertex
10
111.7233544905
20
172.3939602667
0
SEQEND
5
27F
100
AcDbEntity
8
0
0
POLYLINE
5
280
100
AcDbEntity
8
0
100
AcDb2dPolyline
6
CONTINUOUS
66
1
70
0
0
VERTEX
5
281
100
AcDbEntity
8
0
100
AcDbVertex
6
CONTINUOUS
100
AcDb2dVertex
10
111.0455652426
20
171.0133802473
0
VERTEX
5
282
100
AcDbEntity
8
0
100
AcDbVertex
6
CONTINUOUS
100
AcDb2dVertex
10
111.0576354704
20
171.1461997794
0
VERTEX
5
283
100
AcDbEntity
8
0
100
AcDbVertex
6
CONTINUOUS
100
AcDb2dVertex
10
111.0935489446
20
171.2757488538
0
SEQEND
5
284
100
AcDbEntity
8
0
0
POLYLINE
5
285
100
AcDbEntity
8
0
100
AcDb2dPolyline
6
CONTINUOUS
66
1
70
0
0
VERTEX
5
286
100
AcDbEntity
8
0
100
AcDbVertex
6
CONTINUOUS
100
AcDb2dVertex
10
111.7233544905
20
172.3939602667
0
VERTEX
5
287
100
AcDbEntity
8
0
100
AcDbVertex
6
CONTINUOUS
100
AcDb2dVertex
10
111.8729262251
20
172.4250082983
0
VERTEX
5
288
100
AcDbEntity
8
0
100
AcDbVertex
6
CONTINUOUS
100
AcDb2dVertex
10
112.0259552426
20
172.4354151445
0
SEQEND
5
289
100
AcDbEntity
8
0
0
LINE
5
28A
100
AcDbEntity
8
0
100
AcDbLine
6
CONTINUOUS
10
122.5749516426
20
172.5667624989
11
122.5749516426
21
170.8642400007
0
LINE
5
28B
100
AcDbEntity
8
0
100
AcDbLine
62
7
6
CONTINUOUS
10
123.5553416426
20
172.6702372583
11
123.5553416426
21
192.5656967141
0
LINE
5
28C
100
AcDbEntity
8
0
100
AcDbLine
62
7
6
CONTINUOUS
10
123.5553416426
20
192.8881413464
11
123.5553416426
21
193.3510304989
0
LINE
5
28D
100
AcDbEntity
8
0
100
AcDbLine
6
CONTINUOUS
10
123.7514196426
20
172.6404092052
11
123.7514123349
21
192.5358939396
0
LINE
5
28E
100
AcDbEntity
8
0
100
AcDbLine
62
7
6
CONTINUOUS
10
128.0553317426
20
193.3510304989
11
128.0553317426
21
196.3902394989
0
LINE
5
28F
100
AcDbEntity
8
0
100
AcDbLine
62
7
6
CONTINUOUS
10
127.8386150026
20
168.5177517989
11
128.0426101346
21
191.8932786111
0
LINE
5
290
100
AcDbEntity
8
0
100
AcDbLine
6
CONTINUOUS
10
123.5365029719
20
172.5458222603
11
123.5553416426
21
172.7114655386
0
POLYLINE
5
291
100
AcDbEntity
8
0
100
AcDb2dPolyline
6
CONTINUOUS
66
1
70
0
0
VERTEX
5
292
100
AcDbEntity
8
0
100
AcDbVertex
6
CONTINUOUS
100
AcDb2dVertex
10
111.0935489446
20
171.2757488538
0
VERTEX
5
293
100
AcDbEntity
8
0
100
AcDbVertex
6
CONTINUOUS
100
AcDb2dVertex
10
111.1524213563
20
171.3988375423
0
VERTEX
5
294
100
AcDbEntity
8
0
100
AcDbVertex
6
CONTINUOUS
100
AcDb2dVertex
10
111.2328030715
20
171.5124349930
0
VERTEX
5
295
100
AcDbEntity
8
0
100
AcDbVertex
6
CONTINUOUS
100
AcDb2dVertex
10
111.3327148254
20
171.6137440596
0
VERTEX
5
296
100
AcDbEntity
8
0
100
AcDbVertex
6
CONTINUOUS
100
AcDb2dVertex
10
111.4496964591
20
171.7002701766
0
VERTEX
5
297
100
AcDbEntity
8
0
100
AcDbVertex
6
CONTINUOUS
100
AcDb2dVertex
10
111.5808674966
20
171.7698827839
0
VERTEX
5
298
100
AcDbEntity
8
0
100
AcDbVertex
6
CONTINUOUS
100
AcDb2dVertex
10
111.7229980715
20
171.8208677881
0
VERTEX
5
299
100
AcDbEntity
8
0
100
AcDbVertex
6
CONTINUOUS
100
AcDb2dVertex
10
111.8725884574
20
171.8519697691
0
VERTEX
5
29A
100
AcDbEntity
8
0
100
AcDbVertex
6
CONTINUOUS
100
AcDb2dVertex
10
112.0259552426
20
171.8624228929
0
SEQEND
5
29B
100
AcDbEntity
8
0
0
POLYLINE
5
29C
100
AcDbEntity
8
0
100
AcDb2dPolyline
6
CONTINUOUS
66
1
70
0
0
VERTEX
5
29D
100
AcDbEntity
8
0
100
AcDbVertex
6
CONTINUOUS
100
AcDb2dVertex
10
123.4807138975
20
172.9595432363
0
VERTEX
5
29E
100
AcDbEntity
8
0
100
AcDbVertex
6
CONTINUOUS
100
AcDb2dVertex
10
123.5365037236
20
173.1188177870
0
VERTEX
5
29F
100
AcDbEntity
8
0
100
AcDbVertex
6
CONTINUOUS
100
AcDb2dVertex
10
123.5553416426
20
173.2844577902
0
SEQEND
5
2A0
100
AcDbEntity
8
0
0
LINE
5
2A1
100
AcDbEntity
8
0
100
AcDbLine
62
7
6
CONTINUOUS
10
198.4473337426
20
193.3510304989
11
156.2807598426
21
193.3510304989
0
LINE
5
2A2
100
AcDbEntity
8
0
100
AcDbLine
62
7
6
CONTINUOUS
10
122.5749516426
20
193.3510304989
11
80.4083777426
21
193.3510304989
0
LINE
5
2A3
100
AcDbEntity
8
0
100
AcDbLine
62
7
6
CONTINUOUS
10
123.5882030785
20
193.3510304989
11
155.2675245277
21
193.3510304989
0
LINE
5
2A4
100
AcDbEntity
8
0
100
AcDbLine
6
CONTINUOUS
10
199.4277237426
20
194.3314204989
11
156.2465448430
21
194.3314204989
0
LINE
5
2A5
100
AcDbEntity
8
0
100
AcDbLine
6
CONTINUOUS
10
122.6091666471
20
194.3314204989
11
79.4279877426
21
194.3314204989
0
LINE
5
2A6
100
AcDbEntity
8
0
100
AcDbLine
6
CONTINUOUS
10
79.4279877426
20
196.3902394989
11
199.4277237426
21
196.3902394989
0
LINE
5
2A7
100
AcDbEntity
8
0
100
AcDbLine
62
7
6
CONTINUOUS
10
80.4083777426
20
197.3706294989
11
198.4473337426
21
197.3706294989
0
POLYLINE
5
2A8
100
AcDbEntity
8
0
100
AcDb2dPolyline
6
CONTINUOUS
66
1
70
0
0
VERTEX
5
2A9
100
AcDbEntity
8
0
100
AcDbVertex
6
CONTINUOUS
100
AcDb2dVertex
10
80.4083777426
20
198.5757457517
0
VERTEX
5
2AA
100
AcDbEntity
8
0
100
AcDbVertex
6
CONTINUOUS
100
AcDb2dVertex
10
80.2171226001
20
198.5723454883
0
VERTEX
5
2AB
100
AcDbEntity
8
0
100
AcDbVertex
6
CONTINUOUS
100
AcDb2dVertex
10
80.0332145923
20
198.5622752040
0
VERTEX
5
2AC
100
AcDbEntity
8
0
100
AcDbVertex
6
CONTINUOUS
100
AcDb2dVertex
10
79.8637212649
20
198.5459216824
0
VERTEX
5
2AD
100
AcDbEntity
8
0
100
AcDbVertex
6
CONTINUOUS
100
AcDb2dVertex
10
79.7151556050
20
198.5239130575
0
VERTEX
5
2AE
100
AcDbEntity
8
0
100
AcDbVertex
6
CONTINUOUS
100
AcDb2dVertex
10
79.5932273261
20
198.4970947491
0
VERTEX
5
2AF
100
AcDbEntity
8
0
100
AcDbVertex
6
CONTINUOUS
100
AcDb2dVertex
10
79.5026235627
20
198.4664971038
0
VERTEX
5
2B0
100
AcDbEntity
8
0
100
AcDbVertex
6
CONTINUOUS
100
AcDb2dVertex
10
79.4468281191
20
198.4332957431
0
VERTEX
5
2B1
100
AcDbEntity
8
0
100
AcDbVertex
6
CONTINUOUS
100
AcDb2dVertex
10
79.4279877426
20
198.3987665920
0
SEQEND
5
2B2
100
AcDbEntity
8
0
0
LINE
5
2B3
100
AcDbEntity
8
0
100
AcDbLine
6
CONTINUOUS
10
88.2203305176
20
197.8706294989
11
190.6353809676
21
197.8706294989
0
LINE
5
2B4
100
AcDbEntity
8
0
100
AcDbLine
6
CONTINUOUS
10
80.4083777426
20
198.5757457517
11
85.4223596024
21
198.5757457517
0
LINE
5
2B5
100
AcDbEntity
8
0
100
AcDbLine
6
CONTINUOUS
10
193.4333518828
20
198.5757457517
11
198.4473337426
21
198.5757457517
0
POLYLINE
5
2B6
100
AcDbEntity
8
0
100
AcDb2dPolyline
6
CONTINUOUS
66
1
70
0
0
VERTEX
5
2B7
100
AcDbEntity
8
0
100
AcDbVertex
6
CONTINUOUS
100
AcDb2dVertex
10
198.4473337426
20
198.5757457517
0
VERTEX
5
2B8
100
AcDbEntity
8
0
100
AcDbVertex
6
CONTINUOUS
100
AcDb2dVertex
10
198.6385983434
20
198.5723451467
0
VERTEX
5
2B9
100
AcDbEntity
8
0
100
AcDbVertex
6
CONTINUOUS
100
AcDb2dVertex
10
198.8225127529
20
198.5622740149
0
VERTEX
5
2BA
100
AcDbEntity
8
0
100
AcDbVertex
6
CONTINUOUS
100
AcDb2dVertex
10
198.9920092433
20
198.5459193844
0
VERTEX
5
2BB
100
AcDbEntity
8
0
100
AcDbVertex
6
CONTINUOUS
100
AcDb2dVertex
10
199.1405741598
20
198.5239097545
0
VERTEX
5
2BC
100
AcDbEntity
8
0
100
AcDbVertex
6
CONTINUOUS
100
AcDb2dVertex
10
199.2624982358
20
198.4970909427
0
VERTEX
5
2BD
100
AcDbEntity
8
0
100
AcDbVertex
6
CONTINUOUS
100
AcDb2dVertex
10
199.3530959975
20
198.4664935811
0
VERTEX
5
2BE
100
AcDbEntity
8
0
100
AcDbVertex
6
CONTINUOUS
100
AcDb2dVertex
10
199.4088858236
20
198.4332935092
0
VERTEX
5
2BF
100
AcDbEntity
8
0
100
AcDbVertex
6
CONTINUOUS
100
AcDb2dVertex
10
199.4277237426
20
198.3987665869
0
SEQEND
5
2C0
100
AcDbEntity
8
0
0
LINE
5
2C1
100
AcDbEntity
8
0
100
AcDbLine
62
7
6
CONTINUOUS
10
193.4728003729
20
203.0960949789
11
191.4015186674
21
203.0960949789
0
LINE
5
2C2
100
AcDbEntity
8
0
100
AcDbLine
62
7
6
CONTINUOUS
10
87.4541928178
20
203.0960949789
11
85.3829111123
21
203.0960949789
0
LINE
5
2C3
100
AcDbEntity
8
0
100
AcDbLine
6
CONTINUOUS
10
85.3785476784
20
203.5960949789
11
87.3808847362
21
203.5960949789
0
LINE
5
2C4
100
AcDbEntity
8
0
100
AcDbLine
6
CONTINUOUS
10
191.4748267490
20
203.5960949789
11
193.4771638068
21
203.5960949789
0
LINE
5
2C5
100
AcDbEntity
8
0
100
AcDbLine
6
CONTINUOUS
10
192.9279877426
20
209.5960938589
11
192.3545235642
21
209.5960938589
0
LINE
5
2C6
100
AcDbEntity
8
0
100
AcDbLine
6
CONTINUOUS
10
86.5011879210
20
209.5960938589
11
85.9279877426
21
209.5960938589
0
LINE
5
2C7
100
AcDbEntity
8
0
100
AcDbLine
62
7
6
CONTINUOUS
10
192.3947749264
20
209.8706294989
11
86.4609365588
21
209.8706294989
0
LINE
5
2C8
100
AcDbEntity
8
0
100
AcDbLine
62
7
6
CONTINUOUS
10
193.5338884376
20
210.0960938589
11
192.4278316458
21
210.0960938589
0
LINE
5
2C9
100
AcDbEntity
8
0
100
AcDbLine
62
7
6
CONTINUOUS
10
85.3218230475
20
210.0960938589
11
86.4278798394
21
210.0960938589
0
POLYLINE
5
2CA
100
AcDbEntity
8
0
100
AcDb2dPolyline
6
CONTINUOUS
66
1
70
0
0
VERTEX
5
2CB
100
AcDbEntity
8
0
100
AcDbVertex
6
CONTINUOUS
100
AcDb2dVertex
10
155.3749979955
20
172.9595423840
0
VERTEX
5
2CC
100
AcDbEntity
8
0
100
AcDbVertex
6
CONTINUOUS
100
AcDb2dVertex
10
155.3192078855
20
173.1188172477
0
VERTEX
5
2CD
100
AcDbEntity
8
0
100
AcDbVertex
6
CONTINUOUS
100
AcDb2dVertex
10
155.3003698426
20
173.2844577902
0
SEQEND
5
2CE
100
AcDbEntity
8
0
0
LINE
5
2CF
100
AcDbEntity
8
0
100
AcDbLine
62
7
6
CONTINUOUS
10
151.0170964826
20
168.5177517989
11
150.8131013506
21
191.8932786111
0
LINE
5
2D0
100
AcDbEntity
8
0
100
AcDbLine
62
7
6
CONTINUOUS
10
150.8003797426
20
193.3510304989
11
150.8003797426
21
196.3902394989
0
LINE
5
2D1
100
AcDbEntity
8
0
100
AcDbLine
62
7
6
CONTINUOUS
10
83.0887222838
20
212.9832569811
11
85.2966271473
21
212.9832569811
0
LINE
5
2D2
100
AcDbEntity
8
0
100
AcDbLine
6
CONTINUOUS
10
192.9062643130
20
213.3592584145
11
85.9494471722
21
213.3592584145
0
LINE
5
2D3
100
AcDbEntity
8
0
100
AcDbLine
62
7
6
CONTINUOUS
10
194.5254387233
20
213.9875215974
11
193.5677354484
21
213.9875215974
0
LINE
5
2D4
100
AcDbEntity
8
0
100
AcDbLine
62
7
6
CONTINUOUS
10
84.3299359626
20
213.9875215974
11
85.2879760009
21
213.9875215974
0
LINE
5
2D5
100
AcDbEntity
8
0
100
AcDbLine
62
7
6
CONTINUOUS
10
195.7638659589
20
212.9832587607
11
193.5591170810
21
212.9870100486
0
LINE
5
2D6
100
AcDbEntity
8
0
100
AcDbLine
6
CONTINUOUS
10
155.3192077615
20
172.5458255354
11
155.3003698426
21
172.7114655386
0
LINE
5
2D7
100
AcDbEntity
8
0
100
AcDbLine
6
CONTINUOUS
10
155.1042991343
20
192.5358939033
11
155.1042918426
21
172.6404092052
0
LINE
5
2D8
100
AcDbEntity
8
0
100
AcDbLine
62
7
6
CONTINUOUS
10
155.3003698426
20
193.3510304989
11
155.3003698426
21
192.8881406774
0
LINE
5
2D9
100
AcDbEntity
8
0
100
AcDbLine
62
7
6
CONTINUOUS
10
155.3003698426
20
192.5656962973
11
155.3003698426
21
172.6702372576
0
LINE
5
2DA
100
AcDbEntity
8
0
100
AcDbLine
6
CONTINUOUS
10
156.2807598426
20
170.8642400007
11
156.2807598426
21
172.5667624989
0
POLYLINE
5
2DB
100
AcDbEntity
8
0
100
AcDb2dPolyline
6
CONTINUOUS
66
1
70
0
0
VERTEX
5
2DC
100
AcDbEntity
8
0
100
AcDbVertex
6
CONTINUOUS
100
AcDb2dVertex
10
167.8101462426
20
171.5863724989
0
VERTEX
5
2DD
100
AcDbEntity
8
0
100
AcDbVertex
6
CONTINUOUS
100
AcDb2dVertex
10
167.7980760148
20
171.7191920310
0
VERTEX
5
2DE
100
AcDbEntity
8
0
100
AcDbVertex
6
CONTINUOUS
100
AcDb2dVertex
10
167.7621625406
20
171.8487411054
0
VERTEX
5
2DF
100
AcDbEntity
8
0
100
AcDbVertex
6
CONTINUOUS
100
AcDb2dVertex
10
167.7032901288
20
171.9718297939
0
VERTEX
5
2E0
100
AcDbEntity
8
0
100
AcDbVertex
6
CONTINUOUS
100
AcDb2dVertex
10
167.6229084137
20
172.0854272446
0
VERTEX
5
2E1
100
AcDbEntity
8
0
100
AcDbVertex
6
CONTINUOUS
100
AcDb2dVertex
10
167.5229966598
20
172.1867363112
0
VERTEX
5
2E2
100
AcDbEntity
8
0
100
AcDbVertex
6
CONTINUOUS
100
AcDb2dVertex
10
167.4060150261
20
172.2732624282
0
VERTEX
5
2E3
100
AcDbEntity
8
0
100
AcDbVertex
6
CONTINUOUS
100
AcDb2dVertex
10
167.2748439886
20
172.3428750355
0
VERTEX
5
2E4
100
AcDbEntity
8
0
100
AcDbVertex
6
CONTINUOUS
100
AcDb2dVertex
10
167.1327134137
20
172.3938600397
0
VERTEX
5
2E5
100
AcDbEntity
8
0
100
AcDbVertex
6
CONTINUOUS
100
AcDb2dVertex
10
166.9831230278
20
172.4249620207
0
VERTEX
5
2E6
100
AcDbEntity
8
0
100
AcDbVertex
6
CONTINUOUS
100
AcDb2dVertex
10
166.8297562426
20
172.4354151445
0
SEQEND
5
2E7
100
AcDbEntity
8
0
0
POLYLINE
5
2E8
100
AcDbEntity
8
0
100
AcDb2dPolyline
6
CONTINUOUS
66
1
70
0
0
VERTEX
5
2E9
100
AcDbEntity
8
0
100
AcDbVertex
6
CONTINUOUS
100
AcDb2dVertex
10
167.8101462426
20
171.0133802473
0
VERTEX
5
2EA
100
AcDbEntity
8
0
100
AcDbVertex
6
CONTINUOUS
100
AcDb2dVertex
10
167.7982247033
20
171.1453842040
0
VERTEX
5
2EB
100
AcDbEntity
8
0
100
AcDbVertex
6
CONTINUOUS
100
AcDb2dVertex
10
167.7626142188
20
171.2745419047
0
VERTEX
5
2EC
100
AcDbEntity
8
0
100
AcDbVertex
6
CONTINUOUS
100
AcDb2dVertex
10
167.7039357897
20
171.3977381582
0
VERTEX
5
2ED
100
AcDbEntity
8
0
100
AcDbVertex
6
CONTINUOUS
100
AcDb2dVertex
10
167.6235913886
20
171.5116198832
0
VERTEX
5
2EE
100
AcDbEntity
8
0
100
AcDbVertex
6
CONTINUOUS
100
AcDb2dVertex
10
167.5237185670
20
171.6131182179
0
VERTEX
5
2EF
100
AcDbEntity
8
0
100
AcDbVertex
6
CONTINUOUS
100
AcDb2dVertex
10
167.4067136337
20
171.6998302023
0
VERTEX
5
2F0
100
AcDbEntity
8
0
100
AcDbVertex
6
CONTINUOUS
100
AcDb2dVertex
10
167.2754284985
20
171.7696246485
0
VERTEX
5
2F1
100
AcDbEntity
8
0
100
AcDbVertex
6
CONTINUOUS
100
AcDb2dVertex
10
167.1331240961
20
171.8207521400
0
VERTEX
5
2F2
100
AcDbEntity
8
0
100
AcDbVertex
6
CONTINUOUS
100
AcDb2dVertex
10
166.9833362764
20
171.8519404980
0
VERTEX
5
2F3
100
AcDbEntity
8
0
100
AcDbVertex
6
CONTINUOUS
100
AcDb2dVertex
10
166.8297562426
20
171.8624228929
0
SEQEND
5
2F4
100
AcDbEntity
8
0
0
LINE
5
2F5
100
AcDbEntity
8
0
100
AcDbLine
6
CONTINUOUS
10
166.8297562426
20
168.5177517989
11
166.8297562426
21
172.5667624989
0
LINE
5
2F6
100
AcDbEntity
8
0
100
AcDbLine
62
7
6
CONTINUOUS
10
167.8101462426
20
171.5863724989
11
167.8101462426
21
169.4981417989
0
LINE
5
2F7
100
AcDbEntity
8
0
100
AcDbLine
6
CONTINUOUS
10
195.4645968100
20
230.8084430107
11
83.3911146752
21
230.8084430107
0
LINE
5
2F8
100
AcDbEntity
8
0
100
AcDbLine
62
7
6
CONTINUOUS
10
196.0584503265
20
234.8835467561
11
82.7972611587
21
234.8835467561
0
POLYLINE
5
2F9
100
AcDbEntity
8
0
100
AcDb2dPolyline
6
CONTINUOUS
66
1
70
0
0
VERTEX
5
2FA
100
AcDbEntity
8
0
100
AcDbVertex
6
CONTINUOUS
100
AcDb2dVertex
10
167.8101462426
20
171.0133802473
0
VERTEX
5
2FB
100
AcDbEntity
8
0
100
AcDbVertex
6
CONTINUOUS
100
AcDb2dVertex
10
167.7980760148
20
170.9900495726
0
VERTEX
5
2FC
100
AcDbEntity
8
0
100
AcDbVertex
6
CONTINUOUS
100
AcDb2dVertex
10
167.7621625406
20
170.9672933766
0
VERTEX
5
2FD
100
AcDbEntity
8
0
100
AcDbVertex
6
CONTINUOUS
100
AcDb2dVertex
10
167.7032901288
20
170.9456719922
0
VERTEX
5
2FE
100
AcDbEntity
8
0
100
AcDbVertex
6
CONTINUOUS
100
AcDb2dVertex
10
167.6229084137
20
170.9257178099
0
VERTEX
5
2FF
100
AcDbEntity
8
0
100
AcDbVertex
6
CONTINUOUS
100
AcDb2dVertex
10
167.5229966598
20
170.9079221676
0
VERTEX
5
300
100
AcDbEntity
8
0
100
AcDbVertex
6
CONTINUOUS
100
AcDb2dVertex
10
167.4060150261
20
170.8927232533
0
VERTEX
5
301
100
AcDbEntity
8
0
100
AcDbVertex
6
CONTINUOUS
100
AcDb2dVertex
10
167.2748439886
20
170.8804953146
0
VERTEX
5
302
100
AcDbEntity
8
0
100
AcDbVertex
6
CONTINUOUS
100
AcDb2dVertex
10
167.1327134137
20
170.8715394440
0
VERTEX
5
303
100
AcDbEntity
8
0
100
AcDbVertex
6
CONTINUOUS
100
AcDb2dVertex
10
166.9831230278
20
170.8660761647
0
VERTEX
5
304
100
AcDbEntity
8
0
100
AcDbVertex
6
CONTINUOUS
100
AcDb2dVertex
10
166.8297562426
20
170.8642400007
0
SEQEND
5
305
100
AcDbEntity
8
0
0
LINE
5
306
100
AcDbEntity
8
0
100
AcDbLine
62
7
6
CONTINUOUS
10
192.9279877426
20
209.5960938589
11
192.9279877426
21
210.0960938589
0
LINE
5
307
100
AcDbEntity
8
0
100
AcDbLine
62
7
6
CONTINUOUS
10
193.4228349926
20
197.3706294989
11
193.5678492067
21
213.9876125376
0
LINE
5
308
100
AcDbEntity
8
0
100
AcDbLine
62
7
6
CONTINUOUS
10
190.5620728860
20
197.3706294989
11
196.0620326452
21
234.8832722925
0
POLYLINE
5
309
100
AcDbEntity
8
0
100
AcDb2dPolyline
6
CONTINUOUS
66
1
70
0
0
VERTEX
5
30A
100
AcDbEntity
8
0
100
AcDbVertex
6
CONTINUOUS
100
AcDb2dVertex
10
196.5549839777
20
197.3706294989
0
VERTEX
5
30B
100
AcDbEntity
8
0
100
AcDbVertex
6
CONTINUOUS
100
AcDb2dVertex
10
196.5616587700
20
197.3517929524
0
VERTEX
5
30C
100
AcDbEntity
8
0
100
AcDbVertex
6
CONTINUOUS
100
AcDb2dVertex
10
196.5680771420
20
197.2960063235
0
VERTEX
5
30D
100
AcDbEntity
8
0
100
AcDbVertex
6
CONTINUOUS
100
AcDb2dVertex
10
196.5739924391
20
197.2054121685
0
VERTEX
5
30E
100
AcDbEntity
8
0
100
AcDbVertex
6
CONTINUOUS
100
AcDb2dVertex
10
196.5791773260
20
197.0834907845
0
VERTEX
5
30F
100
AcDbEntity
8
0
100
AcDbVertex
6
CONTINUOUS
100
AcDb2dVertex
10
196.5834325281
20
196.9349263993
0
VERTEX
5
310
100
AcDbEntity
8
0
100
AcDbVertex
6
CONTINUOUS
100
AcDb2dVertex
10
196.5865944735
20
196.7654280531
0
VERTEX
5
311
100
AcDbEntity
8
0
100
AcDbVertex
6
CONTINUOUS
100
AcDb2dVertex
10
196.5885416114
20
196.5815098142
0
SEQEND
5
312
100
AcDbEntity
8
0
0
LINE
5
313
100
AcDbEntity
8
0
100
AcDbLine
6
CONTINUOUS
10
196.5885416114
20
196.5815098142
11
196.5891990953
21
194.3314204989
0
LINE
5
314
100
AcDbEntity
8
0
100
AcDbLine
6
CONTINUOUS
10
198.4473337426
20
197.3706294989
11
198.4473337426
21
209.2625507623
0
LINE
5
315
100
AcDbEntity
8
0
100
AcDbLine
62
7
6
CONTINUOUS
10
199.4277237426
20
194.3314204989
11
199.4279877426
21
209.5960938589
0
POLYLINE
5
316
100
AcDbEntity
8
0
100
AcDb2dPolyline
6
CONTINUOUS
66
1
70
0
0
VERTEX
5
317
100
AcDbEntity
8
0
100
AcDbVertex
6
CONTINUOUS
100
AcDb2dVertex
10
196.5549839777
20
193.3510304989
0
VERTEX
5
318
100
AcDbEntity
8
0
100
AcDbVertex
6
CONTINUOUS
100
AcDb2dVertex
10
196.5616590158
20
193.3698684178
0
VERTEX
5
319
100
AcDbEntity
8
0
100
AcDbVertex
6
CONTINUOUS
100
AcDb2dVertex
10
196.5680775356
20
193.4256582437
0
VERTEX
5
31A
100
AcDbEntity
8
0
100
AcDbVertex
6
CONTINUOUS
100
AcDb2dVertex
10
196.5739928768
20
193.5162560050
0
VERTEX
5
31B
100
AcDbEntity
8
0
100
AcDbVertex
6
CONTINUOUS
100
AcDb2dVertex
10
196.5791777165
20
193.6381800807
0
VERTEX
5
31C
100
AcDbEntity
8
0
100
AcDbVertex
6
CONTINUOUS
100
AcDb2dVertex
10
196.5834328038
20
193.7867449969
0
VERTEX
5
31D
100
AcDbEntity
8
0
100
AcDbVertex
6
CONTINUOUS
100
AcDb2dVertex
10
196.5865946194
20
193.9562414875
0
VERTEX
5
31E
100
AcDbEntity
8
0
100
AcDbVertex
6
CONTINUOUS
100
AcDb2dVertex
10
196.5885416579
20
194.1401558974
0
VERTEX
5
31F
100
AcDbEntity
8
0
100
AcDbVertex
6
CONTINUOUS
100
AcDb2dVertex
10
196.5891990953
20
194.3314204989
0
SEQEND
5
320
100
AcDbEntity
8
0
0
LINE
5
321
100
AcDbEntity
8
0
100
AcDbLine
62
7
6
CONTINUOUS
10
323.1367876832
20
168.5177517989
11
296.9731603460
21
168.5177517989
0
LINE
5
322
100
AcDbEntity
8
0
100
AcDbLine
6
CONTINUOUS
10
323.1367876832
20
169.4981417989
11
296.9731603460
21
169.4981417989
0
LINE
5
323
100
AcDbEntity
8
0
100
AcDbLine
6
CONTINUOUS
10
296.0041806048
20
169.3490015523
11
296.9731603460
21
169.4981417989
0
LINE
5
324
100
AcDbEntity
8
0
100
AcDbLine
6
CONTINUOUS
10
296.7399428429
20
171.0133802473
11
295.7709631017
21
170.8642400007
0
LINE
5
325
100
AcDbEntity
8
0
100
AcDbLine
6
CONTINUOUS
10
322.3775534942
20
171.5863724989
11
297.7323945350
21
171.5863724989
0
LINE
5
326
100
AcDbEntity
8
0
100
AcDbLine
62
7
6
CONTINUOUS
10
322.3775534942
20
172.5667624989
11
297.7323945350
21
172.5667624989
0
LINE
5
327
100
AcDbEntity
8
0
100
AcDbLine
6
CONTINUOUS
10
297.7323945350
20
173.5471524989
11
322.3775534942
21
173.5471524989
0
LINE
5
328
100
AcDbEntity
8
0
100
AcDbLine
6
CONTINUOUS
10
323.1367876832
20
169.4981417989
11
324.1057674244
21
169.3490015523
0
LINE
5
329
100
AcDbEntity
8
0
100
AcDbLine
6
CONTINUOUS
10
323.3700051863
20
171.0133802473
11
324.3389849275
21
170.8642400007
0
LINE
5
32A
100
AcDbEntity
8
0
100
AcDbLine
6
CONTINUOUS
10
296.7399428429
20
171.0133802473
11
295.7595528429
21
172.7114655386
0
LINE
5
32B
100
AcDbEntity
8
0
100
AcDbLine
6
CONTINUOUS
10
295.6913804622
20
172.6702372545
11
295.4975845140
21
172.6404092052
0
LINE
5
32C
100
AcDbEntity
8
0
100
AcDbLine
6
CONTINUOUS
10
324.4185675670
20
172.6702372545
11
324.6123635152
21
172.6404092052
0
LINE
5
32D
100
AcDbEntity
8
0
100
AcDbLine
6
CONTINUOUS
10
297.7323945350
20
171.5863724989
11
296.7520045350
21
173.2844577902
0
LINE
5
32E
100
AcDbEntity
8
0
100
AcDbLine
6
CONTINUOUS
10
323.3700051863
20
171.0133802473
11
322.3775534942
21
171.5863724989
0
LINE
5
32F
100
AcDbEntity
8
0
100
AcDbLine
62
7
6
CONTINUOUS
10
292.3261427517
20
193.2455971982
11
296.0041806048
21
169.3490015523
0
LINE
5
330
100
AcDbEntity
8
0
100
AcDbLine
6
CONTINUOUS
10
292.6291743995
20
192.5656962973
11
295.6913804618
21
172.6702372576
0
LINE
5
331
100
AcDbEntity
8
0
100
AcDbLine
62
7
6
CONTINUOUS
10
292.3099150146
20
193.3510304989
11
292.3099150146
21
196.3902394989
0
LINE
5
332
100
AcDbEntity
8
0
100
AcDbLine
6
CONTINUOUS
10
293.4822816959
20
193.3510304989
11
293.4822816959
21
192.3706404989
0
LINE
5
333
100
AcDbEntity
8
0
100
AcDbLine
6
CONTINUOUS
10
293.9088958205
20
196.3902394989
11
293.9088958205
21
194.3314204989
0
LINE
5
334
100
AcDbEntity
8
0
100
AcDbLine
62
7
6
CONTINUOUS
10
303.9943328821
20
232.6817760539
11
294.6309609567
21
210.0542594780
0
LINE
5
335
100
AcDbEntity
8
0
100
AcDbLine
62
7
6
CONTINUOUS
10
323.8602001863
20
171.8624228929
11
322.8677484942
21
172.4354151445
0
LINE
5
336
100
AcDbEntity
8
0
100
AcDbLine
6
CONTINUOUS
10
323.3579434942
20
173.2844577902
11
324.3503951863
21
172.7114655386
0
LINE
5
337
100
AcDbEntity
8
0
100
AcDbLine
6
CONTINUOUS
10
296.7399428429
20
171.0133802473
11
296.9731603460
21
169.4981417989
0
LINE
5
338
100
AcDbEntity
8
0
100
AcDbLine
62
7
6
CONTINUOUS
10
294.5549740146
20
209.6718985638
11
294.5549740146
21
197.8706294989
0
LINE
5
339
100
AcDbEntity
8
0
100
AcDbLine
6
CONTINUOUS
10
296.8482741392
20
193.3510304989
11
296.8482741392
21
197.3706294989
0
LINE
5
33A
100
AcDbEntity
8
0
100
AcDbLine
6
CONTINUOUS
10
296.9731603460
20
168.5177517989
11
296.9731603460
21
169.4981417989
0
LINE
5
33B
100
AcDbEntity
8
0
100
AcDbLine
6
CONTINUOUS
10
297.7323945350
20
171.5863724989
11
297.7323945350
21
173.5471524989
0
LINE
5
33C
100
AcDbEntity
8
0
100
AcDbLine
6
CONTINUOUS
10
297.8689685848
20
197.3706294989
11
297.8689685808
21
196.3902395055
0
LINE
5
33D
100
AcDbEntity
8
0
100
AcDbLine
62
7
6
CONTINUOUS
10
299.3153940362
20
198.5757457517
11
301.9596675277
21
212.9832589471
0
LINE
5
33E
100
AcDbEntity
8
0
100
AcDbLine
6
CONTINUOUS
10
300.2796776705
20
198.3987665869
11
302.2410734238
21
209.0855715974
0
LINE
5
33F
100
AcDbEntity
8
0
100
AcDbLine
62
7
6
CONTINUOUS
10
305.3192598211
20
218.9657333476
11
310.0492680120
21
231.2878259616
0
POLYLINE
5
340
100
AcDbEntity
8
0
100
AcDb2dPolyline
6
CONTINUOUS
66
1
70
0
0
VERTEX
5
341
100
AcDbEntity
8
0
100
AcDbVertex
6
CONTINUOUS
100
AcDb2dVertex
10
294.8886885934
20
193.3510304989
0
VERTEX
5
342
100
AcDbEntity
8
0
100
AcDbVertex
6
CONTINUOUS
100
AcDb2dVertex
10
294.6975405062
20
193.3698684178
0
VERTEX
5
343
100
AcDbEntity
8
0
100
AcDbVertex
6
CONTINUOUS
100
AcDb2dVertex
10
294.5137381328
20
193.4256582437
0
VERTEX
5
344
100
AcDbEntity
8
0
100
AcDbVertex
6
CONTINUOUS
100
AcDb2dVertex
10
294.3443448952
20
193.5162560050
0
VERTEX
5
345
100
AcDbEntity
8
0
100
AcDbVertex
6
CONTINUOUS
100
AcDb2dVertex
10
294.1958704805
20
193.6381800807
0
VERTEX
5
346
100
AcDbEntity
8
0
100
AcDbVertex
6
CONTINUOUS
100
AcDb2dVertex
10
294.0740206771
20
193.7867449969
0
VERTEX
5
347
100
AcDbEntity
8
0
100
AcDbVertex
6
CONTINUOUS
100
AcDb2dVertex
10
293.9834781047
20
193.9562414875
0
VERTEX
5
348
100
AcDbEntity
8
0
100
AcDbVertex
6
CONTINUOUS
100
AcDb2dVertex
10
293.9277222639
20
194.1401558974
0
VERTEX
5
349
100
AcDbEntity
8
0
100
AcDbVertex
6
CONTINUOUS
100
AcDb2dVertex
10
293.9088958205
20
194.3314204989
0
SEQEND
5
34A
100
AcDbEntity
8
0
0
LINE
5
34B
100
AcDbEntity
8
0
100
AcDbLine
6
CONTINUOUS
10
303.5647922146
20
202.0765014989
11
303.5647922146
21
210.9845377692
0
LINE
5
34C
100
AcDbEntity
8
0
100
AcDbLine
62
7
6
CONTINUOUS
10
304.0549872146
20
210.5764827989
11
304.0549872146
21
202.0765014989
0
POLYLINE
5
34D
100
AcDbEntity
8
0
100
AcDb2dPolyline
6
CONTINUOUS
66
1
70
0
0
VERTEX
5
34E
100
AcDbEntity
8
0
100
AcDbVertex
6
CONTINUOUS
100
AcDb2dVertex
10
325.2212594358
20
193.3510304989
0
VERTEX
5
34F
100
AcDbEntity
8
0
100
AcDbVertex
6
CONTINUOUS
100
AcDb2dVertex
10
325.4124006282
20
193.3698670455
0
VERTEX
5
350
100
AcDbEntity
8
0
100
AcDbVertex
6
CONTINUOUS
100
AcDb2dVertex
10
325.5961988718
20
193.4256536744
0
VERTEX
5
351
100
AcDbEntity
8
0
100
AcDbVertex
6
CONTINUOUS
100
AcDb2dVertex
10
325.7655909059
20
193.5162478294
0
VERTEX
5
352
100
AcDbEntity
8
0
100
AcDbVertex
6
CONTINUOUS
100
AcDb2dVertex
10
325.9140666882
20
193.6381692133
0
VERTEX
5
353
100
AcDbEntity
8
0
100
AcDbVertex
6
CONTINUOUS
100
AcDb2dVertex
10
326.0359197408
20
193.7867335986
0
VERTEX
5
354
100
AcDbEntity
8
0
100
AcDbVertex
6
CONTINUOUS
100
AcDb2dVertex
10
326.1264659744
20
193.9562319448
0
VERTEX
5
355
100
AcDbEntity
8
0
100
AcDbVertex
6
CONTINUOUS
100
AcDb2dVertex
10
326.1822246297
20
194.1401501837
0
VERTEX
5
356
100
AcDbEntity
8
0
100
AcDbVertex
6
CONTINUOUS
100
AcDb2dVertex
10
326.2010522089
20
194.3314204989
0
SEQEND
5
357
100
AcDbEntity
8
0
0
LINE
5
358
100
AcDbEntity
8
0
100
AcDbLine
6
CONTINUOUS
10
326.6276663333
20
192.3706404989
11
293.4822816959
21
192.3706404989
0
LINE
5
359
100
AcDbEntity
8
0
100
AcDbLine
62
7
6
CONTINUOUS
10
326.6276663333
20
193.3510304989
11
293.4822816959
21
193.3510304989
0
LINE
5
35A
100
AcDbEntity
8
0
100
AcDbLine
62
7
6
CONTINUOUS
10
292.3125072597
20
193.3510304989
11
292.4670581316
21
193.3510304989
0
LINE
5
35B
100
AcDbEntity
8
0
100
AcDbLine
62
7
6
CONTINUOUS
10
327.6428898976
20
193.3510304989
11
327.7974542214
21
193.3510304989
0
LINE
5
35C
100
AcDbEntity
8
0
100
AcDbLine
6
CONTINUOUS
10
327.6098487387
20
194.3314204989
11
292.5000992907
21
194.3314204989
0
LINE
5
35D
100
AcDbEntity
8
0
100
AcDbLine
6
CONTINUOUS
10
304.5549740146
20
203.0960949789
11
304.5549740146
21
209.5960938589
0
LINE
5
35E
100
AcDbEntity
8
0
100
AcDbLine
6
CONTINUOUS
10
305.1334162146
20
210.5764827989
11
305.1334162146
21
211.6679860231
0
LINE
5
35F
100
AcDbEntity
8
0
100
AcDbLine
62
7
6
CONTINUOUS
10
305.4275332146
20
211.5440691430
11
305.4275332146
21
210.8705997989
0
LINE
5
360
100
AcDbEntity
8
0
100
AcDbLine
6
CONTINUOUS
10
306.0157584946
20
203.0960949789
11
306.0157584946
21
203.5960949789
0
LINE
5
361
100
AcDbEntity
8
0
100
AcDbLine
6
CONTINUOUS
10
306.5549740146
20
205.5960944989
11
306.5549740146
21
204.1353104989
0
LINE
5
362
100
AcDbEntity
8
0
100
AcDbLine
62
7
6
CONTINUOUS
10
307.0549806146
20
202.0765014989
11
307.0549740146
21
205.5960944989
0
LINE
5
363
100
AcDbEntity
8
0
100
AcDbLine
62
7
6
CONTINUOUS
10
307.0649740146
20
203.9472704989
11
307.0269312740
21
203.9092277583
0
LINE
5
364
100
AcDbEntity
8
0
100
AcDbLine
6
CONTINUOUS
10
292.6291702867
20
192.5657230186
11
292.4353765365
21
192.5358939033
0
LINE
5
365
100
AcDbEntity
8
0
100
AcDbLine
6
CONTINUOUS
10
292.3099150146
20
196.3902394989
11
297.8689685848
21
196.3902394989
0
LINE
5
366
100
AcDbEntity
8
0
100
AcDbLine
6
CONTINUOUS
10
322.2409794444
20
196.3902394989
11
327.8000330146
21
196.3902394989
0
LINE
5
367
100
AcDbEntity
8
0
100
AcDbLine
6
CONTINUOUS
10
327.4807777155
20
192.5657230391
11
327.6745714983
21
192.5358939397
0
LINE
5
368
100
AcDbEntity
8
0
100
AcDbLine
6
CONTINUOUS
10
299.3153940362
20
198.5757457517
11
300.2796776705
21
198.3987665869
0
LINE
5
369
100
AcDbEntity
8
0
100
AcDbLine
6
CONTINUOUS
10
307.5451756146
20
202.0765014989
11
307.5451756146
21
206.1941394989
0
LINE
5
36A
100
AcDbEntity
8
0
100
AcDbLine
6
CONTINUOUS
10
307.5549740144
20
206.1941394989
11
307.5549740142
21
206.5960944989
0
LINE
5
36B
100
AcDbEntity
8
0
100
AcDbLine
62
7
6
CONTINUOUS
10
314.7178751201
20
211.6565348635
11
316.1374100227
21
213.6838408052
0
LINE
5
36C
100
AcDbEntity
8
0
100
AcDbLine
6
CONTINUOUS
10
320.7945539930
20
198.5757457517
11
319.8302703645
21
198.3987665920
0
POLYLINE
5
36D
100
AcDbEntity
8
0
100
AcDb2dPolyline
6
CONTINUOUS
66
1
70
0
0
VERTEX
5
36E
100
AcDbEntity
8
0
100
AcDbVertex
6
CONTINUOUS
100
AcDb2dVertex
10
294.8886885934
20
197.3706294989
0
VERTEX
5
36F
100
AcDbEntity
8
0
100
AcDbVertex
6
CONTINUOUS
100
AcDb2dVertex
10
294.6975474010
20
197.3517929524
0
VERTEX
5
370
100
AcDbEntity
8
0
100
AcDbVertex
6
CONTINUOUS
100
AcDb2dVertex
10
294.5137491574
20
197.2960063235
0
VERTEX
5
371
100
AcDbEntity
8
0
100
AcDbVertex
6
CONTINUOUS
100
AcDb2dVertex
10
294.3443571233
20
197.2054121685
0
VERTEX
5
372
100
AcDbEntity
8
0
100
AcDbVertex
6
CONTINUOUS
100
AcDb2dVertex
10
294.1958813410
20
197.0834907845
0
VERTEX
5
373
100
AcDbEntity
8
0
100
AcDbVertex
6
CONTINUOUS
100
AcDb2dVertex
10
294.0740282884
20
196.9349263993
0
VERTEX
5
374
100
AcDbEntity
8
0
100
AcDbVertex
6
CONTINUOUS
100
AcDb2dVertex
10
293.9834820548
20
196.7654280531
0
VERTEX
5
375
100
AcDbEntity
8
0
100
AcDbVertex
6
CONTINUOUS
100
AcDb2dVertex
10
293.9277233995
20
196.5815098142
0
VERTEX
5
376
100
AcDbEntity
8
0
100
AcDbVertex
6
CONTINUOUS
100
AcDb2dVertex
10
293.9088958203
20
196.3902394989
0
SEQEND
5
377
100
AcDbEntity
8
0
0
LINE
5
378
100
AcDbEntity
8
0
100
AcDbLine
62
7
6
CONTINUOUS
10
293.2903050146
20
197.3706294989
11
297.8689685848
21
197.3706294989
0
LINE
5
379
100
AcDbEntity
8
0
100
AcDbLine
62
7
6
CONTINUOUS
10
322.2409794444
20
197.3706294989
11
326.8196430146
21
197.3706294989
0
POLYLINE
5
37A
100
AcDbEntity
8
0
100
AcDb2dPolyline
6
CONTINUOUS
66
1
70
0
0
VERTEX
5
37B
100
AcDbEntity
8
0
100
AcDbVertex
6
CONTINUOUS
100
AcDb2dVertex
10
325.2212594358
20
197.3706294989
0
VERTEX
5
37C
100
AcDbEntity
8
0
100
AcDbVertex
6
CONTINUOUS
100
AcDb2dVertex
10
325.4124075230
20
197.3517915801
0
VERTEX
5
37D
100
AcDbEntity
8
0
100
AcDbVertex
6
CONTINUOUS
100
AcDb2dVertex
10
325.5962098964
20
197.2960017541
0
VERTEX
5
37E
100
AcDbEntity
8
0
100
AcDbVertex
6
CONTINUOUS
100
AcDb2dVertex
10
325.7656031340
20
197.2054039928
0
VERTEX
5
37F
100
AcDbEntity
8
0
100
AcDbVertex
6
CONTINUOUS
100
AcDb2dVertex
10
325.9140775487
20
197.0834799172
0
VERTEX
5
380
100
AcDbEntity
8
0
100
AcDbVertex
6
CONTINUOUS
100
AcDb2dVertex
10
326.0359273521
20
196.9349150009
0
VERTEX
5
381
100
AcDbEntity
8
0
100
AcDbVertex
6
CONTINUOUS
100
AcDb2dVertex
10
326.1264699245
20
196.7654185103
0
VERTEX
5
382
100
AcDbEntity
8
0
100
AcDbVertex
6
CONTINUOUS
100
AcDb2dVertex
10
326.1822257653
20
196.5815041005
0
VERTEX
5
383
100
AcDbEntity
8
0
100
AcDbVertex
6
CONTINUOUS
100
AcDb2dVertex
10
326.2010522087
20
196.3902394989
0
SEQEND
5
384
100
AcDbEntity
8
0
0
LINE
5
385
100
AcDbEntity
8
0
100
AcDbLine
6
CONTINUOUS
10
312.5549740146
20
206.1941394989
11
312.5549740146
21
206.5960944989
0
LINE
5
386
100
AcDbEntity
8
0
100
AcDbLine
6
CONTINUOUS
10
312.5647724146
20
202.0765014989
11
312.5647724146
21
206.1941394989
0
LINE
5
387
100
AcDbEntity
8
0
100
AcDbLine
62
7
6
CONTINUOUS
10
313.0549674146
20
205.7039444989
11
313.0549674146
21
202.0765014989
0
LINE
5
388
100
AcDbEntity
8
0
100
AcDbLine
6
CONTINUOUS
10
313.5549740146
20
204.1353104989
11
313.5549740146
21
205.5960944989
0
LINE
5
389
100
AcDbEntity
8
0
100
AcDbLine
6
CONTINUOUS
10
314.0941895346
20
203.0960949789
11
314.0941895346
21
203.5960949789
0
LINE
5
38A
100
AcDbEntity
8
0
100
AcDbLine
62
7
6
CONTINUOUS
10
314.6824148146
20
211.5440691430
11
314.6824148146
21
210.8705997989
0
POLYLINE
5
38B
100
AcDbEntity
8
0
100
AcDb2dPolyline
6
CONTINUOUS
66
1
70
0
0
VERTEX
5
38C
100
AcDbEntity
8
0
100
AcDbVertex
6
CONTINUOUS
100
AcDb2dVertex
10
314.6824148146
20
210.8705997989
0
VERTEX
5
38D
100
AcDbEntity
8
0
100
AcDbVertex
6
CONTINUOUS
100
AcDb2dVertex
10
314.6880661903
20
210.8928279942
0
VERTEX
5
38E
100
AcDbEntity
8
0
100
AcDbVertex
6
CONTINUOUS
100
AcDb2dVertex
10
314.7048031381
20
210.9142019725
0
VERTEX
5
38F
100
AcDbEntity
8
0
100
AcDbVertex
6
CONTINUOUS
100
AcDb2dVertex
10
314.7319824666
20
210.9339003436
0
VERTEX
5
390
100
AcDbEntity
8
0
100
AcDbVertex
6
CONTINUOUS
100
AcDb2dVertex
10
314.7685596894
20
210.9511661104
0
VERTEX
5
391
100
AcDbEntity
8
0
100
AcDbVertex
6
CONTINUOUS
100
AcDb2dVertex
10
314.8131291644
20
210.9653357589
0
VERTEX
5
392
100
AcDbEntity
8
0
100
AcDbVertex
6
CONTINUOUS
100
AcDb2dVertex
10
314.8639781115
20
210.9758647577
0
VERTEX
5
393
100
AcDbEntity
8
0
100
AcDbVertex
6
CONTINUOUS
100
AcDb2dVertex
10
314.9191524344
20
210.9823484831
0
VERTEX
5
394
100
AcDbEntity
8
0
100
AcDbVertex
6
CONTINUOUS
100
AcDb2dVertex
10
314.9765318146
20
210.9845377692
0
SEQEND
5
395
100
AcDbEntity
8
0
0
LINE
5
396
100
AcDbEntity
8
0
100
AcDbLine
62
7
6
CONTINUOUS
10
325.6613906449
20
233.0306294989
11
318.9217198202
21
216.7435467561
0
LINE
5
397
100
AcDbEntity
8
0
100
AcDbLine
6
CONTINUOUS
10
313.0549674146
20
202.0765014989
11
312.5647724146
21
202.0765014996
0
LINE
5
398
100
AcDbEntity
8
0
100
AcDbLine
6
CONTINUOUS
10
304.0549872146
20
202.0765014989
11
303.5647922210
21
202.0765014996
0
LINE
5
399
100
AcDbEntity
8
0
100
AcDbLine
6
CONTINUOUS
10
307.0549806146
20
202.0765014989
11
307.5451756146
21
202.0765014989
0
LINE
5
39A
100
AcDbEntity
8
0
100
AcDbLine
6
CONTINUOUS
10
316.0549608146
20
202.0765014989
11
316.5451558146
21
202.0765014989
0
LINE
5
39B
100
AcDbEntity
8
0
100
AcDbLine
62
7
6
CONTINUOUS
10
304.5549740146
20
203.0960949789
11
307.0549806146
21
203.0960949789
0
LINE
5
39C
100
AcDbEntity
8
0
100
AcDbLine
62
7
6
CONTINUOUS
10
313.0549674146
20
203.0960949789
11
315.5549740146
21
203.0960949789
0
LINE
5
39D
100
AcDbEntity
8
0
100
AcDbLine
6
CONTINUOUS
10
316.0549740146
20
203.5960949789
11
314.0941895346
21
203.5960949789
0
LINE
5
39E
100
AcDbEntity
8
0
100
AcDbLine
6
CONTINUOUS
10
304.0549740146
20
203.5960949789
11
306.0157584946
21
203.5960949789
0
LINE
5
39F
100
AcDbEntity
8
0
100
AcDbLine
6
CONTINUOUS
10
306.9003903250
20
203.5960949789
11
307.0549806146
21
203.5960949789
0
LINE
5
3A0
100
AcDbEntity
8
0
100
AcDbLine
6
CONTINUOUS
10
313.0549674146
20
203.5960949789
11
313.2058115070
21
203.5960949789
0
LINE
5
3A1
100
AcDbEntity
8
0
100
AcDbLine
6
CONTINUOUS
10
307.0549740146
20
204.1353104989
11
306.5549740146
21
204.1353104989
0
LINE
5
3A2
100
AcDbEntity
8
0
100
AcDbLine
6
CONTINUOUS
10
313.0549740146
20
204.1353104989
11
313.5549740146
21
204.1353104989
0
LINE
5
3A3
100
AcDbEntity
8
0
100
AcDbLine
62
7
6
CONTINUOUS
10
313.0830167519
20
203.9092277616
11
313.0449740146
21
203.9472704989
0
LINE
5
3A4
100
AcDbEntity
8
0
100
AcDbLine
62
7
6
CONTINUOUS
10
305.3920729091
20
211.6565348635
11
303.9725380065
21
213.6838408052
0
LINE
5
3A5
100
AcDbEntity
8
0
100
AcDbLine
6
CONTINUOUS
10
314.9765318146
20
210.5764827989
11
314.9765318146
21
211.6681315767
0
LINE
5
3A6
100
AcDbEntity
8
0
100
AcDbLine
6
CONTINUOUS
10
315.5549740146
20
203.0960949789
11
315.5549740146
21
209.5960938589
0
LINE
5
3A7
100
AcDbEntity
8
0
100
AcDbLine
62
7
6
CONTINUOUS
10
316.0549608146
20
210.5764827989
11
316.0549608146
21
202.0765014989
0
LINE
5
3A8
100
AcDbEntity
8
0
100
AcDbLine
6
CONTINUOUS
10
316.5451558146
20
202.0765014989
11
316.5451558146
21
210.9845377692
0
LINE
5
3A9
100
AcDbEntity
8
0
100
AcDbLine
6
CONTINUOUS
10
307.0549740146
20
205.5960944989
11
306.5549740146
21
205.5960944989
0
LINE
5
3AA
100
AcDbEntity
8
0
100
AcDbLine
6
CONTINUOUS
10
313.0549740146
20
205.5960944989
11
313.5549740145
21
205.5960944984
0
LINE
5
3AB
100
AcDbEntity
8
0
100
AcDbLine
6
CONTINUOUS
10
313.0549674146
20
205.7039444989
11
307.0549806146
21
205.7039444989
0
LINE
5
3AC
100
AcDbEntity
8
0
100
AcDbLine
6
CONTINUOUS
10
312.5549740146
20
206.5960944989
11
307.5549740146
21
206.5960944989
0
LINE
5
3AD
100
AcDbEntity
8
0
100
AcDbLine
62
7
6
CONTINUOUS
10
324.5360567306
20
213.3592584145
11
331.2341711378
21
230.8084430107
0
LINE
5
3AE
100
AcDbEntity
8
0
100
AcDbLine
6
CONTINUOUS
10
318.8331582396
20
209.2625507623
11
317.8688746054
21
209.0855715974
0
LINE
5
3AF
100
AcDbEntity
8
0
100
AcDbLine
6
CONTINUOUS
10
302.2410734238
20
209.0855715974
11
304.0549872146
21
209.0855715974
0
LINE
5
3B0
100
AcDbEntity
8
0
100
AcDbLine
6
CONTINUOUS
10
316.0549608146
20
209.0855715974
11
317.8688746054
21
209.0855715974
0
LINE
5
3B1
100
AcDbEntity
8
0
100
AcDbLine
6
CONTINUOUS
10
304.5549740146
20
209.5960938589
11
315.5549740146
21
209.5960938589
0
LINE
5
3B2
100
AcDbEntity
8
0
100
AcDbLine
6
CONTINUOUS
10
301.2767897896
20
209.2625507623
11
302.2410734230
21
209.0855715931
0
LINE
5
3B3
100
AcDbEntity
8
0
100
AcDbLine
6
CONTINUOUS
10
317.8688746054
20
209.0855715974
11
319.8302703587
21
198.3987665869
0
LINE
5
3B4
100
AcDbEntity
8
0
100
AcDbLine
6
CONTINUOUS
10
322.2409794444
20
197.3706294989
11
322.2409794444
21
196.3902394989
0
LINE
5
3B5
100
AcDbEntity
8
0
100
AcDbLine
6
CONTINUOUS
10
322.3775534942
20
171.5863724989
11
322.3775534942
21
173.5471524989
0
LINE
5
3B6
100
AcDbEntity
8
0
100
AcDbLine
62
7
6
CONTINUOUS
10
304.0549740146
20
210.0960938589
11
316.0549740146
21
210.0960938589
0
LINE
5
3B7
100
AcDbEntity
8
0
100
AcDbLine
62
7
6
CONTINUOUS
10
316.0633522074
20
210.5764827989
11
314.9765318146
21
210.5764827989
0
LINE
5
3B8
100
AcDbEntity
8
0
100
AcDbLine
62
7
6
CONTINUOUS
10
305.1334162146
20
210.5764827989
11
304.0465958218
21
210.5764827989
0
LINE
5
3B9
100
AcDbEntity
8
0
100
AcDbLine
6
CONTINUOUS
10
316.5451558146
20
210.9845377692
11
314.9765318146
21
210.9845377692
0
LINE
5
3BA
100
AcDbEntity
8
0
100
AcDbLine
6
CONTINUOUS
10
305.1334162146
20
210.9845377692
11
303.5647922146
21
210.9845377692
0
LINE
5
3BB
100
AcDbEntity
8
0
100
AcDbLine
62
7
6
CONTINUOUS
10
314.6824148146
20
211.3706294989
11
305.4275332146
21
211.3706294989
0
LINE
5
3BC
100
AcDbEntity
8
0
100
AcDbLine
62
7
6
CONTINUOUS
10
318.1502808624
20
212.9832569811
11
320.7945539930
21
198.5757457517
0
LINE
5
3BD
100
AcDbEntity
8
0
100
AcDbLine
6
CONTINUOUS
10
323.1367876832
20
168.5177517989
11
323.1367876832
21
169.4981417989
0
LINE
5
3BE
100
AcDbEntity
8
0
100
AcDbLine
6
CONTINUOUS
10
323.2616738900
20
193.3510304989
11
323.2616738900
21
197.3706294989
0
LINE
5
3BF
100
AcDbEntity
8
0
100
AcDbLine
62
7
6
CONTINUOUS
10
316.9449286490
20
213.9875215906
11
316.9449820419
21
213.9875215974
0
LINE
5
3C0
100
AcDbEntity
8
0
100
AcDbLine
62
7
6
CONTINUOUS
10
303.1650158668
20
213.9875215974
11
303.1651693380
21
213.9875215974
0
LINE
5
3C1
100
AcDbEntity
8
0
100
AcDbLine
62
7
6
CONTINUOUS
10
325.5549740146
20
197.8706294989
11
325.5549740146
21
209.8706294989
0
LINE
5
3C2
100
AcDbEntity
8
0
100
AcDbLine
6
CONTINUOUS
10
326.2010522087
20
194.3314204989
11
326.2010522087
21
196.3902394989
0
LINE
5
3C3
100
AcDbEntity
8
0
100
AcDbLine
6
CONTINUOUS
10
326.6276663333
20
193.3510304989
11
326.6276663333
21
192.3706404989
0
LINE
5
3C4
100
AcDbEntity
8
0
100
AcDbLine
62
7
6
CONTINUOUS
10
316.1496806464
20
214.8906294989
11
308.1200011006
21
214.8906294989
0
LINE
5
3C5
100
AcDbEntity
8
0
100
AcDbLine
62
7
6
CONTINUOUS
10
327.8000330146
20
193.3510304989
11
327.8000330146
21
196.3902394989
0
LINE
5
3C6
100
AcDbEntity
8
0
100
AcDbLine
6
CONTINUOUS
10
323.1367876832
20
169.4981417989
11
323.3700051863
21
171.0133802473
0
LINE
5
3C7
100
AcDbEntity
8
0
100
AcDbLine
6
CONTINUOUS
10
324.4185675675
20
172.6702372583
11
327.4807736637
21
192.5656967141
0
LINE
5
3C8
100
AcDbEntity
8
0
100
AcDbLine
62
7
6
CONTINUOUS
10
324.1057674244
20
169.3490015523
11
327.8000330146
21
193.3510304989
0
LINE
5
3C9
100
AcDbEntity
8
0
100
AcDbLine
6
CONTINUOUS
10
295.7595528429
20
172.7114655386
11
296.7520045350
21
173.2844577902
0
LINE
5
3CA
100
AcDbEntity
8
0
100
AcDbLine
62
7
6
CONTINUOUS
10
297.2421995350
20
172.4354151445
11
296.2497478429
21
171.8624228929
0
LINE
5
3CB
100
AcDbEntity
8
0
100
AcDbLine
6
CONTINUOUS
10
297.7323945350
20
171.5863724989
11
296.7399428429
21
171.0133802473
0
LINE
5
3CC
100
AcDbEntity
8
0
100
AcDbLine
6
CONTINUOUS
10
322.3775534942
20
171.5863724989
11
323.3579434942
21
173.2844577902
0
LINE
5
3CD
100
AcDbEntity
8
0
100
AcDbLine
6
CONTINUOUS
10
323.3700051863
20
171.0133802473
11
324.3503951863
21
172.7114655386
0
LINE
5
3CE
100
AcDbEntity
8
0
100
AcDbLine
62
7
6
CONTINUOUS
10
79.4279877426
20
114.3404451155
11
79.4279877426
21
106.8423703655
0
LINE
5
3CF
100
AcDbEntity
8
0
100
AcDbLine
62
7
6
CONTINUOUS
10
79.4279877426
20
106.6337452401
11
79.4279877426
21
95.6337452401
0
LINE
5
3D0
100
AcDbEntity
8
0
100
AcDbLine
62
7
6
CONTINUOUS
10
79.4279877426
20
95.4254796686
11
79.4279877426
21
87.9270453647
0
LINE
5
3D1
100
AcDbEntity
8
0
100
AcDbLine
62
7
6
CONTINUOUS
10
79.7877859881
20
94.7866882443
11
79.7877859881
21
96.2121874401
0
LINE
5
3D2
100
AcDbEntity
8
0
100
AcDbLine
62
7
6
CONTINUOUS
10
79.7877859881
20
106.0553030401
11
79.7877859881
21
107.4808022360
0
LINE
5
3D3
100
AcDbEntity
8
0
100
AcDbLine
6
CONTINUOUS
10
79.8107518335
20
94.6435634401
11
79.8107518335
21
96.2121874401
0
LINE
5
3D4
100
AcDbEntity
8
0
100
AcDbLine
6
CONTINUOUS
10
79.8107518335
20
106.0553030401
11
79.8107518335
21
107.6239270401
0
LINE
5
3D5
100
AcDbEntity
8
0
100
AcDbLine
6
CONTINUOUS
10
79.9279877426
20
105.8056591433
11
79.9279877426
21
96.4614844512
0
LINE
5
3D6
100
AcDbEntity
8
0
100
AcDbLine
6
CONTINUOUS
10
80.4083777426
20
114.3404451155
11
80.4083777426
21
109.9119294652
0
LINE
5
3D7
100
AcDbEntity
8
0
100
AcDbLine
6
CONTINUOUS
10
80.4083777426
20
92.3555610151
11
80.4083777426
21
87.9270453647
0
LINE
5
3D8
100
AcDbEntity
8
0
100
AcDbLine
62
7
6
CONTINUOUS
10
85.2966271473
20
93.0384325494
11
85.3475005328
21
91.9685192252
0
LINE
5
3D9
100
AcDbEntity
8
0
100
AcDbLine
6
CONTINUOUS
10
82.3007275075
20
116.3000306613
11
82.2665123961
21
117.2798234344
0
LINE
5
3DA
100
AcDbEntity
8
0
100
AcDbLine
6
CONTINUOUS
10
82.3007275075
20
85.9674598189
11
82.2665123899
21
84.9876670460
0
LINE
5
3DB
100
AcDbEntity
8
0
100
AcDbLine
62
7
6
CONTINUOUS
10
83.1164537719
20
107.1943863726
11
86.4340134358
21
116.5577582981
0
LINE
5
3DC
100
AcDbEntity
8
0
100
AcDbLine
62
7
6
CONTINUOUS
10
85.3176307568
20
95.1337584401
11
85.3176307568
21
96.2121874401
0
LINE
5
3DD
100
AcDbEntity
8
0
100
AcDbLine
62
7
6
CONTINUOUS
10
85.4328764926
20
95.1337584401
11
85.4328764926
21
92.2669994345
0
LINE
5
3DE
100
AcDbEntity
8
0
100
AcDbLine
62
7
6
CONTINUOUS
10
85.7249234193
20
95.0390386083
11
85.7249234193
21
101.1337452401
0
LINE
5
3DF
100
AcDbEntity
8
0
100
AcDbLine
62
7
6
CONTINUOUS
10
85.3082052852
20
96.4708441347
11
85.2905132543
21
95.0513092320
0
LINE
5
3E0
100
AcDbEntity
8
0
100
AcDbLine
62
7
6
CONTINUOUS
10
83.0653062182
20
85.5273286098
11
85.4532558003
21
92.2669994345
0
LINE
5
3E1
100
AcDbEntity
8
0
100
AcDbLine
62
7
6
CONTINUOUS
10
195.9185985784
20
84.9642491600
11
196.5891990891
21
84.9876670458
0
LINE
5
3E2
100
AcDbEntity
8
0
100
AcDbLine
62
7
6
CONTINUOUS
10
195.6221637217
20
79.7552894360
11
83.2335477635
21
79.7552894360
0
LINE
5
3E3
100
AcDbEntity
8
0
100
AcDbLine
62
7
6
CONTINUOUS
10
82.2665123899
20
84.9876670460
11
82.9371129068
21
84.9642491600
0
LINE
5
3E4
100
AcDbEntity
8
0
100
AcDbLine
62
7
6
CONTINUOUS
10
123.5553416426
20
118.8762119950
11
123.5553416426
21
118.7216611231
0
POLYLINE
5
3E5
100
AcDbEntity
8
0
100
AcDb2dPolyline
6
CONTINUOUS
66
1
70
0
0
VERTEX
5
3E6
100
AcDbEntity
8
0
100
AcDbVertex
6
CONTINUOUS
100
AcDb2dVertex
10
198.4473337426
20
90.3941652617
0
VERTEX
5
3E7
100
AcDbEntity
8
0
100
AcDbVertex
6
CONTINUOUS
100
AcDb2dVertex
10
198.6385983434
20
90.4126937014
0
VERTEX
5
3E8
100
AcDbEntity
8
0
100
AcDbVertex
6
CONTINUOUS
100
AcDb2dVertex
10
198.8225127529
20
90.4675669828
0
VERTEX
5
3E9
100
AcDbEntity
8
0
100
AcDbVertex
6
CONTINUOUS
100
AcDb2dVertex
10
198.9920092433
20
90.5566763565
0
VERTEX
5
3EA
100
AcDbEntity
8
0
100
AcDbVertex
6
CONTINUOUS
100
AcDb2dVertex
10
199.1405741598
20
90.6765973992
0
VERTEX
5
3EB
100
AcDbEntity
8
0
100
AcDbVertex
6
CONTINUOUS
100
AcDb2dVertex
10
199.2624982358
20
90.8227216126
0
VERTEX
5
3EC
100
AcDbEntity
8
0
100
AcDbVertex
6
CONTINUOUS
100
AcDb2dVertex
10
199.3530959975
20
90.9894335251
0
VERTEX
5
3ED
100
AcDbEntity
8
0
100
AcDbVertex
6
CONTINUOUS
100
AcDb2dVertex
10
199.4088858236
20
91.1703264913
0
VERTEX
5
3EE
100
AcDbEntity
8
0
100
AcDbVertex
6
CONTINUOUS
100
AcDb2dVertex
10
199.4277237426
20
91.3584488960
0
SEQEND
5
3EF
100
AcDbEntity
8
0
0
LINE
5
3F0
100
AcDbEntity
8
0
100
AcDbLine
6
CONTINUOUS
10
195.6457115849
20
85.9357073273
11
196.5549839777
21
85.9674598189
0
LINE
5
3F1
100
AcDbEntity
8
0
100
AcDbLine
6
CONTINUOUS
10
195.7904052669
20
85.5273286098
11
83.0653062182
21
85.5273286098
0
LINE
5
3F2
100
AcDbEntity
8
0
100
AcDbLine
6
CONTINUOUS
10
82.3007275075
20
85.9674598189
11
83.2099999003
21
85.9357073273
0
POLYLINE
5
3F3
100
AcDbEntity
8
0
100
AcDb2dPolyline
6
CONTINUOUS
66
1
70
0
0
VERTEX
5
3F4
100
AcDbEntity
8
0
100
AcDbVertex
6
CONTINUOUS
100
AcDb2dVertex
10
80.4083777426
20
90.3941652617
0
VERTEX
5
3F5
100
AcDbEntity
8
0
100
AcDbVertex
6
CONTINUOUS
100
AcDb2dVertex
10
80.2171226001
20
90.4126918513
0
VERTEX
5
3F6
100
AcDbEntity
8
0
100
AcDbVertex
6
CONTINUOUS
100
AcDb2dVertex
10
80.0332145923
20
90.4675605220
0
VERTEX
5
3F7
100
AcDbEntity
8
0
100
AcDbVertex
6
CONTINUOUS
100
AcDb2dVertex
10
79.8637212649
20
90.5566638554
0
VERTEX
5
3F8
100
AcDbEntity
8
0
100
AcDbVertex
6
CONTINUOUS
100
AcDb2dVertex
10
79.7151556050
20
90.6765794209
0
VERTEX
5
3F9
100
AcDbEntity
8
0
100
AcDbVertex
6
CONTINUOUS
100
AcDb2dVertex
10
79.5932273261
20
90.8227008927
0
VERTEX
5
3FA
100
AcDbEntity
8
0
100
AcDbVertex
6
CONTINUOUS
100
AcDb2dVertex
10
79.5026235627
20
90.9894143518
0
VERTEX
5
3FB
100
AcDbEntity
8
0
100
AcDbVertex
6
CONTINUOUS
100
AcDb2dVertex
10
79.4468281191
20
91.1703143405
0
VERTEX
5
3FC
100
AcDbEntity
8
0
100
AcDbVertex
6
CONTINUOUS
100
AcDb2dVertex
10
79.4279877426
20
91.3584488902
0
SEQEND
5
3FD
100
AcDbEntity
8
0
0
LINE
5
3FE
100
AcDbEntity
8
0
100
AcDbLine
6
CONTINUOUS
10
80.4083777426
20
87.9270453647
11
79.4279877426
21
87.9270453729
0
LINE
5
3FF
100
AcDbEntity
8
0
100
AcDbLine
6
CONTINUOUS
10
198.4473337426
20
87.9270453647
11
199.4277237426
21
87.9270453647
0
LINE
5
400
100
AcDbEntity
8
0
100
AcDbLine
6
CONTINUOUS
10
79.4279877426
20
88.9477398103
11
84.2772006429
21
88.9477398103
0
LINE
5
401
100
AcDbEntity
8
0
100
AcDbLine
6
CONTINUOUS
10
194.5785108423
20
88.9477398103
11
199.4277237426
21
88.9477398104
0
LINE
5
402
100
AcDbEntity
8
0
100
AcDbLine
6
CONTINUOUS
10
80.4083777426
20
90.3941652617
11
84.7896872527
21
90.3941652617
0
LINE
5
403
100
AcDbEntity
8
0
100
AcDbLine
6
CONTINUOUS
10
194.0660242325
20
90.3941652617
11
198.4473337426
21
90.3941652617
0
LINE
5
404
100
AcDbEntity
8
0
100
AcDbLine
6
CONTINUOUS
10
193.4024556849
20
92.2669994345
11
85.4532558003
21
92.2669994345
0
LINE
5
405
100
AcDbEntity
8
0
100
AcDbLine
62
7
6
CONTINUOUS
10
83.0887222838
20
93.0384383923
11
85.2966271473
21
93.0384383923
0
LINE
5
406
100
AcDbEntity
8
0
100
AcDbLine
6
CONTINUOUS
10
199.4277237426
20
94.6435634401
11
199.0449596517
21
94.6435634401
0
LINE
5
407
100
AcDbEntity
8
0
100
AcDbLine
6
CONTINUOUS
10
79.8107518335
20
94.6435634401
11
79.4279877426
21
94.6435634401
0
LINE
5
408
100
AcDbEntity
8
0
100
AcDbLine
6
CONTINUOUS
10
193.1307880659
20
95.0390386083
11
85.7249234193
21
95.0390386083
0
LINE
5
409
100
AcDbEntity
8
0
100
AcDbLine
62
7
6
CONTINUOUS
10
195.7950261315
20
95.0513092320
11
193.5651982309
21
95.0513092320
0
LINE
5
40A
100
AcDbEntity
8
0
100
AcDbLine
62
7
6
CONTINUOUS
10
83.0604445250
20
95.0513092320
11
85.2905132543
21
95.0513092320
0
LINE
5
40B
100
AcDbEntity
8
0
100
AcDbLine
62
7
6
CONTINUOUS
10
193.5380807284
20
95.1337452401
11
193.1307880659
21
95.1337452401
0
LINE
5
40C
100
AcDbEntity
8
0
100
AcDbLine
62
7
6
CONTINUOUS
10
85.3176307568
20
95.1337452401
11
85.7249234193
21
95.1337452401
0
LINE
5
40D
100
AcDbEntity
8
0
100
AcDbLine
62
7
6
CONTINUOUS
10
195.7638659589
20
93.0384387190
11
193.5591170810
21
93.0391272091
0
LINE
5
40E
100
AcDbEntity
8
0
100
AcDbLine
6
CONTINUOUS
10
199.0679254971
20
96.2121874401
11
198.6922525024
21
96.2121874401
0
LINE
5
40F
100
AcDbEntity
8
0
100
AcDbLine
6
CONTINUOUS
10
79.7877859881
20
96.2121874401
11
80.1634646831
21
96.2121874401
0
LINE
5
410
100
AcDbEntity
8
0
100
AcDbLine
6
CONTINUOUS
10
198.4229412748
20
96.4708441347
11
193.5475062000
21
96.4708441347
0
LINE
5
411
100
AcDbEntity
8
0
100
AcDbLine
6
CONTINUOUS
10
85.3082052852
20
96.4708441347
11
80.4327702103
21
96.4708441347
0
LINE
5
412
100
AcDbEntity
8
0
100
AcDbLine
62
7
6
CONTINUOUS
10
198.7737531786
20
96.5063044401
11
193.5465247265
21
96.5063044401
0
LINE
5
413
100
AcDbEntity
8
0
100
AcDbLine
62
7
6
CONTINUOUS
10
85.3091867587
20
96.5063044401
11
80.0819029881
21
96.5063044401
0
POLYLINE
5
414
100
AcDbEntity
8
0
100
AcDb2dPolyline
6
CONTINUOUS
66
1
70
0
0
VERTEX
5
415
100
AcDbEntity
8
0
100
AcDbVertex
6
CONTINUOUS
100
AcDb2dVertex
10
80.0819029881
20
96.5063044401
0
VERTEX
5
416
100
AcDbEntity
8
0
100
AcDbVertex
6
CONTINUOUS
100
AcDb2dVertex
10
80.0290040220
20
96.5006530644
0
VERTEX
5
417
100
AcDbEntity
8
0
100
AcDbVertex
6
CONTINUOUS
100
AcDb2dVertex
10
79.9781379335
20
96.4839161166
0
VERTEX
5
418
100
AcDbEntity
8
0
100
AcDbVertex
6
CONTINUOUS
100
AcDb2dVertex
10
79.9312594779
20
96.4567367881
0
VERTEX
5
419
100
AcDbEntity
8
0
100
AcDbVertex
6
CONTINUOUS
100
AcDb2dVertex
10
79.8901701679
20
96.4201595653
0
VERTEX
5
41A
100
AcDbEntity
8
0
100
AcDbVertex
6
CONTINUOUS
100
AcDb2dVertex
10
79.8564490427
20
96.3755900903
0
VERTEX
5
41B
100
AcDbEntity
8
0
100
AcDbVertex
6
CONTINUOUS
100
AcDb2dVertex
10
79.8313919861
20
96.3247411432
0
VERTEX
5
41C
100
AcDbEntity
8
0
100
AcDbVertex
6
CONTINUOUS
100
AcDb2dVertex
10
79.8159619269
20
96.2695668204
0
VERTEX
5
41D
100
AcDbEntity
8
0
100
AcDbVertex
6
CONTINUOUS
100
AcDb2dVertex
10
79.8107518335
20
96.2121874401
0
SEQEND
5
41E
100
AcDbEntity
8
0
0
LINE
5
41F
100
AcDbEntity
8
0
100
AcDbLine
62
7
6
CONTINUOUS
10
195.5625432311
20
101.1337452401
11
83.2931682541
21
101.1337452401
0
LINE
5
420
100
AcDbEntity
8
0
100
AcDbLine
6
CONTINUOUS
10
198.8267074632
20
96.5006530644
11
198.7738084971
21
96.5063044401
0
LINE
5
421
100
AcDbEntity
8
0
100
AcDbLine
62
7
6
CONTINUOUS
10
82.8861924299
20
105.7611860401
11
80.0819786060
21
105.7611860401
0
LINE
5
422
100
AcDbEntity
8
0
100
AcDbLine
62
7
6
CONTINUOUS
10
195.9695190553
20
105.7611860401
11
198.7738084492
21
105.7611860401
0
LINE
5
423
100
AcDbEntity
8
0
100
AcDbLine
6
CONTINUOUS
10
82.8888730023
20
105.7966463456
11
80.4327702103
21
105.7966463456
0
LINE
5
424
100
AcDbEntity
8
0
100
AcDbLine
6
CONTINUOUS
10
195.9668384829
20
105.7966463456
11
198.4229412748
21
105.7966463456
0
LINE
5
425
100
AcDbEntity
8
0
100
AcDbLine
6
CONTINUOUS
10
79.7877860068
20
106.0553030401
11
80.1633744661
21
106.0553030401
0
LINE
5
426
100
AcDbEntity
8
0
100
AcDbLine
6
CONTINUOUS
10
198.6923432075
20
106.0553030401
11
199.0679254783
21
106.0553030401
0
LINE
5
427
100
AcDbEntity
8
0
100
AcDbLine
6
CONTINUOUS
10
195.7392577133
20
107.1943863726
11
83.1164537719
21
107.1943863726
0
LINE
5
428
100
AcDbEntity
8
0
100
AcDbLine
62
7
6
CONTINUOUS
10
195.7950259105
20
107.2161812482
11
195.7392577133
21
107.2161812482
0
LINE
5
429
100
AcDbEntity
8
0
100
AcDbLine
62
7
6
CONTINUOUS
10
83.0604442369
20
107.2161812482
11
83.1164537719
21
107.2161812482
0
LINE
5
42A
100
AcDbEntity
8
0
100
AcDbLine
6
CONTINUOUS
10
79.4279877426
20
107.6239270401
11
79.8107518335
21
107.6239270401
0
LINE
5
42B
100
AcDbEntity
8
0
100
AcDbLine
6
CONTINUOUS
10
199.0449596517
20
107.6239270401
11
199.4277237426
21
107.6239270401
0
LINE
5
42C
100
AcDbEntity
8
0
100
AcDbLine
62
7
6
CONTINUOUS
10
195.7670042736
20
109.2290520879
11
195.0183502282
21
109.2290520879
0
LINE
5
42D
100
AcDbEntity
8
0
100
AcDbLine
6
CONTINUOUS
10
80.4083777426
20
111.8733252185
11
84.7742602660
21
111.8733252185
0
LINE
5
42E
100
AcDbEntity
8
0
100
AcDbLine
6
CONTINUOUS
10
194.0814512192
20
111.8733252185
11
198.4473337426
21
111.8733252185
0
LINE
5
42F
100
AcDbEntity
8
0
100
AcDbLine
62
7
6
CONTINUOUS
10
155.3003698426
20
118.8762119602
11
155.3003698426
21
118.7216611231
0
LINE
5
430
100
AcDbEntity
8
0
100
AcDbLine
6
CONTINUOUS
10
79.4279877426
20
113.3197506739
11
85.2867468758
21
113.3197506699
0
LINE
5
431
100
AcDbEntity
8
0
100
AcDbLine
6
CONTINUOUS
10
193.5689646094
20
113.3197506699
11
199.4277237426
21
113.3197506699
0
LINE
5
432
100
AcDbEntity
8
0
100
AcDbLine
6
CONTINUOUS
10
80.4083777426
20
114.3404451155
11
79.4279877426
21
114.3404451155
0
LINE
5
433
100
AcDbEntity
8
0
100
AcDbLine
6
CONTINUOUS
10
198.4473337426
20
114.3404451155
11
199.4277237426
21
114.3404451073
0
LINE
5
434
100
AcDbEntity
8
0
100
AcDbLine
6
CONTINUOUS
10
86.4340134358
20
116.5577582981
11
192.4216980494
21
116.5577582981
0
LINE
5
435
100
AcDbEntity
8
0
100
AcDbLine
62
7
6
CONTINUOUS
10
86.4900737260
20
116.6337452401
11
192.3656377592
21
116.6337452401
0
POLYLINE
5
436
100
AcDbEntity
8
0
100
AcDb2dPolyline
6
CONTINUOUS
66
1
70
0
0
VERTEX
5
437
100
AcDbEntity
8
0
100
AcDbVertex
6
CONTINUOUS
100
AcDb2dVertex
10
80.4083777426
20
111.8733252185
0
VERTEX
5
438
100
AcDbEntity
8
0
100
AcDbVertex
6
CONTINUOUS
100
AcDb2dVertex
10
80.2171131418
20
111.8547967789
0
VERTEX
5
439
100
AcDbEntity
8
0
100
AcDbVertex
6
CONTINUOUS
100
AcDb2dVertex
10
80.0331987323
20
111.7999234975
0
VERTEX
5
43A
100
AcDbEntity
8
0
100
AcDbVertex
6
CONTINUOUS
100
AcDb2dVertex
10
79.8637022418
20
111.7108141238
0
VERTEX
5
43B
100
AcDbEntity
8
0
100
AcDbVertex
6
CONTINUOUS
100
AcDb2dVertex
10
79.7151373254
20
111.5908930810
0
VERTEX
5
43C
100
AcDbEntity
8
0
100
AcDbVertex
6
CONTINUOUS
100
AcDb2dVertex
10
79.5932132494
20
111.4447688676
0
VERTEX
5
43D
100
AcDbEntity
8
0
100
AcDbVertex
6
CONTINUOUS
100
AcDb2dVertex
10
79.5026154877
20
111.2780569552
0
VERTEX
5
43E
100
AcDbEntity
8
0
100
AcDbVertex
6
CONTINUOUS
100
AcDb2dVertex
10
79.4468256615
20
111.0971639890
0
VERTEX
5
43F
100
AcDbEntity
8
0
100
AcDbVertex
6
CONTINUOUS
100
AcDb2dVertex
10
79.4279877426
20
110.9090415842
0
SEQEND
5
440
100
AcDbEntity
8
0
0
LINE
5
441
100
AcDbEntity
8
0
100
AcDbLine
6
CONTINUOUS
10
128.0724445137
20
117.8984142401
11
91.8570627106
21
116.6337452401
0
LINE
5
442
100
AcDbEntity
8
0
100
AcDbLine
6
CONTINUOUS
10
86.3933345886
20
116.4429476498
11
82.3007275075
21
116.3000306613
0
LINE
5
443
100
AcDbEntity
8
0
100
AcDbLine
62
7
6
CONTINUOUS
10
128.0553317426
20
118.8788042401
11
82.2665123899
21
117.2798234342
0
LINE
5
444
100
AcDbEntity
8
0
100
AcDbLine
6
CONTINUOUS
10
128.0724445137
20
117.8984142401
11
150.7832669715
21
117.8984142401
0
LINE
5
445
100
AcDbEntity
8
0
100
AcDbLine
62
7
6
CONTINUOUS
10
123.5886371600
20
118.8788042401
11
155.2670846936
21
118.8788042401
0
LINE
5
446
100
AcDbEntity
8
0
100
AcDbLine
6
CONTINUOUS
10
196.5549839777
20
116.3000306613
11
192.4623768966
21
116.4429476498
0
LINE
5
447
100
AcDbEntity
8
0
100
AcDbLine
6
CONTINUOUS
10
186.9986487745
20
116.6337452401
11
150.7832669715
21
117.8984142401
0
LINE
5
448
100
AcDbEntity
8
0
100
AcDbLine
62
7
6
CONTINUOUS
10
196.5891990953
20
117.2798234342
11
150.8003797426
21
118.8788042401
0
POLYLINE
5
449
100
AcDbEntity
8
0
100
AcDb2dPolyline
6
CONTINUOUS
66
1
70
0
0
VERTEX
5
44A
100
AcDbEntity
8
0
100
AcDbVertex
6
CONTINUOUS
100
AcDb2dVertex
10
198.4473337426
20
111.8733252185
0
VERTEX
5
44B
100
AcDbEntity
8
0
100
AcDbVertex
6
CONTINUOUS
100
AcDb2dVertex
10
198.6385887897
20
111.8547986481
0
VERTEX
5
44C
100
AcDbEntity
8
0
100
AcDbVertex
6
CONTINUOUS
100
AcDb2dVertex
10
198.8224967354
20
111.7999300232
0
VERTEX
5
44D
100
AcDbEntity
8
0
100
AcDbVertex
6
CONTINUOUS
100
AcDb2dVertex
10
198.9919900359
20
111.7108267468
0
VERTEX
5
44E
100
AcDbEntity
8
0
100
AcDbVertex
6
CONTINUOUS
100
AcDb2dVertex
10
199.1405557068
20
111.5909112306
0
VERTEX
5
44F
100
AcDbEntity
8
0
100
AcDbVertex
6
CONTINUOUS
100
AcDb2dVertex
10
199.2624840282
20
111.4447897809
0
VERTEX
5
450
100
AcDbEntity
8
0
100
AcDbVertex
6
CONTINUOUS
100
AcDb2dVertex
10
199.3530878488
20
111.2780763041
0
VERTEX
5
451
100
AcDbEntity
8
0
100
AcDbVertex
6
CONTINUOUS
100
AcDb2dVertex
10
199.4088833439
20
111.0971762502
0
VERTEX
5
452
100
AcDbEntity
8
0
100
AcDbVertex
6
CONTINUOUS
100
AcDb2dVertex
10
199.4277237426
20
110.9090415908
0
SEQEND
5
453
100
AcDbEntity
8
0
0
LINE
5
454
100
AcDbEntity
8
0
100
AcDbLine
62
7
6
CONTINUOUS
10
195.7904052669
20
85.5273286098
11
193.4024556849
21
92.2669994345
0
LINE
5
455
100
AcDbEntity
8
0
100
AcDbLine
62
7
6
CONTINUOUS
10
193.5651982309
20
95.0513092320
11
193.5475062000
21
96.4708441347
0
LINE
5
456
100
AcDbEntity
8
0
100
AcDbLine
62
7
6
CONTINUOUS
10
193.1307880659
20
95.0390386083
11
193.1307880659
21
101.1337452401
0
LINE
5
457
100
AcDbEntity
8
0
100
AcDbLine
62
7
6
CONTINUOUS
10
193.4228349926
20
92.2669994345
11
193.4228349926
21
95.1337584401
0
LINE
5
458
100
AcDbEntity
8
0
100
AcDbLine
62
7
6
CONTINUOUS
10
193.5380807284
20
95.1337584401
11
193.5380807284
21
96.2121874401
0
LINE
5
459
100
AcDbEntity
8
0
100
AcDbLine
62
7
6
CONTINUOUS
10
193.5591170810
20
93.0391272091
11
193.5082108017
21
91.9685196507
0
POLYLINE
5
45A
100
AcDbEntity
8
0
100
AcDb2dPolyline
6
CONTINUOUS
66
1
70
0
0
VERTEX
5
45B
100
AcDbEntity
8
0
100
AcDbVertex
6
CONTINUOUS
100
AcDb2dVertex
10
199.0243194990
20
96.3247411432
0
VERTEX
5
45C
100
AcDbEntity
8
0
100
AcDbVertex
6
CONTINUOUS
100
AcDb2dVertex
10
198.9992624425
20
96.3755900903
0
VERTEX
5
45D
100
AcDbEntity
8
0
100
AcDbVertex
6
CONTINUOUS
100
AcDb2dVertex
10
198.9655413172
20
96.4201595653
0
VERTEX
5
45E
100
AcDbEntity
8
0
100
AcDbVertex
6
CONTINUOUS
100
AcDb2dVertex
10
198.9244520073
20
96.4567367881
0
VERTEX
5
45F
100
AcDbEntity
8
0
100
AcDbVertex
6
CONTINUOUS
100
AcDb2dVertex
10
198.8775735516
20
96.4839161166
0
VERTEX
5
460
100
AcDbEntity
8
0
100
AcDbVertex
6
CONTINUOUS
100
AcDb2dVertex
10
198.8267074632
20
96.5006530644
0
SEQEND
5
461
100
AcDbEntity
8
0
0
POLYLINE
5
462
100
AcDbEntity
8
0
100
AcDb2dPolyline
6
CONTINUOUS
66
1
70
0
0
VERTEX
5
463
100
AcDbEntity
8
0
100
AcDbVertex
6
CONTINUOUS
100
AcDb2dVertex
10
199.0449596517
20
96.2121874401
0
VERTEX
5
464
100
AcDbEntity
8
0
100
AcDbVertex
6
CONTINUOUS
100
AcDb2dVertex
10
199.0397495583
20
96.2695668204
0
VERTEX
5
465
100
AcDbEntity
8
0
100
AcDbVertex
6
CONTINUOUS
100
AcDb2dVertex
10
199.0243194990
20
96.3247411432
0
SEQEND
5
466
100
AcDbEntity
8
0
0
LINE
5
467
100
AcDbEntity
8
0
100
AcDbLine
6
CONTINUOUS
10
196.5549839777
20
85.9674598189
11
196.5891990891
21
84.9876670458
0
LINE
5
468
100
AcDbEntity
8
0
100
AcDbLine
6
CONTINUOUS
10
198.4229412748
20
96.4708441347
11
198.4229412748
21
96.5063044401
0
LINE
5
469
100
AcDbEntity
8
0
100
AcDbLine
6
CONTINUOUS
10
198.4473337426
20
87.9270453647
11
198.4473337426
21
92.3555610151
0
LINE
5
46A
100
AcDbEntity
8
0
100
AcDbLine
6
CONTINUOUS
10
198.4473337426
20
109.9119294652
11
198.4473337426
21
114.3404451155
0
LINE
5
46B
100
AcDbEntity
8
0
100
AcDbLine
6
CONTINUOUS
10
198.9279877426
20
96.4613394189
11
198.9279877426
21
105.8058011683
0
LINE
5
46C
100
AcDbEntity
8
0
100
AcDbLine
6
CONTINUOUS
10
199.0449596517
20
107.6239270401
11
199.0449596517
21
106.0553030401
0
LINE
5
46D
100
AcDbEntity
8
0
100
AcDbLine
6
CONTINUOUS
10
199.0449596517
20
96.2121874401
11
199.0449596517
21
94.6435634401
0
LINE
5
46E
100
AcDbEntity
8
0
100
AcDbLine
62
7
6
CONTINUOUS
10
199.0679254971
20
107.4808022360
11
199.0679254971
21
106.0553030401
0
LINE
5
46F
100
AcDbEntity
8
0
100
AcDbLine
62
7
6
CONTINUOUS
10
199.0679254971
20
96.2121874401
11
199.0679254971
21
94.7866882443
0
LINE
5
470
100
AcDbEntity
8
0
100
AcDbLine
62
7
6
CONTINUOUS
10
199.4277237426
20
87.9270453647
11
199.4277237426
21
95.6310648031
0
LINE
5
471
100
AcDbEntity
8
0
100
AcDbLine
62
7
6
CONTINUOUS
10
199.4277237426
20
106.6386594701
11
199.4277237426
21
114.3404451155
0
LINE
5
472
100
AcDbEntity
8
0
100
AcDbLine
62
7
6
CONTINUOUS
10
199.4279877426
20
95.6337452401
11
199.4279877426
21
106.6337452401
0
LINE
5
473
100
AcDbEntity
8
0
100
AcDbLine
6
CONTINUOUS
10
196.5549839777
20
116.3000306613
11
196.5891990953
21
117.2798234342
0
LINE
5
474
100
AcDbEntity
8
0
100
AcDbLine
62
7
6
CONTINUOUS
10
195.7392577133
20
107.1943863726
11
192.4216980494
21
116.5577582981
0
ARC
5
475
100
AcDbEntity
8
0
100
AcDbCircle
62
7
6
CONTINUOUS
10
198.9279877426
20
209.5960938589
40
0.5000000000
100
AcDbArc
50
0.0000000000
51
28.0749842164
0
ARC
5
476
100
AcDbEntity
8
0
100
AcDbCircle
62
7
6
CONTINUOUS
10
79.9279877426
20
209.5960938589
40
0.5000000000
100
AcDbArc
50
152.0129415794
51
180.0000000000
0
ARC
5
477
100
AcDbEntity
8
0
100
AcDbCircle
62
7
6
CONTINUOUS
10
80.4083777426
20
194.3314204989
40
0.9803900000
100
AcDbArc
50
180.0000000000
51
270.0000000000
0
ARC
5
478
100
AcDbEntity
8
0
100
AcDbCircle
62
7
6
CONTINUOUS
10
198.4473337426
20
194.3314204989
40
0.9803900000
100
AcDbArc
50
270.0000000000
51
360.0000000000
0
ARC
5
479
100
AcDbEntity
8
0
100
AcDbCircle
62
7
6
CONTINUOUS
10
80.4083777426
20
196.3902394989
40
0.9803900000
100
AcDbArc
50
90.0000000000
51
180.0000000000
0
ARC
5
47A
100
AcDbEntity
8
0
100
AcDbCircle
62
7
6
CONTINUOUS
10
198.4473337426
20
196.3902394989
40
0.9803900000
100
AcDbArc
50
0.0000000000
51
90.0000000000
0
ARC
5
47B
100
AcDbEntity
8
0
100
AcDbCircle
62
7
6
CONTINUOUS
10
194.5257737426
20
209.0855715974
40
4.9019500000
100
AcDbArc
50
0.0000000000
51
90.0031390838
0
ARC
5
47C
100
AcDbEntity
8
0
100
AcDbCircle
62
7
6
CONTINUOUS
10
129.5131391392
20
191.8804454989
40
1.4705850000
100
AcDbArc
50
90.0000000000
51
179.5000000000
0
ARC
5
47D
100
AcDbEntity
8
0
100
AcDbCircle
62
7
6
CONTINUOUS
10
149.3425723460
20
191.8804454989
40
1.4705850000
100
AcDbArc
50
0.5000000000
51
90.0000000000
0
ARC
5
47E
100
AcDbEntity
8
0
100
AcDbCircle
62
7
6
CONTINUOUS
10
84.3299377426
20
209.0855715974
40
4.9019500000
100
AcDbArc
50
89.9969734005
51
180.0000000000
0
ARC
5
47F
100
AcDbEntity
8
0
100
AcDbCircle
62
7
6
CONTINUOUS
10
156.2807598426
20
173.5471524989
40
0.9803900000
100
AcDbArc
50
180.0000000000
51
270.0000000000
0
ARC
5
480
100
AcDbEntity
8
0
100
AcDbCircle
62
7
6
CONTINUOUS
10
156.2807598426
20
192.3706447571
40
0.9803878709
100
AcDbArc
50
90.0000000000
51
180.0002488557
0
ARC
5
481
100
AcDbEntity
8
0
100
AcDbCircle
62
7
6
CONTINUOUS
10
112.0259552426
20
171.5863724989
40
0.9803900000
100
AcDbArc
50
90.0000000000
51
180.0000000000
0
ARC
5
482
100
AcDbEntity
8
0
100
AcDbCircle
62
7
6
CONTINUOUS
10
122.5749516426
20
173.5471524989
40
0.9803900000
100
AcDbArc
50
270.0000000000
51
360.0000000000
0
ARC
5
483
100
AcDbEntity
8
0
100
AcDbCircle
62
7
6
CONTINUOUS
10
166.8297562426
20
171.5863724989
40
0.9803900000
100
AcDbArc
50
0.0000000000
51
90.0000000000
0
ARC
5
484
100
AcDbEntity
8
0
100
AcDbCircle
62
7
6
CONTINUOUS
10
122.5749516426
20
192.3706447571
40
0.9803878709
100
AcDbArc
50
359.9997511443
51
90.0000000000
0
ARC
5
485
100
AcDbEntity
8
0
100
AcDbCircle
62
7
6
CONTINUOUS
10
166.8297562426
20
169.4981417989
40
0.9803900000
100
AcDbArc
50
270.0000000000
51
360.0000000000
0
ARC
5
486
100
AcDbEntity
8
0
100
AcDbCircle
62
7
6
CONTINUOUS
10
112.0259552426
20
169.4981417989
40
0.9803900000
100
AcDbArc
50
180.0000000000
51
270.0000000000
0
ARC
5
487
100
AcDbEntity
8
0
100
AcDbCircle
62
7
6
CONTINUOUS
10
315.5549740146
20
203.5960949789
40
0.5000000000
100
AcDbArc
50
270.0000000000
51
360.0000000000
0
ARC
5
488
100
AcDbEntity
8
0
100
AcDbCircle
62
7
6
CONTINUOUS
10
304.5549740146
20
203.5960949789
40
0.5000000000
100
AcDbArc
50
180.0000000000
51
270.0000000000
0
ARC
5
489
100
AcDbEntity
8
0
100
AcDbCircle
62
7
6
CONTINUOUS
10
306.0157584946
20
204.1353104989
40
1.0392155200
100
AcDbArc
50
270.0000000000
51
360.0000000000
0
ARC
5
48A
100
AcDbEntity
8
0
100
AcDbCircle
62
7
6
CONTINUOUS
10
314.0941895346
20
204.1353104989
40
1.0392155200
100
AcDbArc
50
180.0000000000
51
270.0000000000
0
ARC
5
48B
100
AcDbEntity
8
0
100
AcDbCircle
6
CONTINUOUS
10
306.0157584946
20
204.1353104989
40
0.5392039900
100
AcDbArc
50
270.0000000000
51
360.0000000000
0
ARC
5
48C
100
AcDbEntity
8
0
100
AcDbCircle
6
CONTINUOUS
10
314.0941895346
20
204.1353104989
40
0.5392039900
100
AcDbArc
50
180.0000000000
51
270.0000000000
0
ARC
5
48D
100
AcDbEntity
8
0
100
AcDbCircle
6
CONTINUOUS
10
312.5549740146
20
205.5960944989
40
0.9999966079
100
AcDbArc
50
0.0000000000
51
90.0000000000
0
ARC
5
48E
100
AcDbEntity
8
0
100
AcDbCircle
6
CONTINUOUS
10
307.5549740146
20
205.5960944989
40
0.9999966091
100
AcDbArc
50
90.0000000000
51
180.0000000000
0
ARC
5
48F
100
AcDbEntity
8
0
100
AcDbCircle
62
7
6
CONTINUOUS
10
315.7549740146
20
204.1706294989
40
0.8000000000
100
AcDbArc
50
289.4284472560
51
292.0683890490
0
ARC
5
490
100
AcDbEntity
8
0
100
AcDbCircle
62
7
6
CONTINUOUS
10
304.3549740146
20
204.1706294989
40
0.8000000000
100
AcDbArc
50
247.9316003498
51
250.5715536837
0
ARC
5
491
100
AcDbEntity
8
0
100
AcDbCircle
62
7
6
CONTINUOUS
10
325.0549740146
20
197.8706294989
40
0.5000000000
100
AcDbArc
50
270.0000000000
51
360.0000000000
0
ARC
5
492
100
AcDbEntity
8
0
100
AcDbCircle
62
7
6
CONTINUOUS
10
327.3367980101
20
212.2841545659
40
3.0000000000
100
AcDbArc
50
159.0000000000
51
233.5628012099
0
ARC
5
493
100
AcDbEntity
8
0
100
AcDbCircle
62
7
6
CONTINUOUS
10
328.4334298187
20
231.8835467561
40
3.0000000000
100
AcDbArc
50
339.0000021101
51
157.5200000000
0
ARC
5
494
100
AcDbEntity
8
0
100
AcDbCircle
62
7
6
CONTINUOUS
10
316.1496806464
20
217.8906294989
40
3.0000000000
100
AcDbArc
50
270.0000000000
51
337.5200000000
0
ARC
5
495
100
AcDbEntity
8
0
100
AcDbCircle
62
7
6
CONTINUOUS
10
308.1200011006
20
217.8906294989
40
3.0000000000
100
AcDbArc
50
159.0000000000
51
270.0000000000
0
ARC
5
496
100
AcDbEntity
8
0
100
AcDbCircle
62
7
6
CONTINUOUS
10
306.9049740146
20
231.4773391740
40
3.1500000000
100
AcDbArc
50
356.5508354486
51
157.5200000000
0
ARC
5
497
100
AcDbEntity
8
0
100
AcDbCircle
62
7
6
CONTINUOUS
10
295.5549740146
20
209.6718985638
40
1.0000000000
100
AcDbArc
50
157.5200000000
51
180.0000000000
0
ARC
5
498
100
AcDbEntity
8
0
100
AcDbCircle
62
7
6
CONTINUOUS
10
295.0549740146
20
197.8706294989
40
0.5000000000
100
AcDbArc
50
180.0000000000
51
270.0000000000
0
CIRCLE
5
499
100
AcDbEntity
8
0
100
AcDbCircle
62
7
6
CONTINUOUS
10
319.0500522646
20
182.8314457989
40
2.6470530000
0
CIRCLE
5
49A
100
AcDbEntity
8
0
100
AcDbCircle
62
7
6
CONTINUOUS
10
301.0598957646
20
182.8314457989
40
2.5588179000
0
ARC
5
49B
100
AcDbEntity
8
0
100
AcDbCircle
62
7
6
CONTINUOUS
10
293.2903050146
20
196.3902394989
40
0.9803900000
100
AcDbArc
50
90.0000000000
51
180.0000000000
0
ARC
5
49C
100
AcDbEntity
8
0
100
AcDbCircle
62
7
6
CONTINUOUS
10
326.8196430146
20
196.3902394989
40
0.9803900000
100
AcDbArc
50
0.0000000000
51
90.0000000000
0
ARC
5
49D
100
AcDbEntity
8
0
100
AcDbCircle
62
7
6
CONTINUOUS
10
305.2314552146
20
211.5440691430
40
0.1960780000
100
AcDbArc
50
0.0000000000
51
35.0000000000
0
ARC
5
49E
100
AcDbEntity
8
0
100
AcDbCircle
62
7
6
CONTINUOUS
10
314.8784928146
20
211.5440691430
40
0.1960780000
100
AcDbArc
50
145.0000000000
51
180.0000000000
0
ARC
5
49F
100
AcDbEntity
8
0
100
AcDbCircle
62
7
6
CONTINUOUS
10
305.1334162146
20
210.8705997989
40
0.2941170000
100
AcDbArc
50
270.0000000000
51
360.0000000000
0
ARC
5
4A0
100
AcDbEntity
8
0
100
AcDbCircle
62
7
6
CONTINUOUS
10
314.9765318146
20
210.8705997989
40
0.2941170000
100
AcDbArc
50
180.0000000000
51
270.0000000000
0
ARC
5
4A1
100
AcDbEntity
8
0
100
AcDbCircle
62
7
6
CONTINUOUS
10
305.5549839146
20
202.0765014989
40
1.4999967000
100
AcDbArc
50
180.0000000000
51
360.0000000000
0
ARC
5
4A2
100
AcDbEntity
8
0
100
AcDbCircle
62
7
6
CONTINUOUS
10
314.5549641146
20
202.0765014989
40
1.4999967000
100
AcDbArc
50
180.0000000000
51
360.0000000000
0
ARC
5
4A3
100
AcDbEntity
8
0
100
AcDbCircle
62
7
6
CONTINUOUS
10
316.9449321624
20
212.7620340974
40
1.2254875000
100
AcDbArc
50
10.4000000000
51
131.2190442967
0
ARC
5
4A4
100
AcDbEntity
8
0
100
AcDbCircle
62
7
6
CONTINUOUS
10
322.2409794444
20
198.8412144989
40
1.4705850000
100
AcDbArc
50
190.4000000000
51
270.0000000000
0
ARC
5
4A5
100
AcDbEntity
8
0
100
AcDbCircle
62
7
6
CONTINUOUS
10
297.8689685848
20
198.8412144989
40
1.4705850000
100
AcDbArc
50
270.0000000000
51
349.6000000000
0
ARC
5
4A6
100
AcDbEntity
8
0
100
AcDbCircle
62
7
6
CONTINUOUS
10
303.1650158668
20
212.7620340974
40
1.2254875000
100
AcDbArc
50
48.7809557033
51
169.5999983462
0
ARC
5
4A7
100
AcDbEntity
8
0
100
AcDbCircle
62
7
6
CONTINUOUS
10
323.1367876832
20
169.4981417989
40
0.9803900000
100
AcDbArc
50
270.0000000000
51
351.2500000000
0
ARC
5
4A8
100
AcDbEntity
8
0
100
AcDbCircle
62
7
6
CONTINUOUS
10
296.9731603460
20
169.4981417989
40
0.9803900000
100
AcDbArc
50
188.7500000000
51
270.0000000000
0
ARC
5
4A9
100
AcDbEntity
8
0
100
AcDbCircle
62
7
6
CONTINUOUS
10
323.3700051863
20
171.0133802473
40
0.9803900000
100
AcDbArc
50
351.2500000000
51
60.0000000000
0
ARC
5
4AA
100
AcDbEntity
8
0
100
AcDbCircle
62
7
6
CONTINUOUS
10
322.3775534942
20
171.5863724989
40
0.9803900000
100
AcDbArc
50
60.0000000000
51
90.0000000000
0
ARC
5
4AB
100
AcDbEntity
8
0
100
AcDbCircle
62
7
6
CONTINUOUS
10
297.7323945350
20
171.5863724989
40
0.9803900000
100
AcDbArc
50
90.0000000000
51
120.0000000000
0
ARC
5
4AC
100
AcDbEntity
8
0
100
AcDbCircle
62
7
6
CONTINUOUS
10
296.7399428429
20
171.0133802473
40
0.9803900000
100
AcDbArc
50
120.0000000000
51
188.7500000000
0
ARC
5
4AD
100
AcDbEntity
8
0
100
AcDbCircle
6
CONTINUOUS
10
322.2409794444
20
198.8412144989
40
2.4509680596
100
AcDbArc
50
190.4000000000
51
270.0000000000
0
ARC
5
4AE
100
AcDbEntity
8
0
100
AcDbCircle
6
CONTINUOUS
10
296.7399428429
20
171.0133802473
40
1.9607800000
100
AcDbArc
50
120.0000000000
51
122.3281784419
0
ARC
5
4AF
100
AcDbEntity
8
0
100
AcDbCircle
6
CONTINUOUS
10
297.7323945350
20
171.5863724989
40
1.9607717573
100
AcDbArc
50
90.0000000000
51
120.0000000000
0
ARC
5
4B0
100
AcDbEntity
8
0
100
AcDbCircle
6
CONTINUOUS
10
322.3775534942
20
171.5863724989
40
1.9607717578
100
AcDbArc
50
60.0000000000
51
90.0000000000
0
ARC
5
4B1
100
AcDbEntity
8
0
100
AcDbCircle
6
CONTINUOUS
10
323.3700051863
20
171.0133802473
40
1.9607800000
100
AcDbArc
50
57.6718215671
51
60.0000000000
0
ARC
5
4B2
100
AcDbEntity
8
0
100
AcDbCircle
6
CONTINUOUS
10
297.8689685848
20
198.8412144989
40
2.4509680596
100
AcDbArc
50
270.0000000000
51
349.6000000000
0
ARC
5
4B3
100
AcDbEntity
8
0
100
AcDbCircle
6
CONTINUOUS
10
305.5549839146
20
202.0765014989
40
1.9901794927
100
AcDbArc
50
180.0000000000
51
360.0000000000
0
ARC
5
4B4
100
AcDbEntity
8
0
100
AcDbCircle
6
CONTINUOUS
10
314.5549641146
20
202.0765014989
40
1.9901794927
100
AcDbArc
50
180.0000000000
51
360.0000000000
0
ARC
5
4B5
100
AcDbEntity
8
0
100
AcDbCircle
62
7
6
CONTINUOUS
10
198.9279877426
20
106.6337452401
40
0.5000000000
100
AcDbArc
50
0.0000000000
51
73.6400690856
0
ARC
5
4B6
100
AcDbEntity
8
0
100
AcDbCircle
62
7
6
CONTINUOUS
10
198.9279877426
20
95.6337452401
40
0.5000000000
100
AcDbArc
50
286.3599309144
51
360.0000000000
0
ARC
5
4B7
100
AcDbEntity
8
0
100
AcDbCircle
62
7
6
CONTINUOUS
10
79.9279877426
20
95.6337452401
40
0.5000000000
100
AcDbArc
50
180.0000000000
51
253.6094402783
0
ARC
5
4B8
100
AcDbEntity
8
0
100
AcDbCircle
62
7
6
CONTINUOUS
10
79.9279877426
20
106.6337452401
40
0.5000000000
100
AcDbArc
50
106.3905597217
51
180.0000000000
0
ARC
5
4B9
100
AcDbEntity
8
0
100
AcDbCircle
62
7
6
CONTINUOUS
10
79.9181827426
20
94.6435634401
40
0.4901950000
100
AcDbArc
50
105.5030594357
51
180.0000000000
0
ARC
5
4BA
100
AcDbEntity
8
0
100
AcDbCircle
62
7
6
CONTINUOUS
10
198.9375287426
20
94.6435634401
40
0.4901950000
100
AcDbArc
50
0.0000000000
51
74.4969334755
0
ARC
5
4BB
100
AcDbEntity
8
0
100
AcDbCircle
62
7
6
CONTINUOUS
10
198.9375287426
20
107.6239270401
40
0.4901950000
100
AcDbArc
50
285.5030620323
51
360.0000000000
0
ARC
5
4BC
100
AcDbEntity
8
0
100
AcDbCircle
62
7
6
CONTINUOUS
10
79.9181827426
20
107.6239270401
40
0.4901950000
100
AcDbArc
50
180.0000000000
51
254.4969334755
0
ARC
5
4BD
100
AcDbEntity
8
0
100
AcDbCircle
62
7
6
CONTINUOUS
10
196.4865537426
20
87.9270453647
40
2.9411700000
100
AcDbArc
50
272.0000000000
51
360.0000000000
0
ARC
5
4BE
100
AcDbEntity
8
0
100
AcDbCircle
62
7
6
CONTINUOUS
10
196.4865537426
20
114.3404451155
40
2.9411700000
100
AcDbArc
50
0.0000000000
51
88.0000000000
0
ARC
5
4BF
100
AcDbEntity
8
0
100
AcDbCircle
62
7
6
CONTINUOUS
10
82.3691577426
20
114.3404451155
40
2.9411700000
100
AcDbArc
50
92.0000000000
51
180.0000000000
0
ARC
5
4C0
100
AcDbEntity
8
0
100
AcDbCircle
62
7
6
CONTINUOUS
10
82.3691577426
20
87.9270453647
40
2.9411700000
100
AcDbArc
50
180.0000000000
51
268.0000000000
0
ARC
5
4C1
100
AcDbEntity
8
0
100
AcDbCircle
6
CONTINUOUS
10
196.4865537426
20
87.9270453647
40
1.9607775643
100
AcDbArc
50
272.0000000000
51
360.0000000000
0
ARC
5
4C2
100
AcDbEntity
8
0
100
AcDbCircle
6
CONTINUOUS
10
82.3691577426
20
87.9270453647
40
1.9607775643
100
AcDbArc
50
180.0000000000
51
268.0000000000
0
ARC
5
4C3
100
AcDbEntity
8
0
100
AcDbCircle
6
CONTINUOUS
10
196.4865537426
20
114.3404451155
40
1.9607775643
100
AcDbArc
50
0.0000000000
51
88.0000000000
0
ARC
5
4C4
100
AcDbEntity
8
0
100
AcDbCircle
6
CONTINUOUS
10
82.3691577426
20
114.3404451155
40
1.9607775643
100
AcDbArc
50
92.0000000000
51
180.0000000000
0
SPLINE
5
4C5
100
AcDbEntity
8
0
100
AcDbSpline
62
7
6
CONTINUOUS
70
0
71
3
72
11
73
7
74
5
42
0.0000001000
43
0.0000001000
44
0.0000000001
40
0.0000000000
40
0.0000000000
40
0.0000000000
40
0.0000000000
40
0.3825648724
40
0.7068846172
40
0.9236288228
40
1.0000000000
40
1.0000000000
40
1.0000000000
40
1.0000000000
10
150.8003797426
20
196.3902394989
30
0.0000000000
10
150.8003797426
20
196.5153092893
30
0.0000000000
10
150.7933470480
20
196.7388420681
30
0.0000000000
10
150.8123041589
20
197.0674328296
30
0.0000000000
10
150.7641702051
20
197.2165989209
30
0.0000000000
10
150.8082345726
20
197.3706294989
30
0.0000000000
10
150.7832669715
20
197.3706294989
30
0.0000000000
11
150.8003797426
21
196.3902394989
31
0.0000000000
11
150.7990769073
21
196.7654466082
31
0.0000000000
11
150.7953670188
21
197.0835090844
31
0.0000000000
11
150.7898152512
21
197.2960134820
31
0.0000000000
11
150.7832669715
21
197.3706294989
31
0.0000000000
0
SPLINE
5
4C6
100
AcDbEntity
8
0
100
AcDbSpline
6
CONTINUOUS
70
0
71
3
72
14
73
10
74
8
42
0.0000001000
43
0.0000001000
44
0.0000000001
40
0.0000000000
40
0.0000000000
40
0.0000000000
40
0.0000000000
40
0.1188488611
40
0.2469222765
40
0.3863837999
40
0.5363495721
40
0.6928207718
40
0.8496256252
40
1.0000000000
40
1.0000000000
40
1.0000000000
40
1.0000000000
10
83.0887222838
20
212.9832569811
30
0.0000000000
10
82.9050794858
20
212.9214969630
30
0.0000000000
10
82.5323129781
20
212.7651911488
30
0.0000000000
10
81.9931319283
20
212.4345900896
30
0.0000000000
10
81.4776054977
20
211.9848804470
30
0.0000000000
10
81.0219402699
20
211.4130708223
30
0.0000000000
10
80.6700201917
20
210.7393723835
30
0.0000000000
10
80.4555785332
20
210.0097042521
30
0.0000000000
10
80.4084109461
20
209.5076940597
30
0.0000000000
10
80.4083777426
20
209.2625507623
30
0.0000000000
11
83.0887222838
21
212.9832569811
31
0.0000000000
11
82.5527713901
21
212.7582960215
31
0.0000000000
11
82.0188738952
21
212.4307525996
31
0.0000000000
11
81.5048821497
21
211.9824036630
31
0.0000000000
11
81.0478323301
21
211.4087946326
31
0.0000000000
11
80.6934991598
21
210.7305236098
31
0.0000000000
11
80.4773344112
21
209.9947407065
31
0.0000000000
11
80.4083777426
21
209.2625507623
31
0.0000000000
0
SPLINE
5
4C7
100
AcDbEntity
8
0
100
AcDbSpline
6
CONTINUOUS
70
0
71
3
72
11
73
7
74
5
42
0.0000001000
43
0.0000001000
44
0.0000000001
40
0.0000000000
40
0.0000000000
40
0.0000000000
40
0.0000000000
40
0.4050719980
40
0.7357855808
40
0.9525517831
40
1.0000000000
40
1.0000000000
40
1.0000000000
40
1.0000000000
10
83.0797809108
20
212.9795039136
30
0.0000000000
10
83.0446575046
20
213.0805293388
30
0.0000000000
10
82.9785528460
20
213.2572414656
30
0.0000000000
10
82.8896502827
20
213.5129530843
30
0.0000000000
10
82.8238501209
20
213.6184458427
30
0.0000000000
10
82.7940848295
20
213.7147643899
30
0.0000000000
10
82.7863754741
20
213.7246152062
30
0.0000000000
11
83.0797809108
21
212.9795039136
31
0.0000000000
11
82.9710943289
21
213.2814067767
31
0.0000000000
11
82.8755652043
21
213.5253371030
31
0.0000000000
11
82.8047579636
21
213.6817655211
31
0.0000000000
11
82.7863754741
21
213.7246152062
31
0.0000000000
0
SPLINE
5
4C8
100
AcDbEntity
8
0
100
AcDbSpline
6
CONTINUOUS
70
0
71
3
72
8
73
4
74
2
42
0.0000001000
43
0.0000001000
44
0.0000000001
40
0.0000000000
40
0.0000000000
40
0.0000000000
40
0.0000000000
40
1.0000000000
40
1.0000000000
40
1.0000000000
40
1.0000000000
10
82.7863754741
20
213.7246152062
30
0.0000000000
10
82.7812650497
20
213.7311451752
30
0.0000000000
10
82.7751158247
20
213.7344031134
30
0.0000000000
10
82.7672442905
20
213.7317553423
30
0.0000000000
11
82.7863754741
21
213.7246152062
31
0.0000000000
11
82.7672442905
21
213.7317553423
31
0.0000000000
0
SPLINE
5
4C9
100
AcDbEntity
8
0
100
AcDbSpline
6
CONTINUOUS
70
0
71
3
72
11
73
7
74
5
42
0.0000001000
43
0.0000001000
44
0.0000000001
40
0.0000000000
40
0.0000000000
40
0.0000000000
40
0.0000000000
40
0.3692517173
40
0.6843540888
40
0.9008778313
40
1.0000000000
40
1.0000000000
40
1.0000000000
40
1.0000000000
10
80.4083777426
20
209.2625507623
30
0.0000000000
10
80.2832374758
20
209.2625507622
30
0.0000000000
10
80.0538942320
20
209.2560210599
30
0.0000000000
10
79.7404639749
20
209.2183718057
30
0.0000000000
10
79.5513115120
20
209.1800656089
30
0.0000000000
10
79.4279877426
20
209.1191643312
30
0.0000000000
10
79.4279877426
20
209.0855715974
30
0.0000000000
11
80.4083777426
21
209.2625507623
31
0.0000000000
11
80.0331987325
21
209.2490790252
31
0.0000000000
11
79.7151373256
21
209.2107147640
31
0.0000000000
11
79.5026154878
21
209.1532985899
31
0.0000000000
11
79.4279877426
21
209.0855715974
31
0.0000000000
0
SPLINE
5
4CA
100
AcDbEntity
8
0
100
AcDbSpline
62
7
6
CONTINUOUS
70
0
71
3
72
11
73
7
74
5
42
0.0000001000
43
0.0000001000
44
0.0000000001
40
0.0000000000
40
0.0000000000
40
0.0000000000
40
0.0000000000
40
0.0763711772
40
0.2931153828
40
0.6174351276
40
1.0000000000
40
1.0000000000
40
1.0000000000
40
1.0000000000
10
128.0724445137
20
197.3706294989
30
0.0000000000
10
128.0474769126
20
197.3706294989
30
0.0000000000
10
128.0915412801
20
197.2165989209
30
0.0000000000
10
128.0434073263
20
197.0674328296
30
0.0000000000
10
128.0623644372
20
196.7388420681
30
0.0000000000
10
128.0553317426
20
196.5153092893
30
0.0000000000
10
128.0553317426
20
196.3902394989
30
0.0000000000
11
128.0724445137
21
197.3706294989
31
0.0000000000
11
128.0658962340
21
197.2960134820
31
0.0000000000
11
128.0603444664
21
197.0835090844
31
0.0000000000
11
128.0566345779
21
196.7654466082
31
0.0000000000
11
128.0553317426
21
196.3902394989
31
0.0000000000
0
SPLINE
5
4CB
100
AcDbEntity
8
0
100
AcDbSpline
6
CONTINUOUS
70
0
71
3
72
12
73
8
74
6
42
0.0000001000
43
0.0000001000
44
0.0000000001
40
0.0000000000
40
0.0000000000
40
0.0000000000
40
0.0000000000
40
0.1761648884
40
0.3638222591
40
0.5681546074
40
0.7846330204
40
1.0000000000
40
1.0000000000
40
1.0000000000
40
1.0000000000
10
84.3299359626
20
213.9875215793
30
0.0000000000
10
84.2324452104
20
213.9874972696
30
0.0000000000
10
84.0298118279
20
213.9478812414
30
0.0000000000
10
83.7537417479
20
213.7898706564
30
0.0000000000
10
83.5043087390
20
213.5608845706
30
0.0000000000
10
83.2832231861
20
213.2858847218
30
0.0000000000
10
83.1518557150
20
213.0858118166
30
0.0000000000
10
83.0911284462
20
212.9832580535
30
0.0000000000
11
84.3299359626
21
213.9875215793
31
0.0000000000
11
84.0422732578
21
213.9346978584
31
0.0000000000
11
83.7686692201
21
213.7856843367
31
0.0000000000
11
83.5154804323
21
213.5599056260
31
0.0000000000
11
83.2875380849
21
213.2820371247
31
0.0000000000
11
83.0911284462
21
212.9832580535
31
0.0000000000
0
SPLINE
5
4CC
100
AcDbEntity
8
0
100
AcDbSpline
62
7
6
CONTINUOUS
70
0
71
3
72
9
73
5
74
3
42
0.0000001000
43
0.0000001000
44
0.0000000001
40
0.0000000000
40
0.0000000000
40
0.0000000000
40
0.0000000000
40
0.5130020610
40
1.0000000000
40
1.0000000000
40
1.0000000000
40
1.0000000000
10
123.4612144124
20
193.1678135577
30
0.0000000000
10
123.4784719511
20
193.1203914686
30
0.0000000000
10
123.5111641687
20
193.0276017940
30
0.0000000000
10
123.5413979534
20
192.9339737776
30
0.0000000000
10
123.5553416426
20
192.8881413464
30
0.0000000000
11
123.4612144124
21
193.1678135577
31
0.0000000000
11
123.5113673126
21
193.0249682526
31
0.0000000000
11
123.5553416426
21
192.8881413464
31
0.0000000000
0
SPLINE
5
4CD
100
AcDbEntity
8
0
100
AcDbSpline
62
7
6
CONTINUOUS
70
0
71
3
72
9
73
5
74
3
42
0.0000001000
43
0.0000001000
44
0.0000000001
40
0.0000000000
40
0.0000000000
40
0.0000000000
40
0.0000000000
40
0.4878090213
40
1.0000000000
40
1.0000000000
40
1.0000000000
40
1.0000000000
10
155.3003698426
20
192.8881406774
30
0.0000000000
10
155.3143232282
20
192.9340064076
30
0.0000000000
10
155.3445319301
20
193.0275453389
30
0.0000000000
10
155.3771879020
20
193.1202496756
30
0.0000000000
10
155.3944017414
20
193.1675523605
30
0.0000000000
11
155.3003698426
21
192.8881406774
31
0.0000000000
11
155.3443777294
21
193.0250660785
31
0.0000000000
11
155.3944017414
21
193.1675523605
31
0.0000000000
0
SPLINE
5
4CE
100
AcDbEntity
8
0
100
AcDbSpline
6
CONTINUOUS
70
0
71
3
72
10
73
6
74
4
42
0.0000001000
43
0.0000001000
44
0.0000000001
40
0.0000000000
40
0.0000000000
40
0.0000000000
40
0.0000000000
40
0.3447680301
40
0.6858516985
40
1.0000000000
40
1.0000000000
40
1.0000000000
40
1.0000000000
10
155.2675245277
20
193.3510304989
30
0.0000000000
10
155.2360657133
20
193.2603783130
30
0.0000000000
10
155.1771004050
20
193.0786241512
30
0.0000000000
10
155.1185609218
20
192.8058759927
30
0.0000000000
10
155.1042813404
20
192.6233274333
30
0.0000000000
10
155.1042991343
20
192.5358939033
30
0.0000000000
11
155.2675245277
21
193.3510304989
31
0.0000000000
11
155.1815382971
21
193.0763058178
31
0.0000000000
11
155.1235085389
21
192.7974901592
31
0.0000000000
11
155.1042991343
21
192.5358939033
31
0.0000000000
0
SPLINE
5
4CF
100
AcDbEntity
8
0
100
AcDbSpline
6
CONTINUOUS
70
0
71
3
72
9
73
5
74
3
42
0.0000001000
43
0.0000001000
44
0.0000000001
40
0.0000000000
40
0.0000000000
40
0.0000000000
40
0.0000000000
40
0.5139596741
40
1.0000000000
40
1.0000000000
40
1.0000000000
40
1.0000000000
10
155.3962586679
20
193.1725380666
30
0.0000000000
10
155.3769218903
20
193.1019547642
30
0.0000000000
10
155.3422119014
20
192.9637438442
30
0.0000000000
10
155.3188052031
20
192.8230905599
30
0.0000000000
10
155.3111711230
20
192.7542626854
30
0.0000000000
11
155.3962586679
21
193.1725380666
31
0.0000000000
11
155.3442286367
21
192.9592399238
31
0.0000000000
11
155.3111711230
21
192.7542626854
31
0.0000000000
0
SPLINE
5
4D0
100
AcDbEntity
8
0
100
AcDbSpline
6
CONTINUOUS
70
0
71
3
72
8
73
4
74
2
42
0.0000001000
43
0.0000001000
44
0.0000000001
40
0.0000000000
40
0.0000000000
40
0.0000000000
40
0.0000000000
40
1.0000000000
40
1.0000000000
40
1.0000000000
40
1.0000000000
10
155.3111711230
20
192.7542626854
30
0.0000000000
10
155.3042274703
20
192.6916596150
30
0.0000000000
10
155.3003800004
20
192.6286720934
30
0.0000000000
10
155.3003876478
20
192.5657227348
30
0.0000000000
11
155.3111711230
21
192.7542626854
31
0.0000000000
11
155.3003876478
21
192.5657227348
31
0.0000000000
0
SPLINE
5
4D1
100
AcDbEntity
8
0
100
AcDbSpline
6
CONTINUOUS
70
0
71
3
72
10
73
6
74
4
42
0.0000001000
43
0.0000001000
44
0.0000000001
40
0.0000000000
40
0.0000000000
40
0.0000000000
40
0.0000000000
40
0.1503479611
40
0.5116535584
40
1.0000000000
40
1.0000000000
40
1.0000000000
40
1.0000000000
10
155.3003698426
20
192.5657230186
30
0.0000000000
10
155.3003691640
20
192.5556538975
30
0.0000000000
10
155.2528066988
20
192.5467977563
30
0.0000000000
10
155.1979645212
20
192.5376328414
30
0.0000000000
10
155.1370047289
20
192.5358942339
30
0.0000000000
10
155.1042991343
20
192.5358939033
30
0.0000000000
11
155.3003698426
21
192.5657230186
31
0.0000000000
11
155.2741009168
21
192.5508089872
31
0.0000000000
11
155.2023344719
21
192.5398908804
31
0.0000000000
11
155.1042991343
21
192.5358939033
31
0.0000000000
0
SPLINE
5
4D2
100
AcDbEntity
8
0
100
AcDbSpline
6
CONTINUOUS
70
0
71
3
72
14
73
10
74
8
42
0.0000001000
43
0.0000001000
44
0.0000000001
40
0.0000000000
40
0.0000000000
40
0.0000000000
40
0.0000000000
40
0.0973900282
40
0.2064045273
40
0.3290236552
40
0.4679361727
40
0.6250953504
40
0.8022517057
40
1.0000000000
40
1.0000000000
40
1.0000000000
40
1.0000000000
10
155.3003698426
20
172.6702372545
30
0.0000000000
10
155.3003711149
20
172.6021966209
30
0.0000000000
10
155.3122927147
20
172.4577903174
30
0.0000000000
10
155.3667236911
20
172.2335824578
30
0.0000000000
10
155.4643396297
20
171.9928953240
30
0.0000000000
10
155.6082875276
20
171.7375375249
30
0.0000000000
10
155.7975901201
20
171.4661140690
30
0.0000000000
10
156.0266717801
20
171.1732808865
30
0.0000000000
10
156.1928602266
20
170.9708254651
30
0.0000000000
10
156.2807598426
20
170.8642400007
30
0.0000000000
11
155.3003698426
21
172.6702372545
31
0.0000000000
11
155.3165691717
21
172.4667591670
31
0.0000000000
11
155.3695013449
21
172.2444890956
31
0.0000000000
11
155.4646676150
21
172.0057581893
31
0.0000000000
11
155.6056783708
21
171.7510344720
31
0.0000000000
11
155.7918462258
21
171.4792965004
31
0.0000000000
11
156.0188714364
21
171.1854808701
31
0.0000000000
11
156.2807598426
21
170.8642400007
31
0.0000000000
0
SPLINE
5
4D3
100
AcDbEntity
8
0
100
AcDbSpline
6
CONTINUOUS
70
0
71
3
72
9
73
5
74
3
42
0.0000001000
43
0.0000001000
44
0.0000000001
40
0.0000000000
40
0.0000000000
40
0.0000000000
40
0.0000000000
40
0.2938412911
40
1.0000000000
40
1.0000000000
40
1.0000000000
40
1.0000000000
10
155.3003698426
20
172.6702372545
30
0.0000000000
10
155.3003698426
20
172.6601680136
30
0.0000000000
10
155.2528041511
20
172.6513120786
30
0.0000000000
10
155.2247437527
20
172.6466229728
30
0.0000000000
10
155.2023310053
20
172.6444054790
30
0.0000000000
11
155.3003698426
21
172.6702372545
31
0.0000000000
11
155.2741004540
21
172.6553233101
31
0.0000000000
11
155.2023310053
21
172.6444054790
31
0.0000000000
0
SPLINE
5
4D4
100
AcDbEntity
8
0
100
AcDbSpline
6
CONTINUOUS
70
0
71
3
72
8
73
4
74
2
42
0.0000001000
43
0.0000001000
44
0.0000000001
40
0.0000000000
40
0.0000000000
40
0.0000000000
40
0.0000000000
40
1.0000000000
40
1.0000000000
40
1.0000000000
40
1.0000000000
10
155.2023310053
20
172.6444054790
30
0.0000000000
10
155.1720376271
20
172.6414082838
30
0.0000000000
10
155.1369987016
20
172.6404092332
30
0.0000000000
10
155.1042918426
20
172.6404092052
30
0.0000000000
11
155.2023310053
21
172.6444054790
31
0.0000000000
11
155.1042918426
21
172.6404092052
31
0.0000000000
0
SPLINE
5
4D5
100
AcDbEntity
8
0
100
AcDbSpline
6
CONTINUOUS
70
0
71
3
72
14
73
10
74
8
42
0.0000001000
43
0.0000001000
44
0.0000000001
40
0.0000000000
40
0.0000000000
40
0.0000000000
40
0.0000000000
40
0.1055848497
40
0.2219319951
40
0.3501347181
40
0.4915989666
40
0.6465833153
40
0.8155027087
40
1.0000000000
40
1.0000000000
40
1.0000000000
40
1.0000000000
10
155.1042918426
20
172.6404092052
30
0.0000000000
10
155.1042947747
20
172.5626915247
30
0.0000000000
10
155.1182896176
20
172.3990572190
30
0.0000000000
10
155.1829720949
20
172.1483887732
30
0.0000000000
10
155.2990730789
20
171.8876459772
30
0.0000000000
10
155.4704340994
20
171.6248016324
30
0.0000000000
10
155.6965497185
20
171.3662632411
30
0.0000000000
10
155.9726121492
20
171.1129265574
30
0.0000000000
10
156.1750699878
20
170.9495164272
30
0.0000000000
10
156.2807595742
20
170.8642400007
30
0.0000000000
11
155.1042918426
21
172.6404092052
31
0.0000000000
11
155.1237230662
21
172.4080672839
31
0.0000000000
11
155.1872047481
21
172.1591151978
31
0.0000000000
11
155.3013478355
21
171.9000480123
31
0.0000000000
11
155.4705375721
21
171.6374505530
31
0.0000000000
11
155.6940144823
21
171.3782509585
31
0.0000000000
11
155.9665639259
21
171.1235897892
31
0.0000000000
11
156.2807595742
21
170.8642400007
31
0.0000000000
0
SPLINE
5
4D6
100
AcDbEntity
8
0
100
AcDbSpline
6
CONTINUOUS
70
0
71
3
72
22
73
18
74
16
42
0.0000001000
43
0.0000001000
44
0.0000000001
40
0.0000000000
40
0.0000000000
40
0.0000000000
40
0.0000000000
40
0.0302883538
40
0.0661497054
40
0.1067092693
40
0.1511309875
40
0.1986017065
40
0.2486653986
40
0.3023889447
40
0.3612903564
40
0.4269219592
40
0.5008625805
40
0.5848704024
40
0.6797514672
40
0.7833565834
40
0.8926308623
40
1.0000000000
40
1.0000000000
40
1.0000000000
40
1.0000000000
10
122.5749516426
20
170.8642400007
30
0.0000000000
10
122.5923061228
20
170.8782449565
30
0.0000000000
10
122.6302082704
20
170.9088317581
30
0.0000000000
10
122.6912533397
20
170.9582925864
30
0.0000000000
10
122.7601064500
20
171.0146455949
30
0.0000000000
10
122.8350254958
20
171.0770788934
30
0.0000000000
10
122.9144095674
20
171.1450738098
30
0.0000000000
10
122.9976203349
20
171.2191051056
30
0.0000000000
10
123.0851089842
20
171.3009446983
30
0.0000000000
10
123.1779897431
20
171.3937164571
30
0.0000000000
10
123.2768880741
20
171.5013752018
30
0.0000000000
10
123.3813161771
20
171.6287732208
30
0.0000000000
10
123.4884983202
20
171.7812394647
30
0.0000000000
10
123.5914357978
20
171.9624414479
30
0.0000000000
10
123.6789783496
20
172.1721928443
30
0.0000000000
10
123.7375127261
20
172.4015583311
30
0.0000000000
10
123.7514155500
20
172.5613558427
30
0.0000000000
10
123.7514196426
20
172.6404092052
30
0.0000000000
11
122.5749516426
21
170.8642400007
31
0.0000000000
11
122.6270025119
21
170.9062704413
31
0.0000000000
11
122.6885270329
21
170.9561624354
31
0.0000000000
11
122.7578256841
21
171.0129419446
31
0.0000000000
11
122.8331631048
21
171.0758053300
31
0.0000000000
11
122.9127495035
21
171.1440732989
31
0.0000000000
11
122.9953085347
21
171.2176424314
31
0.0000000000
11
123.0818961092
21
171.2987857876
31
0.0000000000
11
123.1738489964
21
171.3908265314
31
0.0000000000
11
123.2717841557
21
171.4977129944
31
0.0000000000
11
123.3751207486
21
171.6241870667
31
0.0000000000
11
123.4815398269
21
171.7761972530
31
0.0000000000
11
123.5846312427
21
171.9586644778
31
0.0000000000
11
123.6722391301
21
172.1700772332
31
0.0000000000
11
123.7313237633
21
172.4041020684
31
0.0000000000
11
123.7514196426
21
172.6404092052
31
0.0000000000
0
SPLINE
5
4D7
100
AcDbEntity
8
0
100
AcDbSpline
6
CONTINUOUS
70
0
71
3
72
22
73
18
74
16
42
0.0000001000
43
0.0000001000
44
0.0000000001
40
0.0000000000
40
0.0000000000
40
0.0000000000
40
0.0000000000
40
0.0325210254
40
0.0710504034
40
0.1145939597
40
0.1621565921
40
0.2127385877
40
0.2657115721
40
0.3220390872
40
0.3830982979
40
0.4502176186
40
0.5246592553
40
0.6077664230
40
0.6998849485
40
0.7986150292
40
0.9009404726
40
1.0000000000
40
1.0000000000
40
1.0000000000
40
1.0000000000
10
122.5749516426
20
170.8642400007
30
0.0000000000
10
122.5894240639
20
170.8817587296
30
0.0000000000
10
122.6210165562
20
170.9200544556
30
0.0000000000
10
122.6718549215
20
170.9819152171
30
0.0000000000
10
122.7291772394
20
171.0520508979
30
0.0000000000
10
122.7915382169
20
171.1289442438
30
0.0000000000
10
122.8576147896
20
171.2113058393
30
0.0000000000
10
122.9268765180
20
171.2989606985
30
0.0000000000
10
122.9996909136
20
171.3931324177
30
0.0000000000
10
123.0769838952
20
171.4963219097
30
0.0000000000
10
123.1592833408
20
171.6115425786
30
0.0000000000
10
123.2461960686
20
171.7423211846
30
0.0000000000
10
123.3354436512
20
171.8923336026
30
0.0000000000
10
123.4212706220
20
172.0636929218
30
0.0000000000
10
123.4944165970
20
172.2555285448
30
0.0000000000
10
123.5435020272
20
172.4600962058
30
0.0000000000
10
123.5553400270
20
172.6010211764
30
0.0000000000
10
123.5553416426
20
172.6702372545
30
0.0000000000
11
122.5749516426
21
170.8642400007
31
0.0000000000
11
122.6183299155
21
170.9168283739
31
0.0000000000
11
122.6696040520
21
170.9792300719
31
0.0000000000
11
122.7273573733
21
171.0499112911
31
0.0000000000
11
122.7901430267
21
171.1273591836
31
0.0000000000
11
122.8564692927
21
171.2100824896
31
0.0000000000
11
122.9252747139
21
171.2972380509
31
0.0000000000
11
122.9974388473
21
171.3906923106
31
0.0000000000
11
123.0740745742
21
171.4932054510
31
0.0000000000
11
123.1556941471
21
171.6078065356
31
0.0000000000
11
123.2418102938
21
171.7379365945
31
0.0000000000
11
123.3304810381
21
171.8878907833
31
0.0000000000
11
123.4163629266
21
172.0608397460
31
0.0000000000
11
123.4893529321
21
172.2544990545
31
0.0000000000
11
123.5385888103
21
172.4632659235
31
0.0000000000
11
123.5553416426
21
172.6702372545
31
0.0000000000
0
SPLINE
5
4D8
100
AcDbEntity
8
0
100
AcDbSpline
6
CONTINUOUS
70
0
71
3
72
9
73
5
74
3
42
0.0000001000
43
0.0000001000
44
0.0000000001
40
0.0000000000
40
0.0000000000
40
0.0000000000
40
0.0000000000
40
0.2938418304
40
1.0000000000
40
1.0000000000
40
1.0000000000
40
1.0000000000
10
123.5553416426
20
172.6702372545
30
0.0000000000
10
123.5553416426
20
172.6601679765
30
0.0000000000
10
123.6029073964
20
172.6513119680
30
0.0000000000
10
123.6309678628
20
172.6466228840
30
0.0000000000
10
123.6533806426
20
172.6444054061
30
0.0000000000
11
123.5553416426
21
172.6702372545
31
0.0000000000
11
123.5816111135
21
172.6553232299
31
0.0000000000
11
123.6533806426
21
172.6444054061
31
0.0000000000
0
SPLINE
5
4D9
100
AcDbEntity
8
0
100
AcDbSpline
6
CONTINUOUS
70
0
71
3
72
8
73
4
74
2
42
0.0000001000
43
0.0000001000
44
0.0000000001
40
0.0000000000
40
0.0000000000
40
0.0000000000
40
0.0000000000
40
1.0000000000
40
1.0000000000
40
1.0000000000
40
1.0000000000
10
123.6533806426
20
172.6444054061
30
0.0000000000
10
123.6836739807
20
172.6414082407
30
0.0000000000
10
123.7187128388
20
172.6404092052
30
0.0000000000
10
123.7514196426
20
172.6404092052
30
0.0000000000
11
123.6533806426
21
172.6444054061
31
0.0000000000
11
123.7514196426
21
172.6404092052
31
0.0000000000
0
SPLINE
5
4DA
100
AcDbEntity
8
0
100
AcDbSpline
6
CONTINUOUS
70
0
71
3
72
10
73
6
74
4
42
0.0000001000
43
0.0000001000
44
0.0000000001
40
0.0000000000
40
0.0000000000
40
0.0000000000
40
0.0000000000
40
0.3740111645
40
0.7853229170
40
1.0000000000
40
1.0000000000
40
1.0000000000
40
1.0000000000
10
123.5553235822
20
192.5657240900
30
0.0000000000
10
123.5553313488
20
192.6286056269
30
0.0000000000
10
123.5472719254
20
192.7607200662
30
0.0000000000
10
123.5196550124
20
192.9267969146
30
0.0000000000
10
123.4961902186
20
193.0294254883
30
0.0000000000
10
123.4875948802
20
193.0644872343
30
0.0000000000
11
123.5553235822
21
192.5657240900
31
0.0000000000
11
123.5445635093
21
192.7540615811
31
0.0000000000
11
123.5115578300
21
192.9588775957
31
0.0000000000
11
123.4875948802
21
193.0644872343
31
0.0000000000
0
SPLINE
5
4DB
100
AcDbEntity
8
0
100
AcDbSpline
6
CONTINUOUS
70
0
71
3
72
8
73
4
74
2
42
0.0000001000
43
0.0000001000
44
0.0000000001
40
0.0000000000
40
0.0000000000
40
0.0000000000
40
0.0000000000
40
1.0000000000
40
1.0000000000
40
1.0000000000
40
1.0000000000
10
123.4875948802
20
193.0644872343
30
0.0000000000
10
123.4787322745
20
193.1006392058
30
0.0000000000
10
123.4692867360
20
193.1366489544
30
0.0000000000
10
123.4594535578
20
193.1725417777
30
0.0000000000
11
123.4875948802
21
193.0644872343
31
0.0000000000
11
123.4594535578
21
193.1725417777
31
0.0000000000
0
SPLINE
5
4DC
100
AcDbEntity
8
0
100
AcDbSpline
6
CONTINUOUS
70
0
71
3
72
10
73
6
74
4
42
0.0000001000
43
0.0000001000
44
0.0000000001
40
0.0000000000
40
0.0000000000
40
0.0000000000
40
0.0000000000
40
0.1503390152
40
0.5116374956
40
1.0000000000
40
1.0000000000
40
1.0000000000
40
1.0000000000
10
123.5553416426
20
192.5657230391
30
0.0000000000
10
123.5553423112
20
192.5556545567
30
0.0000000000
10
123.6029045189
20
192.5468014365
30
0.0000000000
10
123.6577450518
20
192.5376334546
30
0.0000000000
10
123.7187057927
20
192.5358948312
30
0.0000000000
10
123.7514123348
20
192.5358939397
30
0.0000000000
11
123.5553416426
21
192.5657230391
31
0.0000000000
11
123.5816095897
21
192.5508111642
31
0.0000000000
11
123.6533742174
21
192.5398925127
31
0.0000000000
11
123.7514123348
21
192.5358939397
31
0.0000000000
0
SPLINE
5
4DD
100
AcDbEntity
8
0
100
AcDbSpline
6
CONTINUOUS
70
0
71
3
72
10
73
6
74
4
42
0.0000001000
43
0.0000001000
44
0.0000000001
40
0.0000000000
40
0.0000000000
40
0.0000000000
40
0.0000000000
40
0.3135463290
40
0.6541647729
40
1.0000000000
40
1.0000000000
40
1.0000000000
40
1.0000000000
10
123.7514123349
20
192.5358939396
30
0.0000000000
10
123.7514305955
20
192.6231595270
30
0.0000000000
10
123.7372044508
20
192.8054100826
30
0.0000000000
10
123.6787408384
20
193.0781718150
30
0.0000000000
10
123.6197606317
20
193.2600986493
30
0.0000000000
10
123.5882030785
20
193.3510304989
30
0.0000000000
11
123.7514123349
21
192.5358939396
31
0.0000000000
11
123.7322752301
21
192.7969903183
31
0.0000000000
11
123.6744052643
21
193.0754411175
31
0.0000000000
11
123.5882030785
21
193.3510304989
31
0.0000000000
0
SPLINE
5
4DE
100
AcDbEntity
8
0
100
AcDbSpline
6
CONTINUOUS
70
0
71
3
72
15
73
11
74
9
42
0.0000001000
43
0.0000001000
44
0.0000000001
40
0.0000000000
40
0.0000000000
40
0.0000000000
40
0.0000000000
40
0.0166555046
40
0.0703314717
40
0.1666718887
40
0.3027956244
40
0.4689894886
40
0.6511911668
40
0.8331727204
40
1.0000000000
40
1.0000000000
40
1.0000000000
40
1.0000000000
10
156.2807598426
20
193.3510304989
30
0.0000000000
10
156.2753059413
20
193.3510313309
30
0.0000000000
10
156.2745329378
20
193.3850701127
30
0.0000000000
10
156.2649458869
20
193.4276153436
30
0.0000000000
10
156.2616365633
20
193.5283167683
30
0.0000000000
10
156.2553086983
20
193.6555622716
30
0.0000000000
10
156.2514923596
20
193.8153296145
30
0.0000000000
10
156.2484493276
20
193.9886190738
30
0.0000000000
10
156.2468790020
20
194.1625940052
30
0.0000000000
10
156.2465522122
20
194.2767923420
30
0.0000000000
10
156.2465521326
20
194.3314204989
30
0.0000000000
11
156.2807598426
21
193.3510304989
31
0.0000000000
11
156.2747562995
21
193.3662509728
31
0.0000000000
11
156.2682825491
21
193.4185811916
31
0.0000000000
11
156.2619246889
21
193.5130083798
31
0.0000000000
11
156.2562761129
21
193.6466115586
31
0.0000000000
11
156.2517880281
21
193.8098120868
31
0.0000000000
11
156.2487015006
21
193.9887731395
31
0.0000000000
11
156.2470260087
21
194.1675367133
31
0.0000000000
11
156.2465521326
21
194.3314204989
31
0.0000000000
0
SPLINE
5
4DF
100
AcDbEntity
8
0
100
AcDbSpline
62
7
6
CONTINUOUS
70
0
71
3
72
8
73
4
74
2
42
0.0000001000
43
0.0000001000
44
0.0000000001
40
0.0000000000
40
0.0000000000
40
0.0000000000
40
0.0000000000
40
1.0000000000
40
1.0000000000
40
1.0000000000
40
1.0000000000
10
155.3944017414
20
193.1675523605
30
0.0000000000
10
155.4093500556
20
193.2086407623
30
0.0000000000
10
155.4257916055
20
193.2492153204
30
0.0000000000
10
155.4435804329
20
193.2892202980
30
0.0000000000
11
155.3944017414
21
193.1675523605
31
0.0000000000
11
155.4435804329
21
193.2892202980
31
0.0000000000
0
SPLINE
5
4E0
100
AcDbEntity
8
0
100
AcDbSpline
62
7
6
CONTINUOUS
70
0
71
3
72
11
73
7
74
5
42
0.0000001000
43
0.0000001000
44
0.0000000001
40
0.0000000000
40
0.0000000000
40
0.0000000000
40
0.0000000000
40
0.1890807305
40
0.4683785090
40
0.7391323201
40
1.0000000000
40
1.0000000000
40
1.0000000000
40
1.0000000000
10
155.4435804329
20
193.2892202980
30
0.0000000000
10
155.4774969195
20
193.3654944818
30
0.0000000000
10
155.5736446780
20
193.5493069478
30
0.0000000000
10
155.7630014857
20
193.8155848128
30
0.0000000000
10
156.0002365078
20
194.0835717468
30
0.0000000000
10
156.1652624718
20
194.2500497676
30
0.0000000000
10
156.2465448430
20
194.3314204989
30
0.0000000000
11
155.4435804329
21
193.2892202980
31
0.0000000000
11
155.5590110975
21
193.5114449436
31
0.0000000000
11
155.7703472432
21
193.8144388804
31
0.0000000000
11
156.0055927807
21
194.0844502947
31
0.0000000000
11
156.2465448430
21
194.3314204989
31
0.0000000000
0
SPLINE
5
4E1
100
AcDbEntity
8
0
100
AcDbSpline
62
7
6
CONTINUOUS
70
0
71
3
72
11
73
7
74
5
42
0.0000001000
43
0.0000001000
44
0.0000000001
40
0.0000000000
40
0.0000000000
40
0.0000000000
40
0.0000000000
40
0.2608184911
40
0.5315192860
40
0.8107611094
40
1.0000000000
40
1.0000000000
40
1.0000000000
40
1.0000000000
10
122.6091666471
20
194.3314204989
30
0.0000000000
10
122.6904355318
20
194.2500644743
30
0.0000000000
10
122.8554311338
20
194.0836151778
30
0.0000000000
10
123.0926312922
20
193.8156822036
30
0.0000000000
10
123.2820081484
20
193.5493899562
30
0.0000000000
10
123.3782052777
20
193.3655453699
30
0.0000000000
10
123.4121488878
20
193.2892058325
30
0.0000000000
11
122.6091666471
21
194.3314204989
31
0.0000000000
11
122.8500779185
21
194.0844940553
31
0.0000000000
11
123.0852866799
21
193.8145363740
31
0.0000000000
11
123.2966014378
21
193.5116108986
31
0.0000000000
11
123.4121488878
21
193.2892058325
31
0.0000000000
0
SPLINE
5
4E2
100
AcDbEntity
8
0
100
AcDbSpline
62
7
6
CONTINUOUS
70
0
71
3
72
8
73
4
74
2
42
0.0000001000
43
0.0000001000
44
0.0000000001
40
0.0000000000
40
0.0000000000
40
0.0000000000
40
0.0000000000
40
1.0000000000
40
1.0000000000
40
1.0000000000
40
1.0000000000
10
123.4121488878
20
193.2892058325
30
0.0000000000
10
123.4298964680
20
193.2492913373
30
0.0000000000
10
123.4463005578
20
193.2088090255
30
0.0000000000
10
123.4612144124
20
193.1678135577
30
0.0000000000
11
123.4121488878
21
193.2892058325
31
0.0000000000
11
123.4612144124
21
193.1678135577
31
0.0000000000
0
SPLINE
5
4E3
100
AcDbEntity
8
0
100
AcDbSpline
6
CONTINUOUS
70
0
71
3
72
15
73
11
74
9
42
0.0000001000
43
0.0000001000
44
0.0000000001
40
0.0000000000
40
0.0000000000
40
0.0000000000
40
0.0000000000
40
0.1669288435
40
0.3489276939
40
0.5310914108
40
0.6972269656
40
0.8333068015
40
0.9296368805
40
0.9833297454
40
1.0000000000
40
1.0000000000
40
1.0000000000
40
1.0000000000
10
122.6091591417
20
194.3314204989
30
0.0000000000
10
122.6091590629
20
194.2767590968
30
0.0000000000
10
122.6088322739
20
194.1625218765
30
0.0000000000
10
122.6072608651
20
193.9885204887
30
0.0000000000
10
122.6042174086
20
193.8152568266
30
0.0000000000
10
122.6004018100
20
193.6555359979
30
0.0000000000
10
122.5940748555
20
193.5283259148
30
0.0000000000
10
122.5907685658
20
193.4276380071
30
0.0000000000
10
122.5811774081
20
193.3850886838
30
0.0000000000
10
122.5804103726
20
193.3510314080
30
0.0000000000
10
122.5749516426
20
193.3510304989
30
0.0000000000
11
122.6091591417
21
194.3314204989
31
0.0000000000
11
122.6086848895
21
194.1674369784
31
0.0000000000
11
122.6070084605
21
193.9886564610
31
0.0000000000
11
122.6039217116
21
193.8097327496
31
0.0000000000
11
122.5994346198
21
193.6465895332
31
0.0000000000
11
122.5937879336
21
193.5130294683
31
0.0000000000
11
122.5874317093
21
193.4186123699
31
0.0000000000
11
122.5809580113
21
193.3662654304
31
0.0000000000
11
122.5749516426
21
193.3510304989
31
0.0000000000
0
SPLINE
5
4E4
100
AcDbEntity
8
0
100
AcDbSpline
6
CONTINUOUS
70
0
71
3
72
11
73
7
74
5
42
0.0000001000
43
0.0000001000
44
0.0000000001
40
0.0000000000
40
0.0000000000
40
0.0000000000
40
0.0000000000
40
0.4050926535
40
0.7356500837
40
0.9523905914
40
1.0000000000
40
1.0000000000
40
1.0000000000
40
1.0000000000
10
195.7654146899
20
212.9824347334
30
0.0000000000
10
195.8007194461
20
213.0835145434
30
0.0000000000
10
195.8671094335
20
213.2603422613
30
0.0000000000
10
195.9568009206
20
213.5157939417
30
0.0000000000
10
196.0226940436
20
213.6217030554
30
0.0000000000
10
196.0531648424
20
213.7175952669
30
0.0000000000
10
196.0609935903
20
213.7274157658
30
0.0000000000
11
195.7654146899
21
212.9824347334
31
0.0000000000
11
195.8747122950
21
213.2844711843
31
0.0000000000
11
195.9708312185
21
213.5283145681
31
0.0000000000
11
196.0422278905
21
213.6846387823
31
0.0000000000
11
196.0609935903
21
213.7274157658
31
0.0000000000
0
SPLINE
5
4E5
100
AcDbEntity
8
0
100
AcDbSpline
6
CONTINUOUS
70
0
71
3
72
8
73
4
74
2
42
0.0000001000
43
0.0000001000
44
0.0000000001
40
0.0000000000
40
0.0000000000
40
0.0000000000
40
0.0000000000
40
1.0000000000
40
1.0000000000
40
1.0000000000
40
1.0000000000
10
196.0609935903
20
213.7274157658
30
0.0000000000
10
196.0661729243
20
213.7339128001
30
0.0000000000
10
196.0723768643
20
213.7371492077
30
0.0000000000
10
196.0802720830
20
213.7345091914
30
0.0000000000
11
196.0609935903
21
213.7274157658
31
0.0000000000
11
196.0802720830
21
213.7345091914
31
0.0000000000
0
SPLINE
5
4E6
100
AcDbEntity
8
0
100
AcDbSpline
6
CONTINUOUS
70
0
71
3
72
12
73
8
74
6
42
0.0000001000
43
0.0000001000
44
0.0000000001
40
0.0000000000
40
0.0000000000
40
0.0000000000
40
0.0000000000
40
0.2363177715
40
0.4655803101
40
0.6715959767
40
0.8481003568
40
1.0000000000
40
1.0000000000
40
1.0000000000
40
1.0000000000
10
195.7648800003
20
212.9832581077
30
0.0000000000
10
195.6975900901
20
213.0954826104
30
0.0000000000
10
195.5558360134
20
213.3113268103
30
0.0000000000
10
195.3174510229
20
213.5981680173
30
0.0000000000
10
195.0591005541
20
213.8207993410
30
0.0000000000
10
194.7923426246
20
213.9572003589
30
0.0000000000
10
194.6094849672
20
213.9875125572
30
0.0000000000
10
194.5253762417
20
213.9875215969
30
0.0000000000
11
195.7648800003
21
212.9832581077
31
0.0000000000
11
195.5476322216
21
213.3102196372
31
0.0000000000
11
195.3010681455
21
213.6004654893
31
0.0000000000
11
195.0381098636
21
213.8194807741
31
0.0000000000
11
194.7745918913
21
213.9480240006
31
0.0000000000
11
194.5253762417
21
213.9875215969
31
0.0000000000
0
SPLINE
5
4E7
100
AcDbEntity
8
0
100
AcDbSpline
6
CONTINUOUS
70
0
71
3
72
14
73
10
74
8
42
0.0000001000
43
0.0000001000
44
0.0000000001
40
0.0000000000
40
0.0000000000
40
0.0000000000
40
0.0000000000
40
0.1505028357
40
0.3068769474
40
0.4632951450
40
0.6140292156
40
0.7548825366
40
0.8842015516
40
1.0000000000
40
1.0000000000
40
1.0000000000
40
1.0000000000
10
198.4473337426
20
209.2625507623
30
0.0000000000
10
198.4472958331
20
209.5080470985
30
0.0000000000
10
198.4000823912
20
210.0098621664
30
0.0000000000
10
198.1856484073
20
210.7393659870
30
0.0000000000
10
197.8333758775
20
211.4139035291
30
0.0000000000
10
197.3750325505
20
211.9886312884
30
0.0000000000
10
196.8540369465
20
212.4412316696
30
0.0000000000
10
196.3140200508
20
212.7701024413
30
0.0000000000
10
195.9430670943
20
212.9235476425
30
0.0000000000
10
195.7638659589
20
212.9832587607
30
0.0000000000
11
198.4473337426
21
209.2625507623
31
0.0000000000
11
198.3781783337
21
209.9957857877
31
0.0000000000
11
198.1624397044
21
210.7299648248
31
0.0000000000
11
197.8080991248
21
211.4084447321
31
0.0000000000
11
197.3481926670
21
211.9851336927
31
0.0000000000
11
196.8279136553
21
212.4372413862
31
0.0000000000
11
196.2873080909
21
212.7661999769
31
0.0000000000
11
195.7638659589
21
212.9832587607
31
0.0000000000
0
SPLINE
5
4E8
100
AcDbEntity
8
0
100
AcDbSpline
6
CONTINUOUS
70
0
71
3
72
11
73
7
74
5
42
0.0000001000
43
0.0000001000
44
0.0000000001
40
0.0000000000
40
0.0000000000
40
0.0000000000
40
0.0000000000
40
0.3692480738
40
0.6843507009
40
0.9008765852
40
1.0000000000
40
1.0000000000
40
1.0000000000
40
1.0000000000
10
198.4473337426
20
209.2625507623
30
0.0000000000
10
198.5724727693
20
209.2625507737
30
0.0000000000
10
198.8018148520
20
209.2560211597
30
0.0000000000
10
199.1152448037
20
209.2183723364
30
0.0000000000
10
199.3043981160
20
209.1800661551
30
0.0000000000
10
199.4277237426
20
209.1191647489
30
0.0000000000
10
199.4277237426
20
209.0855715942
30
0.0000000000
11
198.4473337426
21
209.2625507623
31
0.0000000000
11
198.8225090409
21
209.2490793291
31
0.0000000000
11
199.1405707381
21
209.2107154168
31
0.0000000000
11
199.3530947939
21
209.1532991394
31
0.0000000000
11
199.4277237426
21
209.0855715942
31
0.0000000000
0
SPLINE
5
4E9
100
AcDbEntity
8
0
100
AcDbSpline
62
7
6
CONTINUOUS
70
0
71
3
72
13
73
9
74
7
42
0.0000001000
43
0.0000001000
44
0.0000000001
40
0.0000000000
40
0.0000000000
40
0.0000000000
40
0.0000000000
40
0.0529067781
40
0.1831006588
40
0.3600373173
40
0.5645616880
40
0.7825093358
40
1.0000000000
40
1.0000000000
40
1.0000000000
40
1.0000000000
10
304.0549740146
20
210.0960938589
30
0.0000000000
10
304.0637918109
20
210.0872760626
30
0.0000000000
10
304.0943085874
20
210.0567592861
30
0.0000000000
10
304.1543148070
20
209.9967530666
30
0.0000000000
10
304.2395906253
20
209.9114772482
30
0.0000000000
10
304.3394920714
20
209.8115758021
30
0.0000000000
10
304.4461525186
20
209.7049153550
30
0.0000000000
10
304.5187255706
20
209.6323423030
30
0.0000000000
10
304.5549740146
20
209.5960938589
30
0.0000000000
11
304.0549740146
21
210.0960938589
31
0.0000000000
11
304.0814274036
21
210.0696404699
31
0.0000000000
11
304.1465243440
21
210.0045435295
31
0.0000000000
11
304.2349926733
21
209.9160752003
31
0.0000000000
11
304.3372548586
21
209.8138130149
31
0.0000000000
11
304.4462286825
21
209.7048391910
31
0.0000000000
11
304.5549740146
21
209.5960938589
31
0.0000000000
0
SPLINE
5
4EA
100
AcDbEntity
8
0
100
AcDbSpline
62
7
6
CONTINUOUS
70
0
71
3
72
13
73
9
74
7
42
0.0000001000
43
0.0000001000
44
0.0000000001
40
0.0000000000
40
0.0000000000
40
0.0000000000
40
0.0000000000
40
0.0529067781
40
0.1831006588
40
0.3600373173
40
0.5645616880
40
0.7825093358
40
1.0000000000
40
1.0000000000
40
1.0000000000
40
1.0000000000
10
316.0549740146
20
210.0960938589
30
0.0000000000
10
316.0461562183
20
210.0872760626
30
0.0000000000
10
316.0156394418
20
210.0567592861
30
0.0000000000
10
315.9556332222
20
209.9967530666
30
0.0000000000
10
315.8703574039
20
209.9114772482
30
0.0000000000
10
315.7704559578
20
209.8115758021
30
0.0000000000
10
315.6637955106
20
209.7049153550
30
0.0000000000
10
315.5912224586
20
209.6323423030
30
0.0000000000
10
315.5549740146
20
209.5960938589
30
0.0000000000
11
316.0549740146
21
210.0960938589
31
0.0000000000
11
316.0285206256
21
210.0696404699
31
0.0000000000
11
315.9634236852
21
210.0045435295
31
0.0000000000
11
315.8749553559
21
209.9160752003
31
0.0000000000
11
315.7726931706
21
209.8138130149
31
0.0000000000
11
315.6637193467
21
209.7048391910
31
0.0000000000
11
315.5549740146
21
209.5960938589
31
0.0000000000
0
SPLINE
5
4EB
100
AcDbEntity
8
0
100
AcDbSpline
62
7
6
CONTINUOUS
70
0
71
3
72
9
73
5
74
3
42
0.0000001000
43
0.0000001000
44
0.0000000001
40
0.0000000000
40
0.0000000000
40
0.0000000000
40
0.0000000000
40
0.4746222136
40
1.0000000000
40
1.0000000000
40
1.0000000000
40
1.0000000000
10
305.4275332146
20
211.5440691430
30
0.0000000000
10
305.4274319730
20
211.5505753594
30
0.0000000000
10
305.4258138283
20
211.5646654693
30
0.0000000000
10
305.4175845038
20
211.5760380583
30
0.0000000000
10
305.4137623615
20
211.5821431677
30
0.0000000000
11
305.4275332146
21
211.5440691430
31
0.0000000000
11
305.4244066825
21
211.5633381520
31
0.0000000000
11
305.4137623615
21
211.5821431677
31
0.0000000000
0
SPLINE
5
4EC
100
AcDbEntity
8
0
100
AcDbSpline
6
CONTINUOUS
70
0
71
3
72
9
73
5
74
3
42
0.0000001000
43
0.0000001000
44
0.0000000001
40
0.0000000000
40
0.0000000000
40
0.0000000000
40
0.0000000000
40
0.6199064449
40
1.0000000000
40
1.0000000000
40
1.0000000000
40
1.0000000000
10
305.4137623615
20
211.5821431677
30
0.0000000000
10
305.3996142286
20
211.6046777324
30
0.0000000000
10
305.3631736566
20
211.6317119214
30
0.0000000000
10
305.3229796562
20
211.6475698838
30
0.0000000000
10
305.3073522969
20
211.6523610777
30
0.0000000000
11
305.4137623615
21
211.5821431677
31
0.0000000000
11
305.3529923552
21
211.6339002233
31
0.0000000000
11
305.3073522969
21
211.6523610777
31
0.0000000000
0
SPLINE
5
4ED
100
AcDbEntity
8
0
100
AcDbSpline
6
CONTINUOUS
70
0
71
3
72
8
73
4
74
2
42
0.0000001000
43
0.0000001000
44
0.0000000001
40
0.0000000000
40
0.0000000000
40
0.0000000000
40
0.0000000000
40
1.0000000000
40
1.0000000000
40
1.0000000000
40
1.0000000000
10
305.3073522969
20
211.6523610777
30
0.0000000000
10
305.2898839362
20
211.6577167046
30
0.0000000000
10
305.2719784052
20
211.6615275666
30
0.0000000000
10
305.2539044034
20
211.6643220682
30
0.0000000000
11
305.3073522969
21
211.6523610777
31
0.0000000000
11
305.2539044034
21
211.6643220682
31
0.0000000000
0
SPLINE
5
4EE
100
AcDbEntity
8
0
100
AcDbSpline
6
CONTINUOUS
70
0
71
3
72
8
73
4
74
2
42
0.0000001000
43
0.0000001000
44
0.0000000001
40
0.0000000000
40
0.0000000000
40
0.0000000000
40
0.0000000000
40
1.0000000000
40
1.0000000000
40
1.0000000000
40
1.0000000000
10
305.2539044034
20
211.6643220682
30
0.0000000000
10
305.2344338201
20
211.6673325016
30
0.0000000000
10
305.2147677246
20
211.6691634375
30
0.0000000000
10
305.1950743253
20
211.6698281361
30
0.0000000000
11
305.2539044034
21
211.6643220682
31
0.0000000000
11
305.1950743253
21
211.6698281361
31
0.0000000000
0
SPLINE
5
4EF
100
AcDbEntity
8
0
100
AcDbSpline
6
CONTINUOUS
70
0
71
3
72
8
73
4
74
2
42
0.0000001000
43
0.0000001000
44
0.0000000001
40
0.0000000000
40
0.0000000000
40
0.0000000000
40
0.0000000000
40
1.0000000000
40
1.0000000000
40
1.0000000000
40
1.0000000000
10
305.1950743253
20
211.6698281361
30
0.0000000000
10
305.1744874065
20
211.6705229931
30
0.0000000000
10
305.1538706501
20
211.6699433841
30
0.0000000000
10
305.1334162146
20
211.6681044572
30
0.0000000000
11
305.1950743253
21
211.6698281361
31
0.0000000000
11
305.1334162146
21
211.6681044572
31
0.0000000000
0
SPLINE
5
4F0
100
AcDbEntity
8
0
100
AcDbSpline
6
CONTINUOUS
70
0
71
3
72
10
73
6
74
4
42
0.0000001000
43
0.0000001000
44
0.0000000001
40
0.0000000000
40
0.0000000000
40
0.0000000000
40
0.0000000000
40
0.4055233163
40
0.8031086352
40
1.0000000000
40
1.0000000000
40
1.0000000000
40
1.0000000000
10
305.4137741244
20
211.5821451527
30
0.0000000000
10
305.4134833086
20
211.5918781412
30
0.0000000000
10
305.4111519396
20
211.6111570293
30
0.0000000000
10
305.4037293220
20
211.6341393050
30
0.0000000000
10
305.3973478492
20
211.6469672018
30
0.0000000000
10
305.3950306007
20
211.6510988324
30
0.0000000000
11
305.4137741244
21
211.5821451527
31
0.0000000000
11
305.4102034190
21
211.6111380970
31
0.0000000000
11
305.4013589747
21
211.6383784302
31
0.0000000000
11
305.3950306007
21
211.6510988324
31
0.0000000000
0
SPLINE
5
4F1
100
AcDbEntity
8
0
100
AcDbSpline
6
CONTINUOUS
70
0
71
3
72
8
73
4
74
2
42
0.0000001000
43
0.0000001000
44
0.0000000001
40
0.0000000000
40
0.0000000000
40
0.0000000000
40
0.0000000000
40
1.0000000000
40
1.0000000000
40
1.0000000000
40
1.0000000000
10
305.3950306007
20
211.6510988324
30
0.0000000000
10
305.3927171893
20
211.6552236215
30
0.0000000000
10
305.3902007547
20
211.6592318141
30
0.0000000000
10
305.3874935155
20
211.6630980959
30
0.0000000000
11
305.3950306007
21
211.6510988324
31
0.0000000000
11
305.3874935155
21
211.6630980959
31
0.0000000000
0
SPLINE
5
4F2
100
AcDbEntity
8
0
100
AcDbSpline
6
CONTINUOUS
70
0
71
3
72
9
73
5
74
3
42
0.0000001000
43
0.0000001000
44
0.0000000001
40
0.0000000000
40
0.0000000000
40
0.0000000000
40
0.0000000000
40
0.6089949106
40
1.0000000000
40
1.0000000000
40
1.0000000000
40
1.0000000000
10
305.3874935155
20
211.6630980959
30
0.0000000000
10
305.3751874128
20
211.6806677142
30
0.0000000000
10
305.3404227062
20
211.6977638100
30
0.0000000000
10
305.3050797798
20
211.7020263880
30
0.0000000000
10
305.2912700832
20
211.7023208836
30
0.0000000000
11
305.3874935155
21
211.6630980959
31
0.0000000000
11
305.3326299069
21
211.6967309565
31
0.0000000000
11
305.2912700832
21
211.7023208836
31
0.0000000000
0
SPLINE
5
4F3
100
AcDbEntity
8
0
100
AcDbSpline
6
CONTINUOUS
70
0
71
3
72
9
73
5
74
3
42
0.0000001000
43
0.0000001000
44
0.0000000001
40
0.0000000000
40
0.0000000000
40
0.0000000000
40
0.0000000000
40
0.2972563642
40
1.0000000000
40
1.0000000000
40
1.0000000000
40
1.0000000000
10
305.2912700832
20
211.7023208836
30
0.0000000000
10
305.2751636994
20
211.7026643567
30
0.0000000000
10
305.2210240030
20
211.6975405209
30
0.0000000000
10
305.1687905969
20
211.6818832039
30
0.0000000000
10
305.1334046531
20
211.6681034949
30
0.0000000000
11
305.2912700832
21
211.7023208836
31
0.0000000000
11
305.2431454031
21
211.6986874185
31
0.0000000000
11
305.1334046531
21
211.6681034949
31
0.0000000000
0
SPLINE
5
4F4
100
AcDbEntity
8
0
100
AcDbSpline
6
CONTINUOUS
70
0
71
3
72
10
73
6
74
4
42
0.0000001000
43
0.0000001000
44
0.0000000001
40
0.0000000000
40
0.0000000000
40
0.0000000000
40
0.0000000000
40
0.3732346773
40
0.7815337556
40
1.0000000000
40
1.0000000000
40
1.0000000000
40
1.0000000000
10
292.4704051620
20
193.1724700699
30
0.0000000000
10
292.4823936606
20
193.1286630762
30
0.0000000000
10
292.5074446145
20
193.0369191241
30
0.0000000000
10
292.5389480690
20
192.9193799556
30
0.0000000000
10
292.5582818309
20
192.8456016321
30
0.0000000000
10
292.5649691116
20
192.8198718902
30
0.0000000000
11
292.4704051620
21
193.1724700699
31
0.0000000000
11
292.5062226183
21
193.0410086651
31
0.0000000000
11
292.5447538252
21
192.8970209699
31
0.0000000000
11
292.5649691116
21
192.8198718902
31
0.0000000000
0
SPLINE
5
4F5
100
AcDbEntity
8
0
100
AcDbSpline
6
CONTINUOUS
70
0
71
3
72
9
73
5
74
3
42
0.0000001000
43
0.0000001000
44
0.0000000001
40
0.0000000000
40
0.0000000000
40
0.0000000000
40
0.0000000000
40
0.3184977829
40
1.0000000000
40
1.0000000000
40
1.0000000000
40
1.0000000000
10
292.5649691116
20
192.8198718902
30
0.0000000000
10
292.5719696053
20
192.7929370413
30
0.0000000000
10
292.5937713622
20
192.7083223232
30
0.0000000000
10
292.6149948120
20
192.6235595169
30
0.0000000000
10
292.6291684281
20
192.5657227327
30
0.0000000000
11
292.5649691116
21
192.8198718902
31
0.0000000000
11
292.5857985638
21
192.7390228189
31
0.0000000000
11
292.6291684281
21
192.5657227327
31
0.0000000000
0
SPLINE
5
4F6
100
AcDbEntity
8
0
100
AcDbSpline
6
CONTINUOUS
70
0
71
3
72
9
73
5
74
3
42
0.0000001000
43
0.0000001000
44
0.0000000001
40
0.0000000000
40
0.0000000000
40
0.0000000000
40
0.0000000000
40
0.6083211810
40
1.0000000000
40
1.0000000000
40
1.0000000000
40
1.0000000000
10
314.7224545955
20
211.6630980578
30
0.0000000000
10
314.7347519394
20
211.6806545597
30
0.0000000000
10
314.7695255686
20
211.6977563031
30
0.0000000000
10
314.8048826599
20
211.7020214165
30
0.0000000000
10
314.8187216891
20
211.7023145766
30
0.0000000000
11
314.7224545955
21
211.6630980578
31
0.0000000000
11
314.7772749227
21
211.6967110104
31
0.0000000000
11
314.8187216891
21
211.7023145766
31
0.0000000000
0
SPLINE
5
4F7
100
AcDbEntity
8
0
100
AcDbSpline
6
CONTINUOUS
70
0
71
3
72
9
73
5
74
3
42
0.0000001000
43
0.0000001000
44
0.0000000001
40
0.0000000000
40
0.0000000000
40
0.0000000000
40
0.0000000000
40
0.2979017501
40
1.0000000000
40
1.0000000000
40
1.0000000000
40
1.0000000000
10
314.8187216891
20
211.7023145766
30
0.0000000000
10
314.8348589131
20
211.7026564208
30
0.0000000000
10
314.8889847387
20
211.6975170981
30
0.0000000000
10
314.9411929709
20
211.6818489120
30
0.0000000000
10
314.9765432668
20
211.6681035229
30
0.0000000000
11
314.8187216891
21
211.7023145766
31
0.0000000000
11
314.8669370917
21
211.6986600056
31
0.0000000000
11
314.9765432668
21
211.6681035229
31
0.0000000000
0
SPLINE
5
4F8
100
AcDbEntity
8
0
100
AcDbSpline
6
CONTINUOUS
70
0
71
3
72
14
73
10
74
8
42
0.0000001000
43
0.0000001000
44
0.0000000001
40
0.0000000000
40
0.0000000000
40
0.0000000000
40
0.0000000000
40
0.1128061099
40
0.2358893822
40
0.3679541552
40
0.5087889982
40
0.6590190484
40
0.8215039970
40
1.0000000000
40
1.0000000000
40
1.0000000000
40
1.0000000000
10
295.6913804622
20
172.6702372545
30
0.0000000000
10
295.6969372646
20
172.6024495387
30
0.0000000000
10
295.7076096727
20
172.4606179463
30
0.0000000000
10
295.7204310184
20
172.2391210839
30
0.0000000000
10
295.7289153393
20
172.0004945738
30
0.0000000000
10
295.7316892248
20
171.7453673138
30
0.0000000000
10
295.7304476581
20
171.4719133676
30
0.0000000000
10
295.7350804940
20
171.1757147915
30
0.0000000000
10
295.7544995892
20
170.9705953133
30
0.0000000000
10
295.7709631017
20
170.8642400007
30
0.0000000000
11
295.6913804622
21
172.6702372545
31
0.0000000000
11
295.7065837555
21
172.4667591670
31
0.0000000000
11
295.7193213027
21
172.2444890957
31
0.0000000000
11
295.7277770637
21
172.0057581893
31
0.0000000000
11
295.7309943614
21
171.7510344721
31
0.0000000000
11
295.7313594513
21
171.4792965004
31
0.0000000000
11
295.7386087883
21
171.1854808701
31
0.0000000000
11
295.7709631017
21
170.8642400007
31
0.0000000000
0
SPLINE
5
4F9
100
AcDbEntity
8
0
100
AcDbSpline
6
CONTINUOUS
70
0
71
3
72
10
73
6
74
4
42
0.0000001000
43
0.0000001000
44
0.0000000001
40
0.0000000000
40
0.0000000000
40
0.0000000000
40
0.0000000000
40
0.3288281038
40
0.6611386869
40
1.0000000000
40
1.0000000000
40
1.0000000000
40
1.0000000000
10
314.7224545955
20
211.6630980578
30
0.0000000000
10
314.7170355304
20
211.6553589430
30
0.0000000000
10
314.7076772539
20
211.6386554459
30
0.0000000000
10
314.6987962270
20
211.6111554308
30
0.0000000000
10
314.6964656276
20
211.5918766764
30
0.0000000000
10
314.6961752141
20
211.5821449787
30
0.0000000000
11
314.7224545955
21
211.6630980578
31
0.0000000000
11
314.7085890605
21
211.6383778550
31
0.0000000000
11
314.6997442996
21
211.6111341862
31
0.0000000000
11
314.6961752141
21
211.5821449787
31
0.0000000000
0
SPLINE
5
4FA
100
AcDbEntity
8
0
100
AcDbSpline
6
CONTINUOUS
70
0
71
3
72
9
73
5
74
3
42
0.0000001000
43
0.0000001000
44
0.0000000001
40
0.0000000000
40
0.0000000000
40
0.0000000000
40
0.0000000000
40
0.6191478024
40
1.0000000000
40
1.0000000000
40
1.0000000000
40
1.0000000000
10
314.6961856944
20
211.5821432102
30
0.0000000000
10
314.7103225091
20
211.6046563017
30
0.0000000000
10
314.7467606031
20
211.6317089774
30
0.0000000000
10
314.7869657183
20
211.6475774377
30
0.0000000000
10
314.8026298881
20
211.6523789053
30
0.0000000000
11
314.6961856944
21
211.5821432102
31
0.0000000000
11
314.7568877058
21
211.6338681092
31
0.0000000000
11
314.8026298881
21
211.6523789053
31
0.0000000000
0
SPLINE
5
4FB
100
AcDbEntity
8
0
100
AcDbSpline
6
CONTINUOUS
70
0
71
3
72
8
73
4
74
2
42
0.0000001000
43
0.0000001000
44
0.0000000001
40
0.0000000000
40
0.0000000000
40
0.0000000000
40
0.0000000000
40
1.0000000000
40
1.0000000000
40
1.0000000000
40
1.0000000000
10
314.8026298881
20
211.6523789053
30
0.0000000000
10
314.8201396872
20
211.6577461055
30
0.0000000000
10
314.8380892760
20
211.6615612985
30
0.0000000000
10
314.8562070725
20
211.6643555071
30
0.0000000000
11
314.8026298881
21
211.6523789053
31
0.0000000000
11
314.8562070725
21
211.6643555071
31
0.0000000000
0
SPLINE
5
4FC
100
AcDbEntity
8
0
100
AcDbSpline
6
CONTINUOUS
70
0
71
3
72
8
73
4
74
2
42
0.0000001000
43
0.0000001000
44
0.0000000001
40
0.0000000000
40
0.0000000000
40
0.0000000000
40
0.0000000000
40
1.0000000000
40
1.0000000000
40
1.0000000000
40
1.0000000000
10
314.8562070725
20
211.6643555071
30
0.0000000000
10
314.8756722714
20
211.6673575181
30
0.0000000000
10
314.8953316274
20
211.6691810388
30
0.0000000000
10
314.9150176021
20
211.6698387274
30
0.0000000000
11
314.8562070725
21
211.6643555071
31
0.0000000000
11
314.9150176021
21
211.6698387274
31
0.0000000000
0
SPLINE
5
4FD
100
AcDbEntity
8
0
100
AcDbSpline
6
CONTINUOUS
70
0
71
3
72
8
73
4
74
2
42
0.0000001000
43
0.0000001000
44
0.0000000001
40
0.0000000000
40
0.0000000000
40
0.0000000000
40
0.0000000000
40
1.0000000000
40
1.0000000000
40
1.0000000000
40
1.0000000000
10
314.9150176021
20
211.6698387274
30
0.0000000000
10
314.9355567902
20
211.6705249210
30
0.0000000000
10
314.9561249544
20
211.6699420355
30
0.0000000000
10
314.9765318146
20
211.6681044474
30
0.0000000000
11
314.9150176021
21
211.6698387274
31
0.0000000000
11
314.9765318146
21
211.6681044474
31
0.0000000000
0
SPLINE
5
4FE
100
AcDbEntity
8
0
100
AcDbSpline
6
CONTINUOUS
70
0
71
3
72
22
73
18
74
16
42
0.0000001000
43
0.0000001000
44
0.0000000001
40
0.0000000000
40
0.0000000000
40
0.0000000000
40
0.0000000000
40
0.0293735442
40
0.0641368217
40
0.1034148135
40
0.1463637560
40
0.1921685958
40
0.2403819458
40
0.2920545891
40
0.3487257821
40
0.4120772297
40
0.4840130461
40
0.5669098996
40
0.6625365875
40
0.7696711369
40
0.8852686493
40
1.0000000000
40
1.0000000000
40
1.0000000000
40
1.0000000000
10
324.3389849275
20
170.8642400007
30
0.0000000000
10
324.3416793375
20
170.8817458636
30
0.0000000000
10
324.3472169702
20
170.9200237549
30
0.0000000000
10
324.3549346260
20
170.9819071183
30
0.0000000000
10
324.3621252505
20
171.0520900033
30
0.0000000000
10
324.3682299130
20
171.1290571632
30
0.0000000000
10
324.3729219313
20
171.2115201790
30
0.0000000000
10
324.3761478909
20
171.2993163033
30
0.0000000000
10
324.3780287454
20
171.3937036562
30
0.0000000000
10
324.3787909465
20
171.4972333417
30
0.0000000000
10
324.3788148343
20
171.6129828718
30
0.0000000000
10
324.3787723227
20
171.7445460952
30
0.0000000000
10
324.3797588647
20
171.8955703805
30
0.0000000000
10
324.3832643460
20
172.0677920734
30
0.0000000000
10
324.3907030976
20
172.2596278634
30
0.0000000000
10
324.4025097042
20
172.4627843496
30
0.0000000000
10
324.4129156536
20
172.6012864571
30
0.0000000000
10
324.4185675670
20
172.6702372545
30
0.0000000000
11
324.3389849275
21
170.8642400007
31
0.0000000000
11
324.3465940487
21
170.9168283739
31
0.0000000000
11
324.3543828303
21
170.9792300719
31
0.0000000000
11
324.3616410282
21
171.0499112911
31
0.0000000000
11
324.3678147376
21
171.1273591836
31
0.0000000000
11
324.3725690909
21
171.2100824896
31
0.0000000000
11
324.3758355815
21
171.2972380509
31
0.0000000000
11
324.3777820230
21
171.3906923106
31
0.0000000000
11
324.3786458329
21
171.4932054510
31
0.0000000000
11
324.3788042942
21
171.6078065356
31
0.0000000000
11
324.3789126159
21
171.7379365945
31
0.0000000000
11
324.3800294713
21
171.8878907833
31
0.0000000000
11
324.3836234773
21
172.0608397460
31
0.0000000000
11
324.3911041736
21
172.2544990545
31
0.0000000000
11
324.4031313273
21
172.4632659235
31
0.0000000000
11
324.4185675670
21
172.6702372545
31
0.0000000000
0
SPLINE
5
4FF
100
AcDbEntity
8
0
100
AcDbSpline
62
7
6
CONTINUOUS
70
0
71
3
72
9
73
5
74
3
42
0.0000001000
43
0.0000001000
44
0.0000000001
40
0.0000000000
40
0.0000000000
40
0.0000000000
40
0.0000000000
40
0.5138741839
40
1.0000000000
40
1.0000000000
40
1.0000000000
40
1.0000000000
10
327.6428898976
20
192.8881413464
30
0.0000000000
10
327.6771077002
20
192.9645447130
30
0.0000000000
10
327.7366321079
20
193.1162678677
30
0.0000000000
10
327.7833344201
20
193.2731041127
30
0.0000000000
10
327.7974542214
20
193.3510304989
30
0.0000000000
11
327.6428898976
21
192.8881413464
31
0.0000000000
11
327.7348979249
21
193.1218281344
31
0.0000000000
11
327.7974542214
21
193.3510304989
31
0.0000000000
0
SPLINE
5
500
100
AcDbEntity
8
0
100
AcDbSpline
6
CONTINUOUS
70
0
71
3
72
14
73
10
74
8
42
0.0000001000
43
0.0000001000
44
0.0000000001
40
0.0000000000
40
0.0000000000
40
0.0000000000
40
0.0000000000
40
0.0606974003
40
0.1486727384
40
0.2691245859
40
0.4231722062
40
0.6051322316
40
0.8025499884
40
1.0000000000
40
1.0000000000
40
1.0000000000
40
1.0000000000
10
317.1856087163
20
213.7377776239
30
0.0000000000
10
317.1995262831
20
213.6436657856
30
0.0000000000
10
317.2335379072
20
213.4131358543
30
0.0000000000
10
317.2947231507
20
212.9957787769
30
0.0000000000
10
317.3772919494
20
212.4336782275
30
0.0000000000
10
317.4812056392
20
211.7258233901
30
0.0000000000
10
317.6026742966
20
210.8986185537
30
0.0000000000
10
317.7340094488
20
210.0041053576
30
0.0000000000
10
317.8239137035
20
209.3917656910
30
0.0000000000
10
317.8688746054
20
209.0855715974
30
0.0000000000
11
317.1856087163
21
213.7377776239
31
0.0000000000
11
317.2272624073
21
213.4554274849
31
0.0000000000
11
317.2873560827
21
213.0461456035
31
0.0000000000
11
317.3696316900
21
212.4857751095
31
0.0000000000
11
317.4748557819
21
211.7691092223
31
0.0000000000
11
317.5991517980
21
210.9225891224
31
0.0000000000
11
317.7340017818
21
210.0041553293
31
0.0000000000
11
317.8688746054
21
209.0855715974
31
0.0000000000
0
SPLINE
5
501
100
AcDbEntity
8
0
100
AcDbSpline
6
CONTINUOUS
70
0
71
3
72
11
73
7
74
5
42
0.0000001000
43
0.0000001000
44
0.0000000001
40
0.0000000000
40
0.0000000000
40
0.0000000000
40
0.0000000000
40
0.2442977205
40
0.4917151335
40
0.7438322185
40
1.0000000000
40
1.0000000000
40
1.0000000000
40
1.0000000000
10
318.1509696791
20
212.9795039136
30
0.0000000000
10
318.1315132260
20
213.0855097246
30
0.0000000000
10
318.0516424698
20
213.2934802609
30
0.0000000000
10
317.8271032637
20
213.5421782337
30
0.0000000000
10
317.5264482447
20
213.7006799630
30
0.0000000000
10
317.2996796429
20
213.7338631094
30
0.0000000000
10
317.1866860449
20
213.7317553423
30
0.0000000000
11
318.1509696791
21
212.9795039136
31
0.0000000000
11
318.0352254310
21
213.2814067767
31
0.0000000000
11
317.8167600395
21
213.5253371030
31
0.0000000000
11
317.5220201778
21
213.6817655211
31
0.0000000000
11
317.1866860449
21
213.7317553423
31
0.0000000000
0
SPLINE
5
502
100
AcDbEntity
8
0
100
AcDbSpline
6
CONTINUOUS
70
0
71
3
72
13
73
9
74
7
42
0.0000001000
43
0.0000001000
44
0.0000000001
40
0.0000000000
40
0.0000000000
40
0.0000000000
40
0.0000000000
40
0.1604272609
40
0.3224419152
40
0.4888537152
40
0.6600584431
40
0.8329522383
40
1.0000000000
40
1.0000000000
40
1.0000000000
40
1.0000000000
10
316.9449820418
20
213.9875215534
30
0.0000000000
10
316.9651222761
20
213.9875047213
30
0.0000000000
10
317.0058569573
20
213.9811191973
30
0.0000000000
10
317.0617036047
20
213.9538373559
30
0.0000000000
10
317.1093656667
20
213.9120691047
30
0.0000000000
10
317.1468346147
20
213.8594265986
30
0.0000000000
10
317.1727017541
20
213.8003209474
30
0.0000000000
10
317.1828444420
20
213.7585657907
30
0.0000000000
10
317.1856087163
20
213.7377776239
30
0.0000000000
11
316.9449820418
21
213.9875215534
31
0.0000000000
11
317.0046912632
21
213.9782768285
31
0.0000000000
11
317.0596950899
21
213.9518616666
31
0.0000000000
11
317.1071039535
21
213.9108687245
31
0.0000000000
11
317.1447694336
21
213.8585346209
31
0.0000000000
11
317.1711712571
21
213.7990121041
31
0.0000000000
11
317.1856087163
21
213.7377776239
31
0.0000000000
0
SPLINE
5
503
100
AcDbEntity
8
0
100
AcDbSpline
6
CONTINUOUS
70
0
71
3
72
10
73
6
74
4
42
0.0000001000
43
0.0000001000
44
0.0000000001
40
0.0000000000
40
0.0000000000
40
0.0000000000
40
0.0000000000
40
0.3076188481
40
0.6487323856
40
1.0000000000
40
1.0000000000
40
1.0000000000
40
1.0000000000
10
303.1651668194
20
213.9875215846
30
0.0000000000
10
303.2309202228
20
213.9875134874
30
0.0000000000
10
303.3700758184
20
213.9717057277
30
0.0000000000
10
303.5727881400
20
213.8978139088
30
0.0000000000
10
303.6967912008
20
213.8138610823
30
0.0000000000
10
303.7535174064
20
213.7646716541
30
0.0000000000
11
303.1651668194
21
213.9875215846
31
0.0000000000
11
303.3611710705
21
213.9652978289
31
0.0000000000
11
303.5667610201
21
213.8906050190
31
0.0000000000
11
303.7535174064
21
213.7646716541
31
0.0000000000
0
SPLINE
5
504
100
AcDbEntity
8
0
100
AcDbSpline
62
7
6
CONTINUOUS
70
0
71
3
72
9
73
5
74
3
42
0.0000001000
43
0.0000001000
44
0.0000000001
40
0.0000000000
40
0.0000000000
40
0.0000000000
40
0.0000000000
40
0.4855414277
40
1.0000000000
40
1.0000000000
40
1.0000000000
40
1.0000000000
10
292.3125072597
20
193.3510304989
30
0.0000000000
10
292.3265902758
20
193.2731953531
30
0.0000000000
10
292.3733178772
20
193.1163682946
30
0.0000000000
10
292.4327933276
20
192.9646289229
30
0.0000000000
10
292.4670581316
20
192.8881436051
30
0.0000000000
11
292.3125072597
21
193.3510304989
31
0.0000000000
11
292.3749719599
21
193.1221027099
31
0.0000000000
11
292.4670581316
21
192.8881436051
31
0.0000000000
0
SPLINE
5
505
100
AcDbEntity
8
0
100
AcDbSpline
6
CONTINUOUS
70
0
71
3
72
8
73
4
74
2
42
0.0000001000
43
0.0000001000
44
0.0000000001
40
0.0000000000
40
0.0000000000
40
0.0000000000
40
0.0000000000
40
1.0000000000
40
1.0000000000
40
1.0000000000
40
1.0000000000
10
327.4807798807
20
192.5657240900
30
0.0000000000
10
327.4883039708
20
192.5964310275
30
0.0000000000
10
327.4959102340
20
192.6271179399
30
0.0000000000
10
327.5035956607
20
192.6577850710
30
0.0000000000
11
327.4807798807
21
192.5657240900
31
0.0000000000
11
327.5035956607
21
192.6577850710
31
0.0000000000
0
SPLINE
5
506
100
AcDbEntity
8
0
100
AcDbSpline
6
CONTINUOUS
70
0
71
3
72
9
73
5
74
3
42
0.0000001000
43
0.0000001000
44
0.0000000001
40
0.0000000000
40
0.0000000000
40
0.0000000000
40
0.0000000000
40
0.4879874684
40
1.0000000000
40
1.0000000000
40
1.0000000000
40
1.0000000000
10
327.5035956607
20
192.6577850710
30
0.0000000000
10
327.5116436261
20
192.6898988392
30
0.0000000000
10
327.5283136725
20
192.7556629801
30
0.0000000000
10
327.5453337450
20
192.8213372070
30
0.0000000000
10
327.5541326644
20
192.8549411120
30
0.0000000000
11
327.5035956607
21
192.6577850710
31
0.0000000000
11
327.5279965260
21
192.7540615811
31
0.0000000000
11
327.5541326644
21
192.8549411120
31
0.0000000000
0
SPLINE
5
507
100
AcDbEntity
8
0
100
AcDbSpline
6
CONTINUOUS
70
0
71
3
72
9
73
5
74
3
42
0.0000001000
43
0.0000001000
44
0.0000000001
40
0.0000000000
40
0.0000000000
40
0.0000000000
40
0.0000000000
40
0.3268961036
40
1.0000000000
40
1.0000000000
40
1.0000000000
40
1.0000000000
10
327.5541326644
20
192.8549411120
30
0.0000000000
10
327.5632103422
20
192.8896096221
30
0.0000000000
10
327.5912545465
20
192.9955911974
30
0.0000000000
10
327.6200643355
20
193.1013673239
30
0.0000000000
10
327.6395414119
20
193.1725417777
30
0.0000000000
11
327.5541326644
21
192.8549411120
31
0.0000000000
11
327.5816272356
21
192.9588775957
31
0.0000000000
11
327.6395414119
21
193.1725417777
31
0.0000000000
0
SPLINE
5
508
100
AcDbEntity
8
0
100
AcDbSpline
62
7
6
CONTINUOUS
70
0
71
3
72
9
73
5
74
3
42
0.0000001000
43
0.0000001000
44
0.0000000001
40
0.0000000000
40
0.0000000000
40
0.0000000000
40
0.0000000000
40
0.4947554404
40
1.0000000000
40
1.0000000000
40
1.0000000000
40
1.0000000000
10
292.4670581316
20
192.8881436051
30
0.0000000000
10
292.4675556384
20
192.9349582433
30
0.0000000000
10
292.4686210988
20
193.0295793903
30
0.0000000000
10
292.4697911919
20
193.1241992881
30
0.0000000000
10
292.4703992509
20
193.1720052581
30
0.0000000000
11
292.4670581316
21
192.8881436051
31
0.0000000000
11
292.4686355354
21
193.0285865920
31
0.0000000000
11
292.4703992509
21
193.1720052581
31
0.0000000000
0
SPLINE
5
509
100
AcDbEntity
8
0
100
AcDbSpline
62
7
6
CONTINUOUS
70
0
71
3
72
9
73
5
74
3
42
0.0000001000
43
0.0000001000
44
0.0000000001
40
0.0000000000
40
0.0000000000
40
0.0000000000
40
0.0000000000
40
0.5107627808
40
1.0000000000
40
1.0000000000
40
1.0000000000
40
1.0000000000
10
327.6396029023
20
193.1678135577
30
0.0000000000
10
327.6402079983
20
193.1201987220
30
0.0000000000
10
327.6413546122
20
193.0269752380
30
0.0000000000
10
327.6424053441
20
192.9337506136
30
0.0000000000
10
327.6428898976
20
192.8881413464
30
0.0000000000
11
327.6396029023
21
193.1678135577
31
0.0000000000
11
327.6413542802
21
193.0249682526
31
0.0000000000
11
327.6428898976
21
192.8881413464
31
0.0000000000
0
SPLINE
5
50A
100
AcDbEntity
8
0
100
AcDbSpline
62
7
6
CONTINUOUS
70
0
71
3
72
9
73
5
74
3
42
0.0000001000
43
0.0000001000
44
0.0000000001
40
0.0000000000
40
0.0000000000
40
0.0000000000
40
0.0000000000
40
0.6643050087
40
1.0000000000
40
1.0000000000
40
1.0000000000
40
1.0000000000
10
303.9454142918
20
213.7069139554
30
0.0000000000
10
303.9281232364
20
213.7211950091
30
0.0000000000
10
303.8990176706
20
213.7392189872
30
0.0000000000
10
303.8672471307
20
213.7511083448
30
0.0000000000
10
303.8563697802
20
213.7543930886
30
0.0000000000
11
303.9454142918
21
213.7069139554
31
0.0000000000
11
303.8882772340
21
213.7424346319
31
0.0000000000
11
303.8563697802
21
213.7543930886
31
0.0000000000
0
SPLINE
5
50B
100
AcDbEntity
8
0
100
AcDbSpline
62
7
6
CONTINUOUS
70
0
71
3
72
9
73
5
74
3
42
0.0000001000
43
0.0000001000
44
0.0000000001
40
0.0000000000
40
0.0000000000
40
0.0000000000
40
0.0000000000
40
0.3303937590
40
1.0000000000
40
1.0000000000
40
1.0000000000
40
1.0000000000
10
303.8563697802
20
213.7543930886
30
0.0000000000
10
303.8453981993
20
213.7577062881
30
0.0000000000
10
303.8115373550
20
213.7655588954
30
0.0000000000
10
303.7765282919
20
213.7666848605
30
0.0000000000
10
303.7534450307
20
213.7647202398
30
0.0000000000
11
303.8563697802
21
213.7543930886
31
0.0000000000
11
303.8228980365
21
213.7621609125
31
0.0000000000
11
303.7534450307
21
213.7647202398
31
0.0000000000
0
SPLINE
5
50C
100
AcDbEntity
8
0
100
AcDbSpline
62
7
6
CONTINUOUS
70
0
71
3
72
11
73
7
74
5
42
0.0000001000
43
0.0000001000
44
0.0000000001
40
0.0000000000
40
0.0000000000
40
0.0000000000
40
0.0000000000
40
0.1441830299
40
0.3643248845
40
0.6758556895
40
1.0000000000
40
1.0000000000
40
1.0000000000
40
1.0000000000
10
305.4275332146
20
210.8705997989
30
0.0000000000
10
305.4275332146
20
210.8866684540
30
0.0000000000
10
305.4029901343
20
210.9252770566
30
0.0000000000
10
305.3330499994
20
210.9557362548
30
0.0000000000
10
305.2408865094
20
210.9813468401
30
0.0000000000
10
305.1695352716
20
210.9851740631
30
0.0000000000
10
305.1334162146
20
210.9845377692
30
0.0000000000
11
305.4275332146
21
210.8705997989
31
0.0000000000
11
305.4060462457
21
210.9137521482
31
0.0000000000
11
305.3421238221
21
210.9502373395
31
0.0000000000
11
305.2415495610
21
210.9773197542
31
0.0000000000
11
305.1334162146
21
210.9845377692
31
0.0000000000
0
SPLINE
5
50D
100
AcDbEntity
8
0
100
AcDbSpline
6
CONTINUOUS
70
0
71
3
72
8
73
4
74
2
42
0.0000001000
43
0.0000001000
44
0.0000000001
40
0.0000000000
40
0.0000000000
40
0.0000000000
40
0.0000000000
40
1.0000000000
40
1.0000000000
40
1.0000000000
40
1.0000000000
10
303.7535174064
20
213.7646716541
30
0.0000000000
10
303.7838446899
20
213.7185798661
30
0.0000000000
10
303.8141750719
20
213.6724901170
30
0.0000000000
10
303.8445070233
20
213.6264014007
30
0.0000000000
11
303.7535174064
21
213.7646716541
31
0.0000000000
11
303.8445070233
21
213.6264014007
31
0.0000000000
0
SPLINE
5
50E
100
AcDbEntity
8
0
100
AcDbSpline
6
CONTINUOUS
70
0
71
3
72
8
73
4
74
2
42
0.0000001000
43
0.0000001000
44
0.0000000001
40
0.0000000000
40
0.0000000000
40
0.0000000000
40
0.0000000000
40
1.0000000000
40
1.0000000000
40
1.0000000000
40
1.0000000000
10
303.8445070233
20
213.6264014007
30
0.0000000000
10
303.8486230448
20
213.6201471989
30
0.0000000000
10
303.8527390952
20
213.6138930161
30
0.0000000000
10
303.8568551707
20
213.6076388498
30
0.0000000000
11
303.8445070233
21
213.6264014007
31
0.0000000000
11
303.8568551707
21
213.6076388498
31
0.0000000000
0
SPLINE
5
50F
100
AcDbEntity
8
0
100
AcDbSpline
6
CONTINUOUS
70
0
71
3
72
8
73
4
74
2
42
0.0000001000
43
0.0000001000
44
0.0000000001
40
0.0000000000
40
0.0000000000
40
0.0000000000
40
0.0000000000
40
1.0000000000
40
1.0000000000
40
1.0000000000
40
1.0000000000
10
303.8568551707
20
213.6076388498
30
0.0000000000
10
303.8907554053
20
213.5561291758
30
0.0000000000
10
303.9246573412
20
213.5046206213
30
0.0000000000
10
303.9585588436
20
213.4531117816
30
0.0000000000
11
303.8568551707
21
213.6076388498
31
0.0000000000
11
303.9585588436
21
213.4531117816
31
0.0000000000
0
SPLINE
5
510
100
AcDbEntity
8
0
100
AcDbSpline
6
CONTINUOUS
70
0
71
3
72
10
73
6
74
4
42
0.0000001000
43
0.0000001000
44
0.0000000001
40
0.0000000000
40
0.0000000000
40
0.0000000000
40
0.0000000000
40
0.2534960128
40
0.5874139034
40
1.0000000000
40
1.0000000000
40
1.0000000000
40
1.0000000000
10
303.9585588436
20
213.4531117816
30
0.0000000000
10
304.0578360558
20
213.3022732159
30
0.0000000000
10
304.2878776684
20
212.9527367239
30
0.0000000000
10
304.6795373512
20
212.3577214975
30
0.0000000000
10
304.9718318462
20
211.9134869369
30
0.0000000000
10
305.1334162146
20
211.6679860231
30
0.0000000000
11
303.9585588436
21
213.4531117816
31
0.0000000000
11
304.2563876527
21
213.0005942249
31
0.0000000000
11
304.6487099757
21
212.4045196090
31
0.0000000000
11
305.1334162146
21
211.6679860231
31
0.0000000000
0
SPLINE
5
511
100
AcDbEntity
8
0
100
AcDbSpline
6
CONTINUOUS
70
0
71
3
72
10
73
6
74
4
42
0.0000001000
43
0.0000001000
44
0.0000000001
40
0.0000000000
40
0.0000000000
40
0.0000000000
40
0.0000000000
40
0.4119894461
40
0.7462559456
40
1.0000000000
40
1.0000000000
40
1.0000000000
40
1.0000000000
10
314.9765318146
20
211.6681315767
30
0.0000000000
10
315.1378558513
20
211.9132340751
30
0.0000000000
10
315.4300931422
20
212.3571843788
30
0.0000000000
10
315.8216542638
20
212.9521165632
30
0.0000000000
10
316.0518962415
20
213.3019430273
30
0.0000000000
10
316.1512522939
20
213.4529036995
30
0.0000000000
11
314.9765318146
21
211.6681315767
31
0.0000000000
11
315.4605199105
21
212.4034285500
31
0.0000000000
11
315.8531836923
21
213.0000219770
31
0.0000000000
11
316.1512522939
21
213.4529036995
31
0.0000000000
0
SPLINE
5
512
100
AcDbEntity
8
0
100
AcDbSpline
6
CONTINUOUS
70
0
71
3
72
8
73
4
74
2
42
0.0000001000
43
0.0000001000
44
0.0000000001
40
0.0000000000
40
0.0000000000
40
0.0000000000
40
0.0000000000
40
1.0000000000
40
1.0000000000
40
1.0000000000
40
1.0000000000
10
316.1512522939
20
213.4529036995
30
0.0000000000
10
316.1892915276
20
213.5107001614
30
0.0000000000
10
316.2273307301
20
213.5684966441
30
0.0000000000
10
316.2653671733
20
213.6262949424
30
0.0000000000
11
316.1512522939
21
213.4529036995
31
0.0000000000
11
316.2653671733
21
213.6262949424
31
0.0000000000
0
SPLINE
5
513
100
AcDbEntity
8
0
100
AcDbSpline
6
CONTINUOUS
70
0
71
3
72
8
73
4
74
2
42
0.0000001000
43
0.0000001000
44
0.0000000001
40
0.0000000000
40
0.0000000000
40
0.0000000000
40
0.0000000000
40
1.0000000000
40
1.0000000000
40
1.0000000000
40
1.0000000000
10
316.2653671733
20
213.6262949424
30
0.0000000000
10
316.2675609202
20
213.6296284517
30
0.0000000000
10
316.2697546579
20
213.6329619670
30
0.0000000000
10
316.2719483859
20
213.6362954887
30
0.0000000000
11
316.2653671733
21
213.6262949424
31
0.0000000000
11
316.2719483859
21
213.6362954887
31
0.0000000000
0
SPLINE
5
514
100
AcDbEntity
8
0
100
AcDbSpline
6
CONTINUOUS
70
0
71
3
72
8
73
4
74
2
42
0.0000001000
43
0.0000001000
44
0.0000000001
40
0.0000000000
40
0.0000000000
40
0.0000000000
40
0.0000000000
40
1.0000000000
40
1.0000000000
40
1.0000000000
40
1.0000000000
10
316.2719483859
20
213.6362954887
30
0.0000000000
10
316.3000972891
20
213.6790696976
30
0.0000000000
10
316.3282445949
20
213.7218449577
30
0.0000000000
10
316.3563891976
20
213.7646219963
30
0.0000000000
11
316.2719483859
21
213.6362954887
31
0.0000000000
11
316.3563891976
21
213.7646219963
31
0.0000000000
0
SPLINE
5
515
100
AcDbEntity
8
0
100
AcDbSpline
62
7
6
CONTINUOUS
70
0
71
3
72
9
73
5
74
3
42
0.0000001000
43
0.0000001000
44
0.0000000001
40
0.0000000000
40
0.0000000000
40
0.0000000000
40
0.0000000000
40
0.6643059567
40
1.0000000000
40
1.0000000000
40
1.0000000000
40
1.0000000000
10
316.1645339254
20
213.7069142911
30
0.0000000000
10
316.1818249434
20
213.7211952626
30
0.0000000000
10
316.2109303476
20
213.7392192499
30
0.0000000000
10
316.2427007827
20
213.7511082841
30
0.0000000000
10
316.2535780648
20
213.7543929343
30
0.0000000000
11
316.1645339254
21
213.7069142911
31
0.0000000000
11
316.2216708147
21
213.7424347773
31
0.0000000000
11
316.2535780648
21
213.7543929343
31
0.0000000000
0
SPLINE
5
516
100
AcDbEntity
8
0
100
AcDbSpline
62
7
6
CONTINUOUS
70
0
71
3
72
9
73
5
74
3
42
0.0000001000
43
0.0000001000
44
0.0000000001
40
0.0000000000
40
0.0000000000
40
0.0000000000
40
0.0000000000
40
0.3303910715
40
1.0000000000
40
1.0000000000
40
1.0000000000
40
1.0000000000
10
316.2535780648
20
213.7543929343
30
0.0000000000
10
316.2645495964
20
213.7577060455
30
0.0000000000
10
316.2984105599
20
213.7655585224
30
0.0000000000
10
316.3334196616
20
213.7666850311
30
0.0000000000
10
316.3565030588
20
213.7647203483
30
0.0000000000
11
316.2535780648
21
213.7543929343
31
0.0000000000
11
316.2870496452
21
213.7621606270
31
0.0000000000
11
316.3565030588
21
213.7647203483
31
0.0000000000
0
SPLINE
5
517
100
AcDbEntity
8
0
100
AcDbSpline
62
7
6
CONTINUOUS
70
0
71
3
72
11
73
7
74
5
42
0.0000001000
43
0.0000001000
44
0.0000000001
40
0.0000000000
40
0.0000000000
40
0.0000000000
40
0.0000000000
40
0.2503276295
40
0.5239716033
40
0.8309825710
40
1.0000000000
40
1.0000000000
40
1.0000000000
40
1.0000000000
10
327.6098487387
20
194.3314204989
30
0.0000000000
10
327.6127190198
20
194.2491139599
30
0.0000000000
10
327.6186779082
20
194.0768327535
30
0.0000000000
10
327.6270777242
20
193.8035714071
30
0.0000000000
10
327.6331138221
20
193.5570047428
30
0.0000000000
10
327.6360561287
20
193.4004204360
30
0.0000000000
10
327.6369914251
20
193.3448222017
30
0.0000000000
11
327.6098487387
21
194.3314204989
31
0.0000000000
11
327.6182615457
21
194.0844940553
31
0.0000000000
11
327.6264752166
21
193.8145363740
31
0.0000000000
11
327.6338544906
21
193.5116108986
31
0.0000000000
11
327.6369914251
21
193.3448222017
31
0.0000000000
0
SPLINE
5
518
100
AcDbEntity
8
0
100
AcDbSpline
62
7
6
CONTINUOUS
70
0
71
3
72
8
73
4
74
2
42
0.0000001000
43
0.0000001000
44
0.0000000001
40
0.0000000000
40
0.0000000000
40
0.0000000000
40
0.0000000000
40
1.0000000000
40
1.0000000000
40
1.0000000000
40
1.0000000000
10
327.6369914251
20
193.3448222017
30
0.0000000000
10
327.6379839654
20
193.2858211282
30
0.0000000000
10
327.6388533142
20
193.2268180169
30
0.0000000000
10
327.6396029023
20
193.1678135577
30
0.0000000000
11
327.6369914251
21
193.3448222017
31
0.0000000000
11
327.6396029023
21
193.1678135577
31
0.0000000000
0
SPLINE
5
519
100
AcDbEntity
8
0
100
AcDbSpline
6
CONTINUOUS
70
0
71
3
72
15
73
11
74
9
42
0.0000001000
43
0.0000001000
44
0.0000000001
40
0.0000000000
40
0.0000000000
40
0.0000000000
40
0.0000000000
40
0.1069391298
40
0.2272542756
40
0.3570022564
40
0.4920536438
40
0.6285040979
40
0.7620010705
40
0.8874831506
40
1.0000000000
40
1.0000000000
40
1.0000000000
40
1.0000000000
10
327.6098484766
20
194.3314204989
30
0.0000000000
10
327.6098479078
20
194.2765650893
30
0.0000000000
10
327.6000054760
20
194.1597698624
30
0.0000000000
10
327.5521026748
20
193.9819150688
30
0.0000000000
10
327.4638138496
20
193.8036402353
30
0.0000000000
10
327.3353355373
20
193.6408540822
30
0.0000000000
10
327.1737916701
20
193.5077027466
30
0.0000000000
10
326.9923003423
20
193.4138037945
30
0.0000000000
10
326.8077235442
20
193.3618219959
30
0.0000000000
10
326.6853828855
20
193.3510308341
30
0.0000000000
10
326.6276663333
20
193.3510304989
30
0.0000000000
11
327.6098484766
21
194.3314204989
31
0.0000000000
11
327.5960119761
21
194.1674369784
31
0.0000000000
11
327.5478647761
21
193.9886564610
31
0.0000000000
11
327.4592480718
21
193.8097327496
31
0.0000000000
11
327.3304979949
21
193.6465895332
31
0.0000000000
11
327.1684685590
21
193.5130294683
31
0.0000000000
11
326.9860153997
21
193.4186123699
31
0.0000000000
11
326.8001444492
21
193.3662654304
31
0.0000000000
11
326.6276663333
21
193.3510304989
31
0.0000000000
0
SPLINE
5
51A
100
AcDbEntity
8
0
100
AcDbSpline
6
CONTINUOUS
70
0
71
3
72
10
73
6
74
4
42
0.0000001000
43
0.0000001000
44
0.0000000001
40
0.0000000000
40
0.0000000000
40
0.0000000000
40
0.0000000000
40
0.3563133693
40
0.6927982924
40
1.0000000000
40
1.0000000000
40
1.0000000000
40
1.0000000000
10
327.4807736637
20
192.5656967141
30
0.0000000000
10
327.3864588239
20
192.5201875095
30
0.0000000000
10
327.1956052061
20
192.4462788440
30
0.0000000000
10
326.9073910804
20
192.3837408981
30
0.0000000000
10
326.7179528894
20
192.3706413016
30
0.0000000000
10
326.6276663333
20
192.3706404989
30
0.0000000000
11
327.4807736637
21
192.5656967141
31
0.0000000000
11
327.1878096292
21
192.4522530498
31
0.0000000000
11
326.8978804291
21
192.3893301333
31
0.0000000000
11
326.6276663333
21
192.3706404989
31
0.0000000000
0
SPLINE
5
51B
100
AcDbEntity
8
0
100
AcDbSpline
6
CONTINUOUS
70
0
71
3
72
11
73
7
74
5
42
0.0000001000
43
0.0000001000
44
0.0000000001
40
0.0000000000
40
0.0000000000
40
0.0000000000
40
0.0000000000
40
0.2659573745
40
0.5273328180
40
0.7745483428
40
1.0000000000
40
1.0000000000
40
1.0000000000
40
1.0000000000
10
316.3563891976
20
213.7646219963
30
0.0000000000
10
316.3993900254
20
213.8019101942
30
0.0000000000
10
316.4915588894
20
213.8683182085
30
0.0000000000
10
316.6424572010
20
213.9391353772
30
0.0000000000
10
316.7952344073
20
213.9791016170
30
0.0000000000
10
316.8965750240
20
213.9875155719
30
0.0000000000
10
316.9448231312
20
213.9875215839
30
0.0000000000
11
316.3563891976
21
213.7646219963
31
0.0000000000
11
316.4950475048
21
213.8642673770
31
0.0000000000
11
316.6470037616
21
213.9354621646
31
0.0000000000
11
316.8005749049
21
213.9755483217
31
0.0000000000
11
316.9448231312
21
213.9875215839
31
0.0000000000
0
SPLINE
5
51C
100
AcDbEntity
8
0
100
AcDbSpline
6
CONTINUOUS
70
0
71
3
72
14
73
10
74
8
42
0.0000001000
43
0.0000001000
44
0.0000000001
40
0.0000000000
40
0.0000000000
40
0.0000000000
40
0.0000000000
40
0.1980945026
40
0.3957041992
40
0.5777214393
40
0.7319349874
40
0.8525569675
40
0.9404050125
40
1.0000000000
40
1.0000000000
40
1.0000000000
40
1.0000000000
10
302.2410734238
20
209.0855715974
30
0.0000000000
10
302.2861674135
20
209.3926724989
30
0.0000000000
10
302.3762350744
20
210.0061241813
30
0.0000000000
10
302.5077337400
20
210.9017530584
30
0.0000000000
10
302.6292607315
20
211.7293518538
30
0.0000000000
10
302.7332316544
20
212.4376030479
30
0.0000000000
10
302.8158257739
20
212.9998573297
30
0.0000000000
10
302.8767456008
20
213.4154467704
30
0.0000000000
10
302.9104746576
20
213.6439996632
30
0.0000000000
10
302.9240679778
20
213.7363842697
30
0.0000000000
11
302.2410734238
21
209.0855715974
31
0.0000000000
11
302.3763456638
21
210.0068757303
31
0.0000000000
11
302.5112859807
21
210.9259252393
31
0.0000000000
11
302.6355836622
21
211.7724561363
31
0.0000000000
11
302.7408894054
21
212.4896775875
31
0.0000000000
11
302.8232563969
21
213.0506703450
31
0.0000000000
11
302.8832449542
21
213.4592367898
31
0.0000000000
11
302.9240679778
21
213.7363842697
31
0.0000000000
0
SPLINE
5
51D
100
AcDbEntity
8
0
100
AcDbSpline
6
CONTINUOUS
70
0
71
3
72
12
73
8
74
6
42
0.0000001000
43
0.0000001000
44
0.0000000001
40
0.0000000000
40
0.0000000000
40
0.0000000000
40
0.0000000000
40
0.2229636792
40
0.4457176243
40
0.6523358039
40
0.8371667576
40
1.0000000000
40
1.0000000000
40
1.0000000000
40
1.0000000000
10
302.9240679778
20
213.7363842697
30
0.0000000000
10
302.9280033615
20
213.7641802796
30
0.0000000000
10
302.9424215853
20
213.8190440476
30
0.0000000000
10
302.9823340392
20
213.8918732897
30
0.0000000000
10
303.0375506669
20
213.9476697164
30
0.0000000000
10
303.1004627437
20
213.9804897051
30
0.0000000000
10
303.1445139836
20
213.9875132767
30
0.0000000000
10
303.1650164194
20
213.9875215776
30
0.0000000000
11
302.9240679778
21
213.7363842697
31
0.0000000000
11
302.9456445251
21
213.8177931226
31
0.0000000000
11
302.9866397490
21
213.8912710269
31
0.0000000000
11
303.0420833669
21
213.9461991976
31
0.0000000000
11
303.1042570304
21
213.9779590405
31
0.0000000000
11
303.1650164194
21
213.9875215776
31
0.0000000000
0
SPLINE
5
51E
100
AcDbEntity
8
0
100
AcDbSpline
6
CONTINUOUS
70
0
71
3
72
11
73
7
74
5
42
0.0000001000
43
0.0000001000
44
0.0000000001
40
0.0000000000
40
0.0000000000
40
0.0000000000
40
0.0000000000
40
0.2443897401
40
0.4917434669
40
0.7438257623
40
1.0000000000
40
1.0000000000
40
1.0000000000
40
1.0000000000
10
301.9594926404
20
212.9824274432
30
0.0000000000
10
301.9788910044
20
213.0884862610
30
0.0000000000
10
302.0586937694
20
213.2965169282
30
0.0000000000
10
302.2832439531
20
213.5452176698
30
0.0000000000
10
302.5839081342
20
213.7036341317
30
0.0000000000
10
302.8106786809
20
213.7367408461
30
0.0000000000
10
302.9236755571
20
213.7345960751
30
0.0000000000
11
301.9594926404
21
212.9824274432
31
0.0000000000
11
302.0751683545
21
213.2844904390
31
0.0000000000
11
302.2935799277
21
213.5283601903
31
0.0000000000
11
302.5883142280
21
213.6847079431
31
0.0000000000
11
302.9236755571
21
213.7345960751
31
0.0000000000
0
SPLINE
5
51F
100
AcDbEntity
8
0
100
AcDbSpline
6
CONTINUOUS
70
0
71
3
72
10
73
6
74
4
42
0.0000001000
43
0.0000001000
44
0.0000000001
40
0.0000000000
40
0.0000000000
40
0.0000000000
40
0.0000000000
40
0.3070898534
40
0.6435878100
40
1.0000000000
40
1.0000000000
40
1.0000000000
40
1.0000000000
10
293.4822816959
20
192.3706404989
30
0.0000000000
10
293.3920280423
20
192.3706412337
30
0.0000000000
10
293.2026192419
20
192.3837343474
30
0.0000000000
10
292.9144021192
20
192.4462583155
30
0.0000000000
10
292.7235153885
20
192.5201745304
30
0.0000000000
10
292.6291743995
20
192.5656962973
30
0.0000000000
11
293.4822816959
21
192.3706404989
31
0.0000000000
11
293.2121656119
21
192.3893166610
31
0.0000000000
11
292.9222222536
21
192.4522280793
31
0.0000000000
11
292.6291743995
21
192.5656962973
31
0.0000000000
0
SPLINE
5
520
100
AcDbEntity
8
0
100
AcDbSpline
6
CONTINUOUS
70
0
71
3
72
15
73
11
74
9
42
0.0000001000
43
0.0000001000
44
0.0000000001
40
0.0000000000
40
0.0000000000
40
0.0000000000
40
0.0000000000
40
0.1124634776
40
0.2379435798
40
0.3714711204
40
0.5079662900
40
0.6430583824
40
0.7728263123
40
0.8931263504
40
1.0000000000
40
1.0000000000
40
1.0000000000
40
1.0000000000
10
293.4822816959
20
193.3510304989
30
0.0000000000
10
293.4245925352
20
193.3510308059
30
0.0000000000
10
293.3022806705
20
193.3618143060
30
0.0000000000
10
293.1177117377
20
193.4137767910
30
0.0000000000
10
292.9361802679
20
193.5076819877
30
0.0000000000
10
292.7745888230
20
193.6408714748
30
0.0000000000
10
292.6460865590
20
193.8037092658
30
0.0000000000
10
292.5578070074
20
193.9820153649
30
0.0000000000
10
292.5099329602
20
194.1598452473
30
0.0000000000
10
292.5001001202
20
194.2765986912
30
0.0000000000
10
292.5000995452
20
194.3314204989
30
0.0000000000
11
293.4822816959
21
193.3510304989
31
0.0000000000
11
293.3098847976
21
193.3662509728
31
0.0000000000
11
293.1240123495
21
193.4185811916
31
0.0000000000
11
292.9415115022
21
193.5130083798
31
0.0000000000
11
292.7794284950
21
193.6466115586
31
0.0000000000
11
292.6506500086
21
193.8098120868
31
0.0000000000
11
292.5620396409
21
193.9887731395
31
0.0000000000
11
292.5139191072
21
194.1675367133
31
0.0000000000
11
292.5000995452
21
194.3314204989
31
0.0000000000
0
SPLINE
5
521
100
AcDbEntity
8
0
100
AcDbSpline
62
7
6
CONTINUOUS
70
0
71
3
72
8
73
4
74
2
42
0.0000001000
43
0.0000001000
44
0.0000000001
40
0.0000000000
40
0.0000000000
40
0.0000000000
40
0.0000000000
40
1.0000000000
40
1.0000000000
40
1.0000000000
40
1.0000000000
10
292.4703992509
20
193.1720052581
30
0.0000000000
10
292.4713832879
20
193.2493509173
30
0.0000000000
10
292.4725805962
20
193.3266942560
30
0.0000000000
10
292.4739918758
20
193.4040337678
30
0.0000000000
11
292.4703992509
21
193.1720052581
31
0.0000000000
11
292.4739918758
21
193.4040337678
31
0.0000000000
0
SPLINE
5
522
100
AcDbEntity
8
0
100
AcDbSpline
62
7
6
CONTINUOUS
70
0
71
3
72
10
73
6
74
4
42
0.0000001000
43
0.0000001000
44
0.0000000001
40
0.0000000000
40
0.0000000000
40
0.0000000000
40
0.0000000000
40
0.2319465896
40
0.6413288112
40
1.0000000000
40
1.0000000000
40
1.0000000000
40
1.0000000000
10
292.4739918758
20
193.4040337678
30
0.0000000000
10
292.4753005939
20
193.4757528139
30
0.0000000000
10
292.4794279413
20
193.6740457918
30
0.0000000000
10
292.4880636554
20
193.9831830553
30
0.0000000000
10
292.4962335660
20
194.2205671646
30
0.0000000000
10
292.5000992907
20
194.3314204989
30
0.0000000000
11
292.4739918758
21
193.4040337678
31
0.0000000000
11
292.4784705930
21
193.6191798318
31
0.0000000000
11
292.4889383097
21
193.9988455712
31
0.0000000000
11
292.5000992907
21
194.3314204989
31
0.0000000000
0
SPLINE
5
523
100
AcDbEntity
8
0
100
AcDbSpline
62
7
6
CONTINUOUS
70
0
71
3
72
13
73
9
74
7
42
0.0000001000
43
0.0000001000
44
0.0000000001
40
0.0000000000
40
0.0000000000
40
0.0000000000
40
0.0000000000
40
0.0793040248
40
0.2243100568
40
0.4053590171
40
0.6041824346
40
0.8071215467
40
1.0000000000
40
1.0000000000
40
1.0000000000
40
1.0000000000
10
304.0465958218
20
210.5764827989
30
0.0000000000
10
304.0298861076
20
210.5764827989
30
0.0000000000
10
303.9939251079
20
210.6174714955
30
0.0000000000
10
303.9313857457
20
210.6688812069
30
0.0000000000
10
303.8506034644
20
210.7470693265
30
0.0000000000
10
303.7591427098
20
210.8282010454
30
0.0000000000
10
303.6633670483
20
210.9092526053
30
0.0000000000
10
303.5975145138
20
210.9604361157
30
0.0000000000
10
303.5647922146
20
210.9845377692
30
0.0000000000
11
304.0465958218
21
210.5764827989
31
0.0000000000
11
304.0046275991
21
210.6038981090
31
0.0000000000
11
303.9369706671
21
210.6657377730
31
0.0000000000
11
303.8530781692
21
210.7435796678
31
0.0000000000
11
303.7593817864
21
210.8273423632
31
0.0000000000
11
303.6611945241
21
210.9098963475
31
0.0000000000
11
303.5647922146
21
210.9845377692
31
0.0000000000
0
SPLINE
5
524
100
AcDbEntity
8
0
100
AcDbSpline
6
CONTINUOUS
70
0
71
3
72
9
73
5
74
3
42
0.0000001000
43
0.0000001000
44
0.0000000001
40
0.0000000000
40
0.0000000000
40
0.0000000000
40
0.0000000000
40
0.4238665985
40
1.0000000000
40
1.0000000000
40
1.0000000000
40
1.0000000000
10
314.6824148146
20
211.5440691430
30
0.0000000000
10
314.6823992538
20
211.5498526648
30
0.0000000000
10
314.6850407050
20
211.5635833337
30
0.0000000000
10
314.6920773383
20
211.5754410031
30
0.0000000000
10
314.6961856944
20
211.5821432102
30
0.0000000000
11
314.6824148146
21
211.5440691430
31
0.0000000000
11
314.6854281508
21
211.5611561001
31
0.0000000000
11
314.6961856944
21
211.5821432102
31
0.0000000000
0
SPLINE
5
525
100
AcDbEntity
8
0
100
AcDbSpline
62
7
6
CONTINUOUS
70
0
71
3
72
13
73
9
74
7
42
0.0000001000
43
0.0000001000
44
0.0000000001
40
0.0000000000
40
0.0000000000
40
0.0000000000
40
0.0000000000
40
0.1928784533
40
0.3958175654
40
0.5946409829
40
0.7756899432
40
0.9206959752
40
1.0000000000
40
1.0000000000
40
1.0000000000
40
1.0000000000
10
316.5451558146
20
210.9845377692
30
0.0000000000
10
316.5124335154
20
210.9604361157
30
0.0000000000
10
316.4465809809
20
210.9092526053
30
0.0000000000
10
316.3508053194
20
210.8282010454
30
0.0000000000
10
316.2593445648
20
210.7470693265
30
0.0000000000
10
316.1785622835
20
210.6688812069
30
0.0000000000
10
316.1160229213
20
210.6174714955
30
0.0000000000
10
316.0800619216
20
210.5764827989
30
0.0000000000
10
316.0633522074
20
210.5764827989
30
0.0000000000
11
316.5451558146
21
210.9845377692
31
0.0000000000
11
316.4487535051
21
210.9098963475
31
0.0000000000
11
316.3505662428
21
210.8273423632
31
0.0000000000
11
316.2568698600
21
210.7435796678
31
0.0000000000
11
316.1729773621
21
210.6657377730
31
0.0000000000
11
316.1053204301
21
210.6038981090
31
0.0000000000
11
316.0633522074
21
210.5764827989
31
0.0000000000
0
SPLINE
5
526
100
AcDbEntity
8
0
100
AcDbSpline
62
7
6
CONTINUOUS
70
0
71
3
72
11
73
7
74
5
42
0.0000001000
43
0.0000001000
44
0.0000000001
40
0.0000000000
40
0.0000000000
40
0.0000000000
40
0.0000000000
40
0.2554095685
40
0.5150452118
40
0.7810121160
40
1.0000000000
40
1.0000000000
40
1.0000000000
40
1.0000000000
10
198.7738084971
20
96.5063044401
30
0.0000000000
10
198.8128523174
20
96.5063044401
30
0.0000000000
10
198.8924786154
20
96.4902151506
30
0.0000000000
10
198.9933004127
20
96.4203935443
30
0.0000000000
10
199.0549513926
20
96.3208695661
30
0.0000000000
10
199.0678622031
20
96.2458127710
30
0.0000000000
10
199.0679056787
20
96.2121874168
30
0.0000000000
11
198.7738084971
21
96.5063044401
31
0.0000000000
11
198.8885943205
21
96.4829807643
31
0.0000000000
11
198.9865458759
21
96.4152825346
31
0.0000000000
11
199.0506470484
21
96.3115112853
31
0.0000000000
11
199.0679056787
21
96.2121874168
31
0.0000000000
0
SPLINE
5
527
100
AcDbEntity
8
0
100
AcDbSpline
62
7
6
CONTINUOUS
70
0
71
3
72
12
73
8
74
6
42
0.0000001000
43
0.0000001000
44
0.0000000001
40
0.0000000000
40
0.0000000000
40
0.0000000000
40
0.0000000000
40
0.2531663614
40
0.4973379523
40
0.7374798648
40
0.9890333076
40
1.0000000000
40
1.0000000000
40
1.0000000000
40
1.0000000000
10
198.7738084971
20
105.7611860401
30
0.0000000000
10
198.8125500380
20
105.7611860401
30
0.0000000000
10
198.8895234248
20
105.7766376624
30
0.0000000000
10
198.9855023877
20
105.8409405319
30
0.0000000000
10
199.0507235365
20
105.9360584703
30
0.0000000000
10
199.0676130503
20
106.0130898404
30
0.0000000000
10
199.0679223553
20
106.0536101005
30
0.0000000000
10
199.0679204872
20
106.0553030346
30
0.0000000000
11
198.7738084971
21
105.7611860401
31
0.0000000000
11
198.8877419027
21
105.7841499675
31
0.0000000000
11
198.9809165356
21
105.8464704035
31
0.0000000000
11
199.0432577738
21
105.9373967342
31
0.0000000000
11
199.0678816596
21
106.0502251653
31
0.0000000000
11
199.0679204872
21
106.0553030346
31
0.0000000000
0
SPLINE
5
528
100
AcDbEntity
8
0
100
AcDbSpline
62
7
6
CONTINUOUS
70
0
71
3
72
12
73
8
74
6
42
0.0000001000
43
0.0000001000
44
0.0000000001
40
0.0000000000
40
0.0000000000
40
0.0000000000
40
0.0000000000
40
0.2531663614
40
0.4973379523
40
0.7374798648
40
0.9890333076
40
1.0000000000
40
1.0000000000
40
1.0000000000
40
1.0000000000
10
80.0819029881
20
105.7611860401
30
0.0000000000
10
80.0431614472
20
105.7611860401
30
0.0000000000
10
79.9661880604
20
105.7766376624
30
0.0000000000
10
79.8702090975
20
105.8409405319
30
0.0000000000
10
79.8049879487
20
105.9360584703
30
0.0000000000
10
79.7880984349
20
106.0130898404
30
0.0000000000
10
79.7877891299
20
106.0536101005
30
0.0000000000
10
79.7877909980
20
106.0553030346
30
0.0000000000
11
80.0819029881
21
105.7611860401
31
0.0000000000
11
79.9679695825
21
105.7841499675
31
0.0000000000
11
79.8747949496
21
105.8464704035
31
0.0000000000
11
79.8124537113
21
105.9373967342
31
0.0000000000
11
79.7878298256
21
106.0502251653
31
0.0000000000
11
79.7877909980
21
106.0553030346
31
0.0000000000
0
SPLINE
5
529
100
AcDbEntity
8
0
100
AcDbSpline
62
7
6
CONTINUOUS
70
0
71
3
72
11
73
7
74
5
42
0.0000001000
43
0.0000001000
44
0.0000000001
40
0.0000000000
40
0.0000000000
40
0.0000000000
40
0.0000000000
40
0.2554095685
40
0.5150452118
40
0.7810121160
40
1.0000000000
40
1.0000000000
40
1.0000000000
40
1.0000000000
10
80.0819029881
20
96.5063044401
30
0.0000000000
10
80.0428591678
20
96.5063044401
30
0.0000000000
10
79.9632328698
20
96.4902151506
30
0.0000000000
10
79.8624110725
20
96.4203935443
30
0.0000000000
10
79.8007600926
20
96.3208695661
30
0.0000000000
10
79.7878492821
20
96.2458127710
30
0.0000000000
10
79.7878058065
20
96.2121874168
30
0.0000000000
11
80.0819029881
21
96.5063044401
31
0.0000000000
11
79.9671171647
21
96.4829807643
31
0.0000000000
11
79.8691656093
21
96.4152825346
31
0.0000000000
11
79.8050644368
21
96.3115112853
31
0.0000000000
11
79.7878058065
21
96.2121874168
31
0.0000000000
0
SPLINE
5
52A
100
AcDbEntity
8
0
100
AcDbSpline
62
7
6
CONTINUOUS
70
0
71
3
72
11
73
7
74
5
42
0.0000001000
43
0.0000001000
44
0.0000000001
40
0.0000000000
40
0.0000000000
40
0.0000000000
40
0.0000000000
40
0.0764036467
40
0.2929625851
40
0.6168418367
40
1.0000000000
40
1.0000000000
40
1.0000000000
40
1.0000000000
10
193.5406474486
20
96.5063044401
30
0.0000000000
10
193.5331561792
20
96.5063044401
30
0.0000000000
10
193.5485840314
20
96.4599795840
30
0.0000000000
10
193.5334133516
20
96.4153916205
30
0.0000000000
10
193.5402833404
20
96.3167908122
30
0.0000000000
10
193.5380807284
20
96.2497555554
30
0.0000000000
10
193.5380807284
20
96.2121874401
30
0.0000000000
11
193.5406474486
21
96.5063044401
31
0.0000000000
11
193.5396638610
21
96.4838521662
31
0.0000000000
11
193.5388324871
21
96.4201577000
31
0.0000000000
11
193.5382766527
21
96.3248916157
31
0.0000000000
11
193.5380807284
21
96.2121874401
31
0.0000000000
0
SPLINE
5
52B
100
AcDbEntity
8
0
100
AcDbSpline
62
7
6
CONTINUOUS
70
0
71
3
72
11
73
7
74
5
42
0.0000001000
43
0.0000001000
44
0.0000000001
40
0.0000000000
40
0.0000000000
40
0.0000000000
40
0.0000000000
40
0.3831581633
40
0.7070374149
40
0.9235963533
40
1.0000000000
40
1.0000000000
40
1.0000000000
40
1.0000000000
10
85.3176307568
20
96.2121874401
30
0.0000000000
10
85.3176307568
20
96.2497555554
30
0.0000000000
10
85.3154281448
20
96.3167908122
30
0.0000000000
10
85.3222981336
20
96.4153916205
30
0.0000000000
10
85.3071274538
20
96.4599795840
30
0.0000000000
10
85.3225553060
20
96.5063044401
30
0.0000000000
10
85.3150640366
20
96.5063044401
30
0.0000000000
11
85.3176307568
21
96.2121874401
31
0.0000000000
11
85.3174348325
21
96.3248916157
31
0.0000000000
11
85.3168789981
21
96.4201577000
31
0.0000000000
11
85.3160476242
21
96.4838521662
31
0.0000000000
11
85.3150640366
21
96.5063044401
31
0.0000000000
0
SPLINE
5
52C
100
AcDbEntity
8
0
100
AcDbSpline
62
7
6
CONTINUOUS
70
0
71
3
72
14
73
10
74
8
42
0.0000001000
43
0.0000001000
44
0.0000000001
40
0.0000000000
40
0.0000000000
40
0.0000000000
40
0.0000000000
40
0.1536403092
40
0.3309000621
40
0.5119325193
40
0.6859509103
40
0.8316510025
40
0.9405468245
40
1.0000000000
40
1.0000000000
40
1.0000000000
40
1.0000000000
10
85.2905132543
20
95.0513092320
30
0.0000000000
10
85.2897251641
20
94.9482224629
30
0.0000000000
10
85.2885619748
20
94.7261970646
30
0.0000000000
10
85.2877808884
20
94.3827007218
30
0.0000000000
10
85.2878664571
20
94.0255288609
30
0.0000000000
10
85.2888908084
20
93.6895386476
30
0.0000000000
10
85.2904759836
20
93.4019413773
30
0.0000000000
10
85.2930807477
20
93.1912538661
30
0.0000000000
10
85.2947324661
20
93.0782795015
30
0.0000000000
10
85.2966271473
20
93.0384325494
30
0.0000000000
11
85.2905132543
21
95.0513092320
31
0.0000000000
11
85.2887869248
21
94.7420447057
31
0.0000000000
11
85.2879345459
21
94.3852317612
31
0.0000000000
11
85.2880415674
21
94.0208235715
31
0.0000000000
11
85.2891052780
21
93.6705359040
31
0.0000000000
11
85.2909952994
21
93.3772558620
31
0.0000000000
11
85.2935976973
21
93.1580701151
31
0.0000000000
11
85.2966271473
21
93.0384325494
31
0.0000000000
0
SPLINE
5
52D
100
AcDbEntity
8
0
100
AcDbSpline
6
CONTINUOUS
70
0
71
3
72
14
73
10
74
8
42
0.0000001000
43
0.0000001000
44
0.0000000001
40
0.0000000000
40
0.0000000000
40
0.0000000000
40
0.0000000000
40
0.0456302041
40
0.1313047989
40
0.2619983759
40
0.4281932798
40
0.6147563034
40
0.8079239815
40
1.0000000000
40
1.0000000000
40
1.0000000000
40
1.0000000000
10
199.4277237426
20
93.3198446493
30
0.0000000000
10
199.4276980170
20
93.3729903732
30
0.0000000000
10
199.3073413559
20
93.5029546577
30
0.0000000000
10
199.0285080944
20
93.6097490315
30
0.0000000000
10
198.5951930761
20
93.7302493703
30
0.0000000000
10
198.0410741659
20
93.8261423229
30
0.0000000000
10
197.4097709665
20
93.9060705366
30
0.0000000000
10
196.7463336469
20
93.9645347267
30
0.0000000000
10
196.2984007393
20
93.9918573000
30
0.0000000000
10
196.0749579931
20
94.0028281295
30
0.0000000000
11
199.4277237426
21
93.3198446493
31
0.0000000000
11
199.3417057930
21
93.4540874518
31
0.0000000000
11
199.0740991347
21
93.5882561262
31
0.0000000000
11
198.6346268606
21
93.7123570078
31
0.0000000000
11
198.0636194972
21
93.8180352548
31
0.0000000000
11
197.4170549997
21
93.9010555320
31
0.0000000000
11
196.7448269792
21
93.9616125870
31
0.0000000000
11
196.0749579931
21
94.0028281295
31
0.0000000000
0
SPLINE
5
52E
100
AcDbEntity
8
0
100
AcDbSpline
62
7
6
CONTINUOUS
70
0
71
3
72
14
73
10
74
8
42
0.0000001000
43
0.0000001000
44
0.0000000001
40
0.0000000000
40
0.0000000000
40
0.0000000000
40
0.0000000000
40
0.0598808134
40
0.1689939450
40
0.3147501108
40
0.4886682291
40
0.6695064917
40
0.8465479989
40
1.0000000000
40
1.0000000000
40
1.0000000000
40
1.0000000000
10
193.5591170810
20
93.0391272091
30
0.0000000000
10
193.5609919080
20
93.0792484588
30
0.0000000000
10
193.5626602965
20
93.1926148993
30
0.0000000000
10
193.5652439953
20
93.4037010862
30
0.0000000000
10
193.5668299065
20
93.6913146369
30
0.0000000000
10
193.5678463333
20
94.0270290890
30
0.0000000000
10
193.5679293159
20
94.3837336181
30
0.0000000000
10
193.5671471568
20
94.7267083693
30
0.0000000000
10
193.5659850833
20
94.9483843749
30
0.0000000000
10
193.5651982309
20
95.0513092320
30
0.0000000000
11
193.5591170810
21
93.0391272091
31
0.0000000000
11
193.5621389503
21
93.1595844014
31
0.0000000000
11
193.5647325212
21
93.3791318432
31
0.0000000000
11
193.5666149069
21
93.6724234621
31
0.0000000000
11
193.5676724354
21
94.0223883770
31
0.0000000000
11
193.5677758725
21
94.3862799265
31
0.0000000000
11
193.5669226728
21
94.7425304530
31
0.0000000000
11
193.5651982309
21
95.0513092320
31
0.0000000000
0
SPLINE
5
52F
100
AcDbEntity
8
0
100
AcDbSpline
6
CONTINUOUS
70
0
71
3
72
12
73
8
74
6
42
0.0000001000
43
0.0000001000
44
0.0000000001
40
0.0000000000
40
0.0000000000
40
0.0000000000
40
0.0000000000
40
0.1707398693
40
0.3692179162
40
0.5822944502
40
0.7967906495
40
1.0000000000
40
1.0000000000
40
1.0000000000
40
1.0000000000
10
196.0749579931
20
94.0028281295
30
0.0000000000
10
195.9857375307
20
94.0070371908
30
0.0000000000
10
195.7931316610
20
94.0232597503
30
0.0000000000
10
195.4911410713
20
94.0637286429
30
0.0000000000
10
195.1681792202
20
94.1183722981
30
0.0000000000
10
194.8440198209
20
94.1801413023
30
0.0000000000
10
194.6297430595
20
94.2229756825
30
0.0000000000
10
194.5255051778
20
94.2438403584
30
0.0000000000
11
196.0749579931
21
94.0028281295
31
0.0000000000
11
195.8078413440
21
94.0240592349
31
0.0000000000
11
195.4989754048
21
94.0644163347
31
0.0000000000
11
195.1691208625
21
94.1193783343
31
0.0000000000
11
194.8383203481
21
94.1817556953
31
0.0000000000
11
194.5255051778
21
94.2438403584
31
0.0000000000
0
SPLINE
5
530
100
AcDbEntity
8
0
100
AcDbSpline
6
CONTINUOUS
70
0
71
3
72
11
73
7
74
5
42
0.0000001000
43
0.0000001000
44
0.0000000001
40
0.0000000000
40
0.0000000000
40
0.0000000000
40
0.0000000000
40
0.1532377054
40
0.3830080153
40
0.6750125440
40
1.0000000000
40
1.0000000000
40
1.0000000000
40
1.0000000000
10
195.7654146899
20
93.0382667581
30
0.0000000000
10
195.8124081869
20
93.0628760187
30
0.0000000000
10
195.8975079633
20
93.1745311568
30
0.0000000000
10
195.9837280817
20
93.3902357922
30
0.0000000000
10
196.0504809909
20
93.6775483838
30
0.0000000000
10
196.0738823707
20
93.8901133462
30
0.0000000000
10
196.0802720830
20
94.0024345491
30
0.0000000000
11
195.7654146899
21
93.0382667581
31
0.0000000000
11
195.8747122950
21
93.1539390267
31
0.0000000000
11
195.9708312185
21
93.3723468733
31
0.0000000000
11
196.0422278905
21
93.6670771744
31
0.0000000000
11
196.0802720830
21
94.0024345491
31
0.0000000000
0
SPLINE
5
531
100
AcDbEntity
8
0
100
AcDbSpline
6
CONTINUOUS
70
0
71
3
72
12
73
8
74
6
42
0.0000001000
43
0.0000001000
44
0.0000000001
40
0.0000000000
40
0.0000000000
40
0.0000000000
40
0.0000000000
40
0.1392678169
40
0.3218909049
40
0.5395344178
40
0.7728569643
40
1.0000000000
40
1.0000000000
40
1.0000000000
40
1.0000000000
10
195.7648800003
20
93.0384325594
30
0.0000000000
10
195.6873558571
20
93.0621331858
30
0.0000000000
10
195.5206157819
20
93.1546375919
30
0.0000000000
10
195.2819521279
20
93.3595176853
30
0.0000000000
10
195.0292456569
20
93.6288756154
30
0.0000000000
10
194.7756362746
20
93.9313728605
30
0.0000000000
10
194.6083580518
20
94.1408149895
30
0.0000000000
10
194.5253762417
20
94.2437489755
30
0.0000000000
11
195.7648800003
21
93.0384325594
31
0.0000000000
11
195.5476322216
21
93.1477431941
31
0.0000000000
11
195.3010681455
21
93.3500016517
31
0.0000000000
11
195.0381098636
21
93.6244114883
31
0.0000000000
11
194.7745918913
21
93.9351650543
31
0.0000000000
11
194.5253762417
21
94.2437489755
31
0.0000000000
0
SPLINE
5
532
100
AcDbEntity
8
0
100
AcDbSpline
6
CONTINUOUS
70
0
71
3
72
14
73
10
74
8
42
0.0000001000
43
0.0000001000
44
0.0000000001
40
0.0000000000
40
0.0000000000
40
0.0000000000
40
0.0000000000
40
0.0531082384
40
0.1423907541
40
0.2742230890
40
0.4398728225
40
0.6248018424
40
0.8157373340
40
1.0000000000
40
1.0000000000
40
1.0000000000
40
1.0000000000
10
198.4473337426
20
92.3555610151
30
0.0000000000
10
198.4472913089
20
92.4059953119
30
0.0000000000
10
198.3611233256
20
92.5307946304
30
0.0000000000
10
198.1282283816
20
92.6471713776
30
0.0000000000
10
197.7790922940
20
92.7659082198
30
0.0000000000
10
197.3310604244
20
92.8634742598
30
0.0000000000
10
196.8227887051
20
92.9430599979
30
0.0000000000
10
196.2938898291
20
93.0010555807
30
0.0000000000
10
195.9385249619
20
93.0277574520
30
0.0000000000
10
195.7638659589
20
93.0384387190
30
0.0000000000
11
198.4473337426
21
92.3555610151
31
0.0000000000
11
198.3781783337
21
92.4901348249
31
0.0000000000
11
198.1624397044
21
92.6248818933
31
0.0000000000
11
197.8080991248
21
92.7494062584
31
0.0000000000
11
197.3481926670
21
92.8552484888
31
0.0000000000
11
196.8279136553
21
92.9382257780
31
0.0000000000
11
196.2873080909
21
92.9986009773
31
0.0000000000
11
195.7638659589
21
93.0384387190
31
0.0000000000
0
SPLINE
5
533
100
AcDbEntity
8
0
100
AcDbSpline
6
CONTINUOUS
70
0
71
3
72
11
73
7
74
5
42
0.0000001000
43
0.0000001000
44
0.0000000001
40
0.0000000000
40
0.0000000000
40
0.0000000000
40
0.0000000000
40
0.2519072974
40
0.5027021574
40
0.7519139492
40
1.0000000000
40
1.0000000000
40
1.0000000000
40
1.0000000000
10
198.4473337426
20
92.3555610151
30
0.0000000000
10
198.5747630676
20
92.3555610172
30
0.0000000000
10
198.8317795793
20
92.4054558020
30
0.0000000000
10
199.1576019947
20
92.6194400519
30
0.0000000000
10
199.3764051270
20
92.9399719112
30
0.0000000000
10
199.4277237426
20
93.1943483320
30
0.0000000000
10
199.4277237426
20
93.3198446487
30
0.0000000000
11
198.4473337426
21
92.3555610151
31
0.0000000000
11
198.8225090409
21
92.4289612286
31
0.0000000000
11
199.1405707381
21
92.6379897933
31
0.0000000000
11
199.3530947939
21
92.9508264247
31
0.0000000000
11
199.4277237426
21
93.3198446487
31
0.0000000000
0
SPLINE
5
534
100
AcDbEntity
8
0
100
AcDbSpline
6
CONTINUOUS
70
0
71
3
72
12
73
8
74
6
42
0.0000001000
43
0.0000001000
44
0.0000000001
40
0.0000000000
40
0.0000000000
40
0.0000000000
40
0.0000000000
40
0.2621570224
40
0.5023417563
40
0.7087138367
40
0.8748824171
40
1.0000000000
40
1.0000000000
40
1.0000000000
40
1.0000000000
10
84.3300102385
20
94.2438781011
30
0.0000000000
10
84.2341967924
20
94.1251277886
30
0.0000000000
10
84.0522896402
20
93.8961939783
30
0.0000000000
10
83.7849811110
20
93.5819446133
30
0.0000000000
10
83.5369983969
20
93.3248177297
30
0.0000000000
10
83.3127458013
20
93.1406525250
30
0.0000000000
10
83.1608704015
20
93.0593891028
30
0.0000000000
10
83.0911284462
20
93.0384325494
30
0.0000000000
11
84.3300102385
21
94.2438781011
31
0.0000000000
11
84.0422732578
21
93.8878667128
31
0.0000000000
11
83.7686692201
21
93.5700217025
31
0.0000000000
11
83.5154804323
21
93.3136147230
31
0.0000000000
11
83.2875380849
21
93.1340950340
31
0.0000000000
11
83.0911284462
21
93.0384325494
31
0.0000000000
0
SPLINE
5
535
100
AcDbEntity
8
0
100
AcDbSpline
6
CONTINUOUS
70
0
71
3
72
13
73
9
74
7
42
0.0000001000
43
0.0000001000
44
0.0000000001
40
0.0000000000
40
0.0000000000
40
0.0000000000
40
0.0000000000
40
0.1962056472
40
0.3843739358
40
0.5616208036
40
0.7254630383
40
0.8729021005
40
1.0000000000
40
1.0000000000
40
1.0000000000
40
1.0000000000
10
84.3301966838
20
94.2437906057
30
0.0000000000
10
84.2298396116
20
94.2236993627
30
0.0000000000
10
84.0332117313
20
94.1844632358
30
0.0000000000
10
83.7454830497
20
94.1292940964
30
0.0000000000
10
83.4735209818
20
94.0816896185
30
0.0000000000
10
83.2214858029
20
94.0437493221
30
0.0000000000
10
82.9943219166
20
94.0171986793
30
0.0000000000
10
82.8514732218
20
94.0060538390
30
0.0000000000
10
82.7852394259
20
94.0031105384
30
0.0000000000
11
84.3301966838
21
94.2437906057
31
0.0000000000
11
84.0290235942
21
94.1840279915
31
0.0000000000
11
83.7397388222
21
94.1290241649
31
0.0000000000
11
83.4664440030
21
94.0816153012
31
0.0000000000
11
83.2128263878
21
94.0439498211
31
0.0000000000
11
82.9836122275
21
94.0175479976
31
0.0000000000
11
82.7852394259
21
94.0031105384
31
0.0000000000
0
SPLINE
5
536
100
AcDbEntity
8
0
100
AcDbSpline
6
CONTINUOUS
70
0
71
3
72
14
73
10
74
8
42
0.0000001000
43
0.0000001000
44
0.0000000001
40
0.0000000000
40
0.0000000000
40
0.0000000000
40
0.0000000000
40
0.1888851625
40
0.3776762800
40
0.5605871551
40
0.7253947995
40
0.8573640031
40
0.9469256930
40
1.0000000000
40
1.0000000000
40
1.0000000000
40
1.0000000000
10
83.0887222838
20
93.0384383923
30
0.0000000000
10
82.9098829986
20
93.0273997977
30
0.0000000000
10
82.5525854878
20
93.0001920897
30
0.0000000000
10
82.0238778303
20
92.9417971139
30
0.0000000000
10
81.5209104968
20
92.8626920534
30
0.0000000000
10
81.0759143065
20
92.7656645698
30
0.0000000000
10
80.7275693712
20
92.6471983274
30
0.0000000000
10
80.4945243198
20
92.5308229784
30
0.0000000000
10
80.4084148980
20
92.4059081788
30
0.0000000000
10
80.4083777426
20
92.3555610151
30
0.0000000000
11
83.0887222838
21
93.0384383923
31
0.0000000000
11
82.5527713901
21
92.9971503301
31
0.0000000000
11
82.0188738952
21
92.9370348628
31
0.0000000000
11
81.5048821497
21
92.8547474346
31
0.0000000000
11
81.0478323301
21
92.7494704771
31
0.0000000000
11
80.6934991598
21
92.6249844495
31
0.0000000000
11
80.4773344112
21
92.4899430166
31
0.0000000000
11
80.4083777426
21
92.3555610151
31
0.0000000000
0
SPLINE
5
537
100
AcDbEntity
8
0
100
AcDbSpline
6
CONTINUOUS
70
0
71
3
72
14
73
10
74
8
42
0.0000001000
43
0.0000001000
44
0.0000000001
40
0.0000000000
40
0.0000000000
40
0.0000000000
40
0.0000000000
40
0.1937161531
40
0.3852177849
40
0.5703785545
40
0.7363921964
40
0.8677840699
40
0.9541496465
40
1.0000000000
40
1.0000000000
40
1.0000000000
40
1.0000000000
10
82.7852394259
20
94.0031105384
30
0.0000000000
10
82.5596063438
20
93.9919602193
30
0.0000000000
10
82.1111296629
20
93.9646956793
30
0.0000000000
10
81.4485140151
20
93.9062799046
30
0.0000000000
10
80.8201455622
20
93.8269162580
30
0.0000000000
10
80.2662993003
20
93.7314878767
30
0.0000000000
10
79.8308580384
20
93.6109622800
30
0.0000000000
10
79.5498739584
20
93.5040548289
30
0.0000000000
10
79.4280108140
20
93.3733145336
30
0.0000000000
10
79.4279877426
20
93.3198446493
30
0.0000000000
11
82.7852394259
21
94.0031105384
31
0.0000000000
11
82.1087953956
21
93.9614568474
31
0.0000000000
11
81.4415182189
21
93.9013631720
31
0.0000000000
11
80.7989704701
21
93.8190875647
31
0.0000000000
11
80.2277749449
21
93.7138634728
31
0.0000000000
11
79.7852176835
21
93.5895674567
31
0.0000000000
11
79.5148242725
21
93.4547174729
31
0.0000000000
11
79.4279877426
21
93.3198446493
31
0.0000000000
0
SPLINE
5
538
100
AcDbEntity
8
0
100
AcDbSpline
6
CONTINUOUS
70
0
71
3
72
11
73
7
74
5
42
0.0000001000
43
0.0000001000
44
0.0000000001
40
0.0000000000
40
0.0000000000
40
0.0000000000
40
0.0000000000
40
0.1529970340
40
0.3827585711
40
0.6748533301
40
1.0000000000
40
1.0000000000
40
1.0000000000
40
1.0000000000
10
83.0797809108
20
93.0377495756
30
0.0000000000
10
83.0329775913
20
93.0624579809
30
0.0000000000
10
82.9483685186
20
93.1742210655
30
0.0000000000
10
82.8627191251
20
93.3898954540
30
0.0000000000
10
82.7965422208
20
93.6772041335
30
0.0000000000
10
82.7734721406
20
93.8897304537
30
0.0000000000
10
82.7672442905
20
94.0020332098
30
0.0000000000
11
83.0797809108
21
93.0377495756
31
0.0000000000
11
82.9710943289
21
93.1534938238
31
0.0000000000
11
82.8755652043
21
93.3719592152
31
0.0000000000
11
82.8047579636
21
93.6666990769
31
0.0000000000
11
82.7672442905
21
94.0020332098
31
0.0000000000
0
SPLINE
5
539
100
AcDbEntity
8
0
100
AcDbSpline
6
CONTINUOUS
70
0
71
3
72
11
73
7
74
5
42
0.0000001000
43
0.0000001000
44
0.0000000001
40
0.0000000000
40
0.0000000000
40
0.0000000000
40
0.0000000000
40
0.2519098873
40
0.5027052563
40
0.7519159500
40
1.0000000000
40
1.0000000000
40
1.0000000000
40
1.0000000000
10
80.4083777426
20
92.3555610151
30
0.0000000000
10
80.2809471069
20
92.3555610151
30
0.0000000000
10
80.0239289420
20
92.4054566502
30
0.0000000000
10
79.6981065961
20
92.6194429638
30
0.0000000000
10
79.4793055961
20
92.9399745555
30
0.0000000000
10
79.4279877426
20
93.1943493441
30
0.0000000000
10
79.4279877426
20
93.3198446493
30
0.0000000000
11
80.4083777426
21
92.3555610151
31
0.0000000000
11
80.0331987325
21
92.4289627360
31
0.0000000000
11
79.7151373256
21
92.6379931521
31
0.0000000000
11
79.5026154878
21
92.9508292778
31
0.0000000000
11
79.4279877426
21
93.3198446493
31
0.0000000000
0
SPLINE
5
53A
100
AcDbEntity
8
0
100
AcDbSpline
6
CONTINUOUS
70
0
71
3
72
10
73
6
74
4
42
0.0000001000
43
0.0000001000
44
0.0000000001
40
0.0000000000
40
0.0000000000
40
0.0000000000
40
0.0000000000
40
0.3148123133
40
0.7056879524
40
1.0000000000
40
1.0000000000
40
1.0000000000
40
1.0000000000
10
195.1734341064
20
108.7901932515
30
0.0000000000
10
195.2273028255
20
108.8465193484
30
0.0000000000
10
195.3514004997
20
108.9695169607
30
0.0000000000
10
195.5429656839
20
109.1268379552
30
0.0000000000
10
195.6948410837
20
109.2081013774
30
0.0000000000
10
195.7645830390
20
109.2290579308
30
0.0000000000
11
195.1734341064
21
108.7901932515
31
0.0000000000
11
195.3402310529
21
108.9538757572
31
0.0000000000
11
195.5681734003
21
109.1333954463
31
0.0000000000
11
195.7645830390
21
109.2290579308
31
0.0000000000
0
SPLINE
5
53B
100
AcDbEntity
8
0
100
AcDbSpline
6
CONTINUOUS
70
0
71
3
72
10
73
6
74
4
42
0.0000001000
43
0.0000001000
44
0.0000000001
40
0.0000000000
40
0.0000000000
40
0.0000000000
40
0.0000000000
40
0.3749345454
40
0.7106743316
40
1.0000000000
40
1.0000000000
40
1.0000000000
40
1.0000000000
10
195.3880332090
20
108.1856748077
30
0.0000000000
10
195.4728100448
20
108.1994422996
30
0.0000000000
10
195.6338100136
20
108.2236923812
30
0.0000000000
10
195.8613604756
20
108.2502887918
30
0.0000000000
10
196.0041806095
20
108.2614314942
30
0.0000000000
10
196.0703895733
20
108.2643734946
30
0.0000000000
11
195.3880332090
21
108.1856748077
31
0.0000000000
11
195.6428882208
21
108.2235410743
31
0.0000000000
11
195.8720911519
21
108.2499417108
31
0.0000000000
11
196.0703895733
21
108.2643734946
31
0.0000000000
0
SPLINE
5
53C
100
AcDbEntity
8
0
100
AcDbSpline
6
CONTINUOUS
70
0
71
3
72
14
73
10
74
8
42
0.0000001000
43
0.0000001000
44
0.0000000001
40
0.0000000000
40
0.0000000000
40
0.0000000000
40
0.0000000000
40
0.1903686851
40
0.3802258461
40
0.5636436432
40
0.7278749714
40
0.8586608072
40
0.9473407999
40
1.0000000000
40
1.0000000000
40
1.0000000000
40
1.0000000000
10
195.7670042736
20
109.2290520879
30
0.0000000000
10
195.9472514856
20
109.2401772787
30
0.0000000000
10
196.3069652678
20
109.2676095017
30
0.0000000000
10
196.8385452650
20
109.3265398730
30
0.0000000000
10
197.3423926306
20
109.4061861659
30
0.0000000000
10
197.7861277774
20
109.5035688419
30
0.0000000000
10
198.1318402113
20
109.6218543509
30
0.0000000000
10
198.3625405470
20
109.7379684066
30
0.0000000000
10
198.4472915639
20
109.8619751720
30
0.0000000000
10
198.4473337426
20
109.9119294652
30
0.0000000000
11
195.7670042736
21
109.2290520879
31
0.0000000000
11
196.3071690424
21
109.2707350385
31
0.0000000000
11
196.8440645932
21
109.3314258136
31
0.0000000000
11
197.3594189068
21
109.4143870270
31
0.0000000000
11
197.8147276285
21
109.5199517863
31
0.0000000000
11
198.1656290228
21
109.6440638455
31
0.0000000000
11
198.3792711899
21
109.7784139695
31
0.0000000000
11
198.4473337426
21
109.9119294652
31
0.0000000000
0
SPLINE
5
53D
100
AcDbEntity
8
0
100
AcDbSpline
6
CONTINUOUS
70
0
71
3
72
14
73
10
74
8
42
0.0000001000
43
0.0000001000
44
0.0000000001
40
0.0000000000
40
0.0000000000
40
0.0000000000
40
0.0000000000
40
0.1952138016
40
0.3877722590
40
0.5734606498
40
0.7389487043
40
0.8691833821
40
0.9545850466
40
1.0000000000
40
1.0000000000
40
1.0000000000
40
1.0000000000
10
196.0703895733
20
108.2643734946
30
0.0000000000
10
196.2977784357
20
108.2756097573
30
0.0000000000
10
196.7492491819
20
108.3030968612
30
0.0000000000
10
197.4154655232
20
108.3620430058
30
0.0000000000
10
198.0450313402
20
108.4419587706
30
0.0000000000
10
198.5975261513
20
108.5377690602
30
0.0000000000
10
199.0296825930
20
108.6581455886
30
0.0000000000
10
199.3079147713
20
108.7648836958
30
0.0000000000
10
199.4276980666
20
108.8946810635
30
0.0000000000
10
199.4277237426
20
108.9476458309
30
0.0000000000
11
196.0703895733
21
108.2643734946
31
0.0000000000
11
196.7520930096
21
108.3064206122
31
0.0000000000
11
197.4230651888
21
108.3670805837
31
0.0000000000
11
198.0674191567
21
108.4500376634
31
0.0000000000
11
198.6367108071
21
108.5556042083
31
0.0000000000
11
199.0751634421
21
108.6796234329
31
0.0000000000
11
199.3421614934
21
108.8137559256
31
0.0000000000
11
199.4277237426
21
108.9476458309
31
0.0000000000
0
SPLINE
5
53E
100
AcDbEntity
8
0
100
AcDbSpline
6
CONTINUOUS
70
0
71
3
72
11
73
7
74
5
42
0.0000001000
43
0.0000001000
44
0.0000000001
40
0.0000000000
40
0.0000000000
40
0.0000000000
40
0.0000000000
40
0.1529967737
40
0.3827581980
40
0.6748530662
40
1.0000000000
40
1.0000000000
40
1.0000000000
40
1.0000000000
10
195.7759305744
20
109.2297409047
30
0.0000000000
10
195.8227339906
20
109.2050328153
30
0.0000000000
10
195.9073434121
20
109.0932699329
30
0.0000000000
10
195.9929930256
20
108.8775956261
30
0.0000000000
10
196.0591701757
20
108.5902867313
30
0.0000000000
10
196.0822403357
20
108.3777601762
30
0.0000000000
10
196.0884682118
20
108.2654572704
30
0.0000000000
11
195.7759305744
21
109.2297409047
31
0.0000000000
11
195.8846174507
21
109.1139971880
31
0.0000000000
11
195.9801468885
21
108.8955319232
31
0.0000000000
11
196.0509543892
21
108.6007918421
31
0.0000000000
11
196.0884682118
21
108.2654572704
31
0.0000000000
0
SPLINE
5
53F
100
AcDbEntity
8
0
100
AcDbSpline
6
CONTINUOUS
70
0
71
3
72
11
73
7
74
5
42
0.0000001000
43
0.0000001000
44
0.0000000001
40
0.0000000000
40
0.0000000000
40
0.0000000000
40
0.0000000000
40
0.2519098873
40
0.5027052565
40
0.7519159501
40
1.0000000000
40
1.0000000000
40
1.0000000000
40
1.0000000000
10
198.4473337426
20
109.9119294652
30
0.0000000000
10
198.5747643783
20
109.9119294652
30
0.0000000000
10
198.8317825433
20
109.8620338300
30
0.0000000000
10
199.1576048892
20
109.6480475163
30
0.0000000000
10
199.3764058891
20
109.3275159246
30
0.0000000000
10
199.4277237426
20
109.0731411361
30
0.0000000000
10
199.4277237426
20
108.9476458309
30
0.0000000000
11
198.4473337426
21
109.9119294652
31
0.0000000000
11
198.8225127528
21
109.8385277442
31
0.0000000000
11
199.1405741597
21
109.6294973279
31
0.0000000000
11
199.3530959974
21
109.3166612022
31
0.0000000000
11
199.4277237426
21
108.9476458309
31
0.0000000000
0
SPLINE
5
540
100
AcDbEntity
8
0
100
AcDbSpline
62
7
6
CONTINUOUS
70
0
71
3
72
8
73
4
74
2
42
0.0000001000
43
0.0000001000
44
0.0000000001
40
0.0000000000
40
0.0000000000
40
0.0000000000
40
0.0000000000
40
1.0000000000
40
1.0000000000
40
1.0000000000
40
1.0000000000
10
83.0919571981
20
109.2290517271
30
0.0000000000
10
83.3403977033
20
109.2290517271
30
0.0000000000
10
83.5888381962
20
109.2289730426
30
0.0000000000
10
83.8372786851
20
109.2288688753
30
0.0000000000
11
83.0919571981
21
109.2290517271
31
0.0000000000
11
83.8372786851
21
109.2288688753
31
0.0000000000
0
SPLINE
5
541
100
AcDbEntity
8
0
100
AcDbSpline
62
7
6
CONTINUOUS
70
0
71
3
72
11
73
7
74
5
42
0.0000001000
43
0.0000001000
44
0.0000000001
40
0.0000000000
40
0.0000000000
40
0.0000000000
40
0.0000000000
40
0.3826545503
40
0.7070770283
40
0.9238676602
40
1.0000000000
40
1.0000000000
40
1.0000000000
40
1.0000000000
10
128.0724445137
20
117.8984142401
30
0.0000000000
10
128.0702617538
20
118.0234644716
30
0.0000000000
10
128.0662284047
20
118.2545348875
30
0.0000000000
10
128.0609584261
20
118.5564517593
30
0.0000000000
10
128.0574369290
20
118.7581981945
30
0.0000000000
10
128.0557660210
20
118.8539244452
30
0.0000000000
10
128.0553317426
20
118.8788042401
30
0.0000000000
11
128.0724445137
21
117.8984142401
31
0.0000000000
11
128.0658962340
21
118.2735649346
31
0.0000000000
11
128.0603444664
21
118.5916254879
31
0.0000000000
11
128.0566345779
21
118.8041648555
31
0.0000000000
11
128.0553317426
21
118.8788042401
31
0.0000000000
0
SPLINE
5
542
100
AcDbEntity
8
0
100
AcDbSpline
6
CONTINUOUS
70
0
71
3
72
14
73
10
74
8
42
0.0000001000
43
0.0000001000
44
0.0000000001
40
0.0000000000
40
0.0000000000
40
0.0000000000
40
0.0000000000
40
0.0535639887
40
0.1438380672
40
0.2767287052
40
0.4428414275
40
0.6273009417
40
0.8171800201
40
1.0000000000
40
1.0000000000
40
1.0000000000
40
1.0000000000
10
80.4083777426
20
109.9119294652
30
0.0000000000
10
80.4084153658
20
109.8610616879
30
0.0000000000
10
80.4961033781
20
109.7352476813
30
0.0000000000
10
80.7314032977
20
109.6186922699
30
0.0000000000
10
81.0830742493
20
109.4998272760
30
0.0000000000
10
81.5321933929
20
109.4026506276
30
0.0000000000
10
82.0395360893
20
109.3236053448
30
0.0000000000
10
82.5656576335
20
109.2661214314
30
0.0000000000
10
82.9186634247
20
109.2396499447
30
0.0000000000
10
83.0919571981
20
109.2290517271
30
0.0000000000
11
80.4083777426
21
109.9119294652
31
0.0000000000
11
80.4785242040
21
109.7764035873
31
0.0000000000
11
80.6971060144
21
109.6408722171
31
0.0000000000
11
81.0545717807
21
109.5161345425
31
0.0000000000
11
81.5159193594
21
109.4106471885
31
0.0000000000
11
82.0349534650
21
109.3283141487
31
0.0000000000
11
82.5726007799
21
109.2685029396
31
0.0000000000
11
83.0919571981
21
109.2290517271
31
0.0000000000
0
SPLINE
5
543
100
AcDbEntity
8
0
100
AcDbSpline
6
CONTINUOUS
70
0
71
3
72
14
73
10
74
8
42
0.0000001000
43
0.0000001000
44
0.0000000001
40
0.0000000000
40
0.0000000000
40
0.0000000000
40
0.0000000000
40
0.0460825715
40
0.1327769476
40
0.2645599875
40
0.4312210462
40
0.6173055958
40
0.8094058767
40
1.0000000000
40
1.0000000000
40
1.0000000000
40
1.0000000000
10
79.4279877426
20
108.9476458309
30
0.0000000000
10
79.4280109897
20
108.8939701617
30
0.0000000000
10
79.5505669505
20
108.7630037708
30
0.0000000000
10
79.8321890669
20
108.6560819870
30
0.0000000000
10
80.2687561005
20
108.5354559753
30
0.0000000000
10
80.8241937235
20
108.4399527813
30
0.0000000000
10
81.4543452698
20
108.3605744842
30
0.0000000000
10
82.1143205756
20
108.3026313394
30
0.0000000000
10
82.5593177510
20
108.2755369642
30
0.0000000000
10
82.7810493379
20
108.2646512769
30
0.0000000000
11
79.4279877426
21
108.9476458309
31
0.0000000000
11
79.5153440425
21
108.8123735909
31
0.0000000000
11
79.7865675975
21
108.6774332740
31
0.0000000000
11
80.2299663674
21
108.5531355925
31
0.0000000000
11
80.8027325868
21
108.4478298493
31
0.0000000000
11
81.4477327317
21
108.3654628579
31
0.0000000000
11
82.1163057526
21
108.3054743005
31
0.0000000000
11
82.7810493379
21
108.2646512769
31
0.0000000000
0
SPLINE
5
544
100
AcDbEntity
8
0
100
AcDbSpline
6
CONTINUOUS
70
0
71
3
72
11
73
7
74
5
42
0.0000001000
43
0.0000001000
44
0.0000000001
40
0.0000000000
40
0.0000000000
40
0.0000000000
40
0.0000000000
40
0.2519060020
40
0.5027005976
40
0.7519129342
40
1.0000000000
40
1.0000000000
40
1.0000000000
40
1.0000000000
10
80.4083777426
20
109.9119294652
30
0.0000000000
10
80.2809490728
20
109.9119294643
30
0.0000000000
10
80.0239333911
20
109.8620351088
30
0.0000000000
10
79.6981109446
20
109.6480518971
30
0.0000000000
10
79.4793067419
20
109.3275199055
30
0.0000000000
10
79.4279877426
20
109.0731426620
30
0.0000000000
10
79.4279877426
20
108.9476458317
30
0.0000000000
11
80.4083777426
21
109.9119294652
31
0.0000000000
11
80.0332042988
21
109.8385300100
31
0.0000000000
11
79.7151424661
21
109.6295023816
31
0.0000000000
11
79.5026173002
21
109.3166655044
31
0.0000000000
11
79.4279877426
21
108.9476458317
31
0.0000000000
0
SPLINE
5
545
100
AcDbEntity
8
0
100
AcDbSpline
6
CONTINUOUS
70
0
71
3
72
10
73
6
74
4
42
0.0000001000
43
0.0000001000
44
0.0000000001
40
0.0000000000
40
0.0000000000
40
0.0000000000
40
0.0000000000
40
0.3919661312
40
0.8472813613
40
1.0000000000
40
1.0000000000
40
1.0000000000
40
1.0000000000
10
82.7810493379
20
108.2646512769
30
0.0000000000
10
82.8712826683
20
108.2603880215
30
0.0000000000
10
83.0659944681
20
108.2438918890
30
0.0000000000
10
83.2944490815
20
108.2131140989
30
0.0000000000
10
83.4328803103
20
108.1913304488
30
0.0000000000
10
83.4676226950
20
108.1856914366
30
0.0000000000
11
82.7810493379
21
108.2646512769
31
0.0000000000
11
83.0511909968
21
108.2430747296
31
0.0000000000
11
83.3633112398
21
108.2020795058
31
0.0000000000
11
83.4676226950
21
108.1856914366
31
0.0000000000
0
SPLINE
5
546
100
AcDbEntity
8
0
100
AcDbSpline
6
CONTINUOUS
70
0
71
3
72
11
73
7
74
5
42
0.0000001000
43
0.0000001000
44
0.0000000001
40
0.0000000000
40
0.0000000000
40
0.0000000000
40
0.0000000000
40
0.1532021324
40
0.3829665304
40
0.6749855311
40
1.0000000000
40
1.0000000000
40
1.0000000000
40
1.0000000000
10
83.0902898845
20
109.2292266143
30
0.0000000000
10
83.0433188484
20
109.2046110350
30
0.0000000000
10
82.9582832851
20
109.0929392576
30
0.0000000000
10
82.8721366166
20
108.8772422775
30
0.0000000000
10
82.8054477673
20
108.5899280333
30
0.0000000000
10
82.7820770762
20
108.3773651099
30
0.0000000000
10
82.7757000821
20
108.2650436976
30
0.0000000000
11
83.0902898845
21
109.2292266143
31
0.0000000000
11
82.9810700425
21
109.1135509002
31
0.0000000000
11
82.8850267880
21
108.8951393270
31
0.0000000000
11
82.8136957446
21
108.6004050268
31
0.0000000000
11
82.7757000821
21
108.2650436976
31
0.0000000000
0
SPLINE
5
547
100
AcDbEntity
8
0
100
AcDbSpline
6
CONTINUOUS
70
0
71
3
72
10
73
6
74
4
42
0.0000001000
43
0.0000001000
44
0.0000000001
40
0.0000000000
40
0.0000000000
40
0.0000000000
40
0.0000000000
40
0.3317162292
40
0.7669420649
40
1.0000000000
40
1.0000000000
40
1.0000000000
40
1.0000000000
10
83.0908221623
20
109.2290579244
30
0.0000000000
10
83.1692828467
20
109.2050544382
30
0.0000000000
10
83.3379505764
20
109.1110294078
30
0.0000000000
10
83.5254863115
20
108.9491809647
30
0.0000000000
10
83.6421872409
20
108.8320519991
30
0.0000000000
10
83.6820706207
20
108.7904047545
30
0.0000000000
11
83.0908221623
21
109.2290579244
31
0.0000000000
11
83.3105398790
21
109.1180879190
31
0.0000000000
11
83.5597413329
21
108.9126566145
31
0.0000000000
11
83.6820706207
21
108.7904047545
31
0.0000000000
0
SPLINE
5
548
100
AcDbEntity
8
0
100
AcDbSpline
6
CONTINUOUS
70
0
71
3
72
9
73
5
74
3
42
0.0000001000
43
0.0000001000
44
0.0000000001
40
0.0000000000
40
0.0000000000
40
0.0000000000
40
0.0000000000
40
0.4517049594
40
1.0000000000
40
1.0000000000
40
1.0000000000
40
1.0000000000
10
80.4327702103
20
105.7611860401
30
0.0000000000
10
80.4274309577
20
105.7611860401
30
0.0000000000
10
80.4358640033
20
105.7815857142
30
0.0000000000
10
80.4327370640
20
105.7901654615
30
0.0000000000
10
80.4327702103
20
105.7966463456
30
0.0000000000
11
80.4327702103
21
105.7611860401
31
0.0000000000
11
80.4326907858
21
105.7772036013
31
0.0000000000
11
80.4327702103
21
105.7966463456
31
0.0000000000
0
SPLINE
5
549
100
AcDbEntity
8
0
100
AcDbSpline
6
CONTINUOUS
70
0
71
3
72
9
73
5
74
3
42
0.0000001000
43
0.0000001000
44
0.0000000001
40
0.0000000000
40
0.0000000000
40
0.0000000000
40
0.0000000000
40
0.4961308653
40
1.0000000000
40
1.0000000000
40
1.0000000000
40
1.0000000000
10
80.4327702103
20
105.7966463456
30
0.0000000000
10
80.4275848693
20
105.7966468471
30
0.0000000000
10
80.4171319009
20
105.7972846776
30
0.0000000000
10
80.4068189978
20
105.7994684315
30
0.0000000000
10
80.4018591524
20
105.8012384556
30
0.0000000000
11
80.4327702103
21
105.7966463456
31
0.0000000000
11
80.4172472653
21
105.7976602645
31
0.0000000000
11
80.4018591524
21
105.8012384556
31
0.0000000000
0
SPLINE
5
54A
100
AcDbEntity
8
0
100
AcDbSpline
62
7
6
CONTINUOUS
70
0
71
3
72
9
73
5
74
3
42
0.0000001000
43
0.0000001000
44
0.0000000001
40
0.0000000000
40
0.0000000000
40
0.0000000000
40
0.0000000000
40
0.4667997008
40
1.0000000000
40
1.0000000000
40
1.0000000000
40
1.0000000000
10
80.4327702103
20
105.7611860401
30
0.0000000000
10
80.4199240734
20
105.7612847571
30
0.0000000000
10
80.3924361085
20
105.7636278526
30
0.0000000000
10
80.3653903864
20
105.7698272812
30
0.0000000000
10
80.3516422936
20
105.7749568932
30
0.0000000000
11
80.4327702103
21
105.7611860401
31
0.0000000000
11
80.3943576914
21
105.7643125722
31
0.0000000000
11
80.3516422936
21
105.7749568932
31
0.0000000000
0
SPLINE
5
54B
100
AcDbEntity
8
0
100
AcDbSpline
6
CONTINUOUS
70
0
71
3
72
8
73
4
74
2
42
0.0000001000
43
0.0000001000
44
0.0000000001
40
0.0000000000
40
0.0000000000
40
0.0000000000
40
0.0000000000
40
1.0000000000
40
1.0000000000
40
1.0000000000
40
1.0000000000
10
80.3516422936
20
105.7749568932
30
0.0000000000
10
80.3344479764
20
105.7812783885
30
0.0000000000
10
80.3179572269
20
105.7897046468
30
0.0000000000
10
80.3024647531
20
105.7997898510
30
0.0000000000
11
80.3516422936
21
105.7749568932
31
0.0000000000
11
80.3024647531
21
105.7997898510
31
0.0000000000
0
SPLINE
5
54C
100
AcDbEntity
8
0
100
AcDbSpline
6
CONTINUOUS
70
0
71
3
72
9
73
5
74
3
42
0.0000001000
43
0.0000001000
44
0.0000000001
40
0.0000000000
40
0.0000000000
40
0.0000000000
40
0.0000000000
40
0.4902207500
40
1.0000000000
40
1.0000000000
40
1.0000000000
40
1.0000000000
10
80.3024647531
20
105.7997898510
30
0.0000000000
10
80.2865150368
20
105.8101727083
30
0.0000000000
10
80.2561376095
20
105.8349394524
30
0.0000000000
10
80.2315011580
20
105.8649985841
30
0.0000000000
10
80.2204923236
20
105.8813598810
30
0.0000000000
11
80.3024647531
21
105.7997898510
31
0.0000000000
11
80.2581113969
21
105.8357268995
31
0.0000000000
11
80.2204923236
21
105.8813598810
31
0.0000000000
0
SPLINE
5
54D
100
AcDbEntity
8
0
100
AcDbSpline
6
CONTINUOUS
70
0
71
3
72
9
73
5
74
3
42
0.0000001000
43
0.0000001000
44
0.0000000001
40
0.0000000000
40
0.0000000000
40
0.0000000000
40
0.0000000000
40
0.3286696098
40
1.0000000000
40
1.0000000000
40
1.0000000000
40
1.0000000000
10
80.2204923236
20
105.8813598810
30
0.0000000000
10
80.2091604011
20
105.8982013506
30
0.0000000000
10
80.1796801209
20
105.9527882418
30
0.0000000000
10
80.1659956764
20
106.0141458336
30
0.0000000000
10
80.1634478733
20
106.0553030401
30
0.0000000000
11
80.2204923236
21
105.8813598810
31
0.0000000000
11
80.1914881815
21
105.9348148513
31
0.0000000000
11
80.1634478733
21
106.0553030401
31
0.0000000000
0
SPLINE
5
54E
100
AcDbEntity
8
0
100
AcDbSpline
6
CONTINUOUS
70
0
71
3
72
10
73
6
74
4
42
0.0000001000
43
0.0000001000
44
0.0000000001
40
0.0000000000
40
0.0000000000
40
0.0000000000
40
0.0000000000
40
0.2830868974
40
0.6139776204
40
1.0000000000
40
1.0000000000
40
1.0000000000
40
1.0000000000
10
80.3516391294
20
105.7749451303
30
0.0000000000
10
80.3570696120
20
105.7752594298
30
0.0000000000
10
80.3687364549
20
105.7781406756
30
0.0000000000
10
80.3857029519
20
105.7874264262
30
0.0000000000
10
80.3964336861
20
105.7961761533
30
0.0000000000
10
80.4018670024
20
105.8012257393
30
0.0000000000
11
80.3516391294
21
105.7749451303
31
0.0000000000
11
80.3675623950
21
105.7785158357
31
0.0000000000
11
80.3844623411
21
105.7873602801
31
0.0000000000
11
80.4018670024
21
105.8012257393
31
0.0000000000
0
SPLINE
5
54F
100
AcDbEntity
8
0
100
AcDbSpline
6
CONTINUOUS
70
0
71
3
72
8
73
4
74
2
42
0.0000001000
43
0.0000001000
44
0.0000000001
40
0.0000000000
40
0.0000000000
40
0.0000000000
40
0.0000000000
40
1.0000000000
40
1.0000000000
40
1.0000000000
40
1.0000000000
10
80.4018670024
20
105.8012257393
30
0.0000000000
10
80.3833749880
20
105.8069478758
30
0.0000000000
10
80.3653935924
20
105.8144907148
30
0.0000000000
10
80.3481475187
20
105.8235375962
30
0.0000000000
11
80.4018670024
21
105.8012257393
31
0.0000000000
11
80.3481475187
21
105.8235375962
31
0.0000000000
0
SPLINE
5
550
100
AcDbEntity
8
0
100
AcDbSpline
6
CONTINUOUS
70
0
71
3
72
8
73
4
74
2
42
0.0000001000
43
0.0000001000
44
0.0000000001
40
0.0000000000
40
0.0000000000
40
0.0000000000
40
0.0000000000
40
1.0000000000
40
1.0000000000
40
1.0000000000
40
1.0000000000
10
80.3481475187
20
105.8235375962
30
0.0000000000
10
80.3303081583
20
105.8328957017
30
0.0000000000
10
80.3132555820
20
105.8438631114
30
0.0000000000
10
80.2972384901
20
105.8560893478
30
0.0000000000
11
80.3481475187
21
105.8235375962
31
0.0000000000
11
80.2972384901
21
105.8560893478
31
0.0000000000
0
SPLINE
5
551
100
AcDbEntity
8
0
100
AcDbSpline
6
CONTINUOUS
70
0
71
3
72
8
73
4
74
2
42
0.0000001000
43
0.0000001000
44
0.0000000001
40
0.0000000000
40
0.0000000000
40
0.0000000000
40
0.0000000000
40
1.0000000000
40
1.0000000000
40
1.0000000000
40
1.0000000000
10
80.2972384901
20
105.8560893478
30
0.0000000000
10
80.2808460657
20
105.8686020847
30
0.0000000000
10
80.2655382237
20
105.8824333362
30
0.0000000000
10
80.2514502991
20
105.8974138069
30
0.0000000000
11
80.2972384901
21
105.8560893478
31
0.0000000000
11
80.2514502991
21
105.8974138069
31
0.0000000000
0
SPLINE
5
552
100
AcDbEntity
8
0
100
AcDbSpline
6
CONTINUOUS
70
0
71
3
72
9
73
5
74
3
42
0.0000001000
43
0.0000001000
44
0.0000000001
40
0.0000000000
40
0.0000000000
40
0.0000000000
40
0.0000000000
40
0.3377107487
40
1.0000000000
40
1.0000000000
40
1.0000000000
40
1.0000000000
10
80.2514502991
20
105.8974138069
30
0.0000000000
10
80.2373787692
20
105.9123768442
30
0.0000000000
10
80.1993152776
20
105.9600791555
30
0.0000000000
10
80.1731058825
20
106.0163553666
30
0.0000000000
10
80.1634383065
20
106.0553146016
30
0.0000000000
11
80.2514502991
21
105.8974138069
31
0.0000000000
11
80.2130218112
21
105.9455738516
31
0.0000000000
11
80.1634383065
21
106.0553146016
31
0.0000000000
0
SPLINE
5
553
100
AcDbEntity
8
0
100
AcDbSpline
62
7
6
CONTINUOUS
70
0
71
3
72
9
73
5
74
3
42
0.0000001000
43
0.0000001000
44
0.0000000001
40
0.0000000000
40
0.0000000000
40
0.0000000000
40
0.0000000000
40
0.4524179566
40
1.0000000000
40
1.0000000000
40
1.0000000000
40
1.0000000000
10
85.3091867587
20
96.5063044401
30
0.0000000000
10
85.3038366154
20
96.5063044401
30
0.0000000000
10
85.3114287410
20
96.4859130770
30
0.0000000000
10
85.3082859850
20
96.4773191537
30
0.0000000000
10
85.3082052852
20
96.4708441347
30
0.0000000000
11
85.3091867587
21
96.5063044401
31
0.0000000000
11
85.3085090062
21
96.4902683261
31
0.0000000000
11
85.3082052852
21
96.4708441347
31
0.0000000000
0
SPLINE
5
554
100
AcDbEntity
8
0
100
AcDbSpline
6
CONTINUOUS
70
0
71
3
72
9
73
5
74
3
42
0.0000001000
43
0.0000001000
44
0.0000000001
40
0.0000000000
40
0.0000000000
40
0.0000000000
40
0.0000000000
40
0.5481196579
40
1.0000000000
40
1.0000000000
40
1.0000000000
40
1.0000000000
10
80.4327702103
20
96.4708441347
30
0.0000000000
10
80.4327200258
20
96.4773229190
30
0.0000000000
10
80.4357905641
20
96.4859038471
30
0.0000000000
10
80.4274315680
20
96.5063044401
30
0.0000000000
10
80.4327729621
20
96.5063044401
30
0.0000000000
11
80.4327702103
21
96.4708441347
31
0.0000000000
11
80.4326522366
21
96.4902807126
31
0.0000000000
11
80.4327729621
21
96.5063044401
31
0.0000000000
0
SPLINE
5
555
100
AcDbEntity
8
0
100
AcDbSpline
6
CONTINUOUS
70
0
71
3
72
9
73
5
74
3
42
0.0000001000
43
0.0000001000
44
0.0000000001
40
0.0000000000
40
0.0000000000
40
0.0000000000
40
0.0000000000
40
0.4963306817
40
1.0000000000
40
1.0000000000
40
1.0000000000
40
1.0000000000
10
80.4327702103
20
96.4708441347
30
0.0000000000
10
80.4275824593
20
96.4708487572
30
0.0000000000
10
80.4171241673
20
96.4702575266
30
0.0000000000
10
80.4068170602
20
96.4680309688
30
0.0000000000
10
80.4018620405
20
96.4662526832
30
0.0000000000
11
80.4327702103
21
96.4708441347
31
0.0000000000
11
80.4172381604
21
96.4698590122
31
0.0000000000
11
80.4018620405
21
96.4662526832
31
0.0000000000
0
SPLINE
5
556
100
AcDbEntity
8
0
100
AcDbSpline
6
CONTINUOUS
70
0
71
3
72
8
73
4
74
2
42
0.0000001000
43
0.0000001000
44
0.0000000001
40
0.0000000000
40
0.0000000000
40
0.0000000000
40
0.0000000000
40
1.0000000000
40
1.0000000000
40
1.0000000000
40
1.0000000000
10
80.4018669770
20
96.4662646592
30
0.0000000000
10
80.3834043900
20
96.4605506359
30
0.0000000000
10
80.3654518382
20
96.4530208276
30
0.0000000000
10
80.3482317761
20
96.4439914258
30
0.0000000000
11
80.4018669770
21
96.4662646592
31
0.0000000000
11
80.3482317761
21
96.4439914258
31
0.0000000000
0
SPLINE
5
557
100
AcDbEntity
8
0
100
AcDbSpline
6
CONTINUOUS
70
0
71
3
72
8
73
4
74
2
42
0.0000001000
43
0.0000001000
44
0.0000000001
40
0.0000000000
40
0.0000000000
40
0.0000000000
40
0.0000000000
40
1.0000000000
40
1.0000000000
40
1.0000000000
40
1.0000000000
10
80.3482317761
20
96.4439914258
30
0.0000000000
10
80.3303884959
20
96.4346352373
30
0.0000000000
10
80.3133316846
20
96.4236689463
30
0.0000000000
10
80.2973088343
20
96.4114443321
30
0.0000000000
11
80.3482317761
21
96.4439914258
31
0.0000000000
11
80.2973088343
21
96.4114443321
31
0.0000000000
0
SPLINE
5
558
100
AcDbEntity
8
0
100
AcDbSpline
6
CONTINUOUS
70
0
71
3
72
8
73
4
74
2
42
0.0000001000
43
0.0000001000
44
0.0000000001
40
0.0000000000
40
0.0000000000
40
0.0000000000
40
0.0000000000
40
1.0000000000
40
1.0000000000
40
1.0000000000
40
1.0000000000
10
80.2973088343
20
96.4114443321
30
0.0000000000
10
80.2808754704
20
96.3989065169
30
0.0000000000
10
80.2655297275
20
96.3850450748
30
0.0000000000
10
80.2514097169
20
96.3700295073
30
0.0000000000
11
80.2973088343
21
96.4114443321
31
0.0000000000
11
80.2514097169
21
96.3700295073
31
0.0000000000
0
SPLINE
5
559
100
AcDbEntity
8
0
100
AcDbSpline
6
CONTINUOUS
70
0
71
3
72
9
73
5
74
3
42
0.0000001000
43
0.0000001000
44
0.0000000001
40
0.0000000000
40
0.0000000000
40
0.0000000000
40
0.0000000000
40
0.3383821343
40
1.0000000000
40
1.0000000000
40
1.0000000000
40
1.0000000000
10
80.2514097169
20
96.3700295073
30
0.0000000000
10
80.2373150150
20
96.3550408536
30
0.0000000000
10
80.1992711636
20
96.3073473032
30
0.0000000000
10
80.1730935397
20
96.2510827597
30
0.0000000000
10
80.1634382868
20
96.2121759880
30
0.0000000000
11
80.2514097169
21
96.3700295073
31
0.0000000000
11
80.2129270081
21
96.3217821630
31
0.0000000000
11
80.1634382868
21
96.2121759880
31
0.0000000000
0
SPLINE
5
55A
100
AcDbEntity
8
0
100
AcDbSpline
6
CONTINUOUS
70
0
71
3
72
10
73
6
74
4
42
0.0000001000
43
0.0000001000
44
0.0000000001
40
0.0000000000
40
0.0000000000
40
0.0000000000
40
0.0000000000
40
0.4471675061
40
0.8304897987
40
1.0000000000
40
1.0000000000
40
1.0000000000
40
1.0000000000
10
80.4018669770
20
96.4662646592
30
0.0000000000
10
80.3964335751
20
96.4713142616
30
0.0000000000
10
80.3857024477
20
96.4800641537
30
0.0000000000
10
80.3710557920
20
96.4880804921
30
0.0000000000
10
80.3622033214
20
96.4908075852
30
0.0000000000
10
80.3594476013
20
96.4914262585
30
0.0000000000
11
80.4018669770
21
96.4662646592
31
0.0000000000
11
80.3844620925
21
96.4801301943
31
0.0000000000
11
80.3675610200
21
96.4889749551
31
0.0000000000
11
80.3594476013
21
96.4914262585
31
0.0000000000
0
SPLINE
5
55B
100
AcDbEntity
8
0
100
AcDbSpline
6
CONTINUOUS
70
0
71
3
72
8
73
4
74
2
42
0.0000001000
43
0.0000001000
44
0.0000000001
40
0.0000000000
40
0.0000000000
40
0.0000000000
40
0.0000000000
40
1.0000000000
40
1.0000000000
40
1.0000000000
40
1.0000000000
10
80.3594476013
20
96.4914262585
30
0.0000000000
10
80.3568729158
20
96.4920042885
30
0.0000000000
10
80.3542621222
20
96.4923924468
30
0.0000000000
10
80.3516394013
20
96.4925440406
30
0.0000000000
11
80.3594476013
21
96.4914262585
31
0.0000000000
11
80.3516394013
21
96.4925440406
31
0.0000000000
0
SPLINE
5
55C
100
AcDbEntity
8
0
100
AcDbSpline
6
CONTINUOUS
70
0
71
3
72
8
73
4
74
2
42
0.0000001000
43
0.0000001000
44
0.0000000001
40
0.0000000000
40
0.0000000000
40
0.0000000000
40
0.0000000000
40
1.0000000000
40
1.0000000000
40
1.0000000000
40
1.0000000000
10
80.3516422208
20
96.4925335603
30
0.0000000000
10
80.3344760632
20
96.4862224785
30
0.0000000000
10
80.3180114409
20
96.4778135905
30
0.0000000000
10
80.3025413936
20
96.4677503840
30
0.0000000000
11
80.3516422208
21
96.4925335603
31
0.0000000000
11
80.3025413936
21
96.4677503840
31
0.0000000000
0
SPLINE
5
55D
100
AcDbEntity
8
0
100
AcDbSpline
6
CONTINUOUS
70
0
71
3
72
9
73
5
74
3
42
0.0000001000
43
0.0000001000
44
0.0000000001
40
0.0000000000
40
0.0000000000
40
0.0000000000
40
0.0000000000
40
0.4896246713
40
1.0000000000
40
1.0000000000
40
1.0000000000
40
1.0000000000
10
80.3025413936
20
96.4677503840
30
0.0000000000
10
80.2865902155
20
96.4573742036
30
0.0000000000
10
80.2561714523
20
96.4325899126
30
0.0000000000
10
80.2315034417
20
96.4024969758
30
0.0000000000
10
80.2204712831
20
96.3860959599
30
0.0000000000
11
80.3025413936
21
96.4677503840
31
0.0000000000
11
80.2581813029
21
96.4318315490
31
0.0000000000
11
80.2204712831
21
96.3860959599
31
0.0000000000
0
SPLINE
5
55E
100
AcDbEntity
8
0
100
AcDbSpline
6
CONTINUOUS
70
0
71
3
72
9
73
5
74
3
42
0.0000001000
43
0.0000001000
44
0.0000000001
40
0.0000000000
40
0.0000000000
40
0.0000000000
40
0.0000000000
40
0.3294648347
40
1.0000000000
40
1.0000000000
40
1.0000000000
40
1.0000000000
10
80.2204712831
20
96.3860959599
30
0.0000000000
10
80.2091163902
20
96.3692151492
30
0.0000000000
10
80.1796606472
20
96.3146265912
30
0.0000000000
10
80.1660089056
20
96.2532856954
30
0.0000000000
10
80.1634478672
20
96.2121874401
30
0.0000000000
11
80.2204712831
21
96.3860959599
31
0.0000000000
11
80.1914226054
21
96.3325121822
31
0.0000000000
11
80.1634478672
21
96.2121874401
31
0.0000000000
0
SPLINE
5
55F
100
AcDbEntity
8
0
100
AcDbSpline
6
CONTINUOUS
70
0
71
3
72
10
73
6
74
4
42
0.0000001000
43
0.0000001000
44
0.0000000001
40
0.0000000000
40
0.0000000000
40
0.0000000000
40
0.0000000000
40
0.4120812006
40
0.8112781999
40
1.0000000000
40
1.0000000000
40
1.0000000000
40
1.0000000000
10
198.6922641967
20
96.2121874401
30
0.0000000000
10
198.6897069777
20
96.2532864641
30
0.0000000000
10
198.6716813873
20
96.3342643640
30
0.0000000000
10
198.6155179377
20
96.4195728121
30
0.0000000000
10
198.5691187340
20
96.4573770763
30
0.0000000000
10
198.5531671349
20
96.4677531806
30
0.0000000000
11
198.6922641967
21
96.2121874401
31
0.0000000000
11
198.6642900568
21
96.3325139532
31
0.0000000000
11
198.5975283504
21
96.4318341833
31
0.0000000000
11
198.5531671349
21
96.4677531806
31
0.0000000000
0
SPLINE
5
560
100
AcDbEntity
8
0
100
AcDbSpline
6
CONTINUOUS
70
0
71
3
72
8
73
4
74
2
42
0.0000001000
43
0.0000001000
44
0.0000000001
40
0.0000000000
40
0.0000000000
40
0.0000000000
40
0.0000000000
40
1.0000000000
40
1.0000000000
40
1.0000000000
40
1.0000000000
10
198.5531671349
20
96.4677531806
30
0.0000000000
10
198.5376966747
20
96.4778163165
30
0.0000000000
10
198.5212315785
20
96.4862249109
30
0.0000000000
10
198.5040648369
20
96.4925351867
30
0.0000000000
11
198.5531671349
21
96.4677531806
31
0.0000000000
11
198.5040648369
21
96.4925351867
31
0.0000000000
0
SPLINE
5
561
100
AcDbEntity
8
0
100
AcDbSpline
6
CONTINUOUS
70
0
71
3
72
10
73
6
74
4
42
0.0000001000
43
0.0000001000
44
0.0000000001
40
0.0000000000
40
0.0000000000
40
0.0000000000
40
0.0000000000
40
0.3962292620
40
0.8020050519
40
1.0000000000
40
1.0000000000
40
1.0000000000
40
1.0000000000
10
198.6922726109
20
96.2121847918
30
0.0000000000
10
198.6826212735
20
96.2510844897
30
0.0000000000
10
198.6475705281
20
96.3264175971
30
0.0000000000
10
198.5773437299
20
96.4011906843
30
0.0000000000
10
198.5253266040
20
96.4346339964
30
0.0000000000
10
198.5074820326
20
96.4439907878
30
0.0000000000
11
198.6922726109
21
96.2121847918
31
0.0000000000
11
198.6427957205
21
96.3217706055
31
0.0000000000
11
198.5584085105
21
96.4114413518
31
0.0000000000
11
198.5074820326
21
96.4439907878
31
0.0000000000
0
SPLINE
5
562
100
AcDbEntity
8
0
100
AcDbSpline
6
CONTINUOUS
70
0
71
3
72
8
73
4
74
2
42
0.0000001000
43
0.0000001000
44
0.0000000001
40
0.0000000000
40
0.0000000000
40
0.0000000000
40
0.0000000000
40
1.0000000000
40
1.0000000000
40
1.0000000000
40
1.0000000000
10
198.5074820326
20
96.4439907878
30
0.0000000000
10
198.4902607493
20
96.4530207584
30
0.0000000000
10
198.4723068935
20
96.4605509589
30
0.0000000000
10
198.4538429766
20
96.4662651551
30
0.0000000000
11
198.5074820326
21
96.4439907878
31
0.0000000000
11
198.4538429766
21
96.4662651551
31
0.0000000000
0
SPLINE
5
563
100
AcDbEntity
8
0
100
AcDbSpline
6
CONTINUOUS
70
0
71
3
72
10
73
6
74
4
42
0.0000001000
43
0.0000001000
44
0.0000000001
40
0.0000000000
40
0.0000000000
40
0.0000000000
40
0.0000000000
40
0.4485088474
40
0.8310878651
40
1.0000000000
40
1.0000000000
40
1.0000000000
40
1.0000000000
10
198.4538429749
20
96.4662543362
30
0.0000000000
10
198.4592258024
20
96.4712668046
30
0.0000000000
10
198.4698640931
20
96.4799078680
30
0.0000000000
10
198.4844563076
20
96.4876591266
30
0.0000000000
10
198.4932669073
20
96.4901163892
30
0.0000000000
10
198.4960011557
20
96.4906404734
30
0.0000000000
11
198.4538429749
21
96.4662543362
31
0.0000000000
11
198.4711417129
21
96.4799529020
31
0.0000000000
11
198.4879414286
21
96.4884406590
31
0.0000000000
11
198.4960011557
21
96.4906404734
31
0.0000000000
0
SPLINE
5
564
100
AcDbEntity
8
0
100
AcDbSpline
6
CONTINUOUS
70
0
71
3
72
8
73
4
74
2
42
0.0000001000
43
0.0000001000
44
0.0000000001
40
0.0000000000
40
0.0000000000
40
0.0000000000
40
0.0000000000
40
1.0000000000
40
1.0000000000
40
1.0000000000
40
1.0000000000
10
198.4960011557
20
96.4906404734
30
0.0000000000
10
198.4985629393
20
96.4911315006
30
0.0000000000
10
198.5011560746
20
96.4914219158
30
0.0000000000
10
198.5037510579
20
96.4914639870
30
0.0000000000
11
198.4960011557
21
96.4906404734
31
0.0000000000
11
198.5037510579
21
96.4914639870
31
0.0000000000
0
SPLINE
5
565
100
AcDbEntity
8
0
100
AcDbSpline
6
CONTINUOUS
70
0
71
3
72
9
73
5
74
3
42
0.0000001000
43
0.0000001000
44
0.0000000001
40
0.0000000000
40
0.0000000000
40
0.0000000000
40
0.0000000000
40
0.5279950711
40
1.0000000000
40
1.0000000000
40
1.0000000000
40
1.0000000000
10
198.5040648369
20
96.4925351867
30
0.0000000000
10
198.4904894724
20
96.4977297990
30
0.0000000000
10
198.4634557810
20
96.5040841688
30
0.0000000000
10
198.4359351880
20
96.5063187676
30
0.0000000000
10
198.4229412748
20
96.5063044401
30
0.0000000000
11
198.5040648369
21
96.4925351867
31
0.0000000000
11
198.4618064230
21
96.5032914461
31
0.0000000000
11
198.4229412748
21
96.5063044401
31
0.0000000000
0
SPLINE
5
566
100
AcDbEntity
8
0
100
AcDbSpline
6
CONTINUOUS
70
0
71
3
72
9
73
5
74
3
42
0.0000001000
43
0.0000001000
44
0.0000000001
40
0.0000000000
40
0.0000000000
40
0.0000000000
40
0.0000000000
40
0.5036686672
40
1.0000000000
40
1.0000000000
40
1.0000000000
40
1.0000000000
10
198.4538479164
20
96.4662532246
30
0.0000000000
10
198.4488931165
20
96.4680313011
30
0.0000000000
10
198.4385865185
20
96.4702575775
30
0.0000000000
10
198.4281287659
20
96.4708487749
30
0.0000000000
10
198.4229412748
20
96.4708441347
30
0.0000000000
11
198.4538479164
21
96.4662532246
31
0.0000000000
11
198.4384725504
21
96.4698591221
31
0.0000000000
11
198.4229412748
21
96.4708441347
31
0.0000000000
0
SPLINE
5
567
100
AcDbEntity
8
0
100
AcDbSpline
62
7
6
CONTINUOUS
70
0
71
3
72
9
73
5
74
3
42
0.0000001000
43
0.0000001000
44
0.0000000001
40
0.0000000000
40
0.0000000000
40
0.0000000000
40
0.0000000000
40
0.5475820434
40
1.0000000000
40
1.0000000000
40
1.0000000000
40
1.0000000000
10
193.5475062000
20
96.4708441347
30
0.0000000000
10
193.5474255001
20
96.4773191537
30
0.0000000000
10
193.5442827441
20
96.4859130770
30
0.0000000000
10
193.5518748698
20
96.5063044401
30
0.0000000000
10
193.5465247265
20
96.5063044401
30
0.0000000000
11
193.5475062000
21
96.4708441347
31
0.0000000000
11
193.5472024790
21
96.4902683261
31
0.0000000000
11
193.5465247265
21
96.5063044401
31
0.0000000000
0
SPLINE
5
568
100
AcDbEntity
8
0
100
AcDbSpline
62
7
6
CONTINUOUS
70
0
71
3
72
11
73
7
74
5
42
0.0000001000
43
0.0000001000
44
0.0000000001
40
0.0000000000
40
0.0000000000
40
0.0000000000
40
0.0000000000
40
0.1996169529
40
0.4428885321
40
0.7100588451
40
1.0000000000
40
1.0000000000
40
1.0000000000
40
1.0000000000
10
82.9443507451
20
107.2433003633
30
0.0000000000
10
82.9483133931
20
107.2361492226
30
0.0000000000
10
82.9650532878
20
107.2256712713
30
0.0000000000
10
82.9932859192
20
107.2196926722
30
0.0000000000
10
83.0260682893
20
107.2166003745
30
0.0000000000
10
83.0488704842
20
107.2161812482
30
0.0000000000
10
83.0607455271
20
107.2161812482
30
0.0000000000
11
82.9443507451
21
107.2433003633
31
0.0000000000
11
82.9635799626
21
107.2280750645
31
0.0000000000
11
82.9924745072
21
107.2204221624
31
0.0000000000
11
83.0251319138
21
107.2170869733
31
0.0000000000
11
83.0607455271
21
107.2161812482
31
0.0000000000
0
SPLINE
5
569
100
AcDbEntity
8
0
100
AcDbSpline
6
CONTINUOUS
70
0
71
3
72
9
73
5
74
3
42
0.0000001000
43
0.0000001000
44
0.0000000001
40
0.0000000000
40
0.0000000000
40
0.0000000000
40
0.0000000000
40
0.5482266664
40
1.0000000000
40
1.0000000000
40
1.0000000000
40
1.0000000000
10
198.4229412748
20
105.7966463456
30
0.0000000000
10
198.4230382803
20
105.7901664249
30
0.0000000000
10
198.4201241345
20
105.7815854914
30
0.0000000000
10
198.4282782930
20
105.7611860401
30
0.0000000000
10
198.4229378316
20
105.7611860401
30
0.0000000000
11
198.4229412748
21
105.7966463456
31
0.0000000000
11
198.4231696617
21
105.7772057470
31
0.0000000000
11
198.4229378316
21
105.7611860401
31
0.0000000000
0
SPLINE
5
56A
100
AcDbEntity
8
0
100
AcDbSpline
6
CONTINUOUS
70
0
71
3
72
9
73
5
74
3
42
0.0000001000
43
0.0000001000
44
0.0000000001
40
0.0000000000
40
0.0000000000
40
0.0000000000
40
0.0000000000
40
0.5116821540
40
1.0000000000
40
1.0000000000
40
1.0000000000
40
1.0000000000
10
198.4229412748
20
105.7611860401
30
0.0000000000
10
198.4370286781
20
105.7611818276
30
0.0000000000
10
198.4645615850
20
105.7635606730
30
0.0000000000
10
198.4915285847
20
105.7700988940
30
0.0000000000
10
198.5040649377
20
105.7749553306
30
0.0000000000
11
198.4229412748
21
105.7611860401
31
0.0000000000
11
198.4650567073
21
105.7647052551
31
0.0000000000
11
198.5040649377
21
105.7749553306
31
0.0000000000
0
SPLINE
5
56B
100
AcDbEntity
8
0
100
AcDbSpline
6
CONTINUOUS
70
0
71
3
72
9
73
5
74
3
42
0.0000001000
43
0.0000001000
44
0.0000000001
40
0.0000000000
40
0.0000000000
40
0.0000000000
40
0.0000000000
40
0.5420445665
40
1.0000000000
40
1.0000000000
40
1.0000000000
40
1.0000000000
10
198.4229412748
20
105.7966463456
30
0.0000000000
10
198.4286067330
20
105.7966385680
30
0.0000000000
10
198.4390740504
20
105.7972861941
30
0.0000000000
10
198.4493433918
20
105.7996153456
30
0.0000000000
10
198.4538468629
20
105.8012370488
30
0.0000000000
11
198.4229412748
21
105.7966463456
31
0.0000000000
11
198.4398960702
21
105.7978347053
31
0.0000000000
11
198.4538468629
21
105.8012370488
31
0.0000000000
0
SPLINE
5
56C
100
AcDbEntity
8
0
100
AcDbSpline
6
CONTINUOUS
70
0
71
3
72
8
73
4
74
2
42
0.0000001000
43
0.0000001000
44
0.0000000001
40
0.0000000000
40
0.0000000000
40
0.0000000000
40
0.0000000000
40
1.0000000000
40
1.0000000000
40
1.0000000000
40
1.0000000000
10
198.4538430115
20
105.8012242258
30
0.0000000000
10
198.4722862754
20
105.8069317472
30
0.0000000000
10
198.4902203894
20
105.8144514587
30
0.0000000000
10
198.5074237852
20
105.8234680291
30
0.0000000000
11
198.4538430115
21
105.8012242258
31
0.0000000000
11
198.5074237852
21
105.8234680291
31
0.0000000000
0
SPLINE
5
56D
100
AcDbEntity
8
0
100
AcDbSpline
6
CONTINUOUS
70
0
71
3
72
8
73
4
74
2
42
0.0000001000
43
0.0000001000
44
0.0000000001
40
0.0000000000
40
0.0000000000
40
0.0000000000
40
0.0000000000
40
1.0000000000
40
1.0000000000
40
1.0000000000
40
1.0000000000
10
198.5074237852
20
105.8234680291
30
0.0000000000
10
198.5252689749
20
105.8328209739
30
0.0000000000
10
198.5423279088
20
105.8437845451
30
0.0000000000
10
198.5583532846
20
105.8560067871
30
0.0000000000
11
198.5074237852
21
105.8234680291
31
0.0000000000
11
198.5583532846
21
105.8560067871
31
0.0000000000
0
SPLINE
5
56E
100
AcDbEntity
8
0
100
AcDbSpline
6
CONTINUOUS
70
0
71
3
72
8
73
4
74
2
42
0.0000001000
43
0.0000001000
44
0.0000000001
40
0.0000000000
40
0.0000000000
40
0.0000000000
40
0.0000000000
40
1.0000000000
40
1.0000000000
40
1.0000000000
40
1.0000000000
10
198.5583532846
20
105.8560067871
30
0.0000000000
10
198.5748175639
20
105.8685637723
30
0.0000000000
10
198.5901908955
20
105.8824493176
30
0.0000000000
10
198.6043341887
20
105.8974928077
30
0.0000000000
11
198.5583532846
21
105.8560067871
31
0.0000000000
11
198.6043341887
21
105.8974928077
31
0.0000000000
0
SPLINE
5
56F
100
AcDbEntity
8
0
100
AcDbSpline
6
CONTINUOUS
70
0
71
3
72
9
73
5
74
3
42
0.0000001000
43
0.0000001000
44
0.0000000001
40
0.0000000000
40
0.0000000000
40
0.0000000000
40
0.0000000000
40
0.3390033987
40
1.0000000000
40
1.0000000000
40
1.0000000000
40
1.0000000000
10
198.6043341887
20
105.8974928077
30
0.0000000000
10
198.6184493956
20
105.9125064239
30
0.0000000000
10
198.6564727577
20
105.9601961131
30
0.0000000000
10
198.6826323671
20
106.0164458580
30
0.0000000000
10
198.6922726682
20
106.0553057549
30
0.0000000000
11
198.6043341887
21
105.8974928077
31
0.0000000000
11
198.6428660719
21
105.9458241072
31
0.0000000000
11
198.6922726682
21
106.0553057549
31
0.0000000000
0
SPLINE
5
570
100
AcDbEntity
8
0
100
AcDbSpline
6
CONTINUOUS
70
0
71
3
72
10
73
6
74
4
42
0.0000001000
43
0.0000001000
44
0.0000000001
40
0.0000000000
40
0.0000000000
40
0.0000000000
40
0.0000000000
40
0.4471708623
40
0.8304944631
40
1.0000000000
40
1.0000000000
40
1.0000000000
40
1.0000000000
10
198.4538430115
20
105.8012242258
30
0.0000000000
10
198.4592761563
20
105.7961744683
30
0.0000000000
10
198.4700067636
20
105.7874242621
30
0.0000000000
10
198.4846526895
20
105.7794071928
30
0.0000000000
10
198.4935048719
20
105.7766799124
30
0.0000000000
10
198.4962604522
20
105.7760612027
30
0.0000000000
11
198.4538430115
21
105.8012242258
31
0.0000000000
11
198.4712470971
21
105.7873580862
31
0.0000000000
11
198.4881474789
21
105.7785126325
31
0.0000000000
11
198.4962604522
21
105.7760612027
31
0.0000000000
0
SPLINE
5
571
100
AcDbEntity
8
0
100
AcDbSpline
6
CONTINUOUS
70
0
71
3
72
8
73
4
74
2
42
0.0000001000
43
0.0000001000
44
0.0000000001
40
0.0000000000
40
0.0000000000
40
0.0000000000
40
0.0000000000
40
1.0000000000
40
1.0000000000
40
1.0000000000
40
1.0000000000
10
198.4962604522
20
105.7760612027
30
0.0000000000
10
198.4988349723
20
105.7754831463
30
0.0000000000
10
198.5014456054
20
105.7750949592
30
0.0000000000
10
198.5040681669
20
105.7749433257
30
0.0000000000
11
198.4962604522
21
105.7760612027
31
0.0000000000
11
198.5040681669
21
105.7749433257
31
0.0000000000
0
SPLINE
5
572
100
AcDbEntity
8
0
100
AcDbSpline
6
CONTINUOUS
70
0
71
3
72
8
73
4
74
2
42
0.0000001000
43
0.0000001000
44
0.0000000001
40
0.0000000000
40
0.0000000000
40
0.0000000000
40
0.0000000000
40
1.0000000000
40
1.0000000000
40
1.0000000000
40
1.0000000000
10
198.5040649377
20
105.7749553306
30
0.0000000000
10
198.5212122338
20
105.7812588869
30
0.0000000000
10
198.5376594441
20
105.7896556109
30
0.0000000000
10
198.5531146208
20
105.7997035322
30
0.0000000000
11
198.5040649377
21
105.7749553306
31
0.0000000000
11
198.5531146208
21
105.7997035322
31
0.0000000000
0
SPLINE
5
573
100
AcDbEntity
8
0
100
AcDbSpline
6
CONTINUOUS
70
0
71
3
72
9
73
5
74
3
42
0.0000001000
43
0.0000001000
44
0.0000000001
40
0.0000000000
40
0.0000000000
40
0.0000000000
40
0.0000000000
40
0.4892092396
40
1.0000000000
40
1.0000000000
40
1.0000000000
40
1.0000000000
10
198.5531146208
20
105.7997035322
30
0.0000000000
10
198.5690675868
20
105.8100750828
30
0.0000000000
10
198.5995167240
20
105.8348718883
30
0.0000000000
10
198.6242078383
20
105.8649886807
30
0.0000000000
10
198.6352569632
20
105.8814176585
30
0.0000000000
11
198.5531146208
21
105.7997035322
31
0.0000000000
11
198.5974815426
21
105.8356099450
31
0.0000000000
11
198.6352569632
21
105.8814176585
31
0.0000000000
0
SPLINE
5
574
100
AcDbEntity
8
0
100
AcDbSpline
6
CONTINUOUS
70
0
71
3
72
9
73
5
74
3
42
0.0000001000
43
0.0000001000
44
0.0000000001
40
0.0000000000
40
0.0000000000
40
0.0000000000
40
0.0000000000
40
0.3300211615
40
1.0000000000
40
1.0000000000
40
1.0000000000
40
1.0000000000
10
198.6352569632
20
105.8814176585
30
0.0000000000
10
198.6466283080
20
105.8983257461
30
0.0000000000
10
198.6760688236
20
105.9529148507
30
0.0000000000
10
198.6897045306
20
106.0142451263
30
0.0000000000
10
198.6922642062
20
106.0553030401
30
0.0000000000
11
198.6352569632
21
105.8814176585
31
0.0000000000
11
198.6643389299
21
105.9350910732
31
0.0000000000
11
198.6922642062
21
106.0553030401
31
0.0000000000
0
SPLINE
5
575
100
AcDbEntity
8
0
100
AcDbSpline
62
7
6
CONTINUOUS
70
0
71
3
72
11
73
7
74
5
42
0.0000001000
43
0.0000001000
44
0.0000000001
40
0.0000000000
40
0.0000000000
40
0.0000000000
40
0.0000000000
40
0.1995537153
40
0.4428446546
40
0.7100360630
40
1.0000000000
40
1.0000000000
40
1.0000000000
40
1.0000000000
10
82.9443599923
20
95.0241958840
30
0.0000000000
10
82.9483206101
20
95.0313443866
30
0.0000000000
10
82.9650572848
20
95.0418207791
30
0.0000000000
10
82.9932867924
20
95.0477976579
30
0.0000000000
10
83.0260688809
20
95.0508901834
30
0.0000000000
10
83.0488709290
20
95.0513092320
30
0.0000000000
10
83.0607458856
20
95.0513092320
30
0.0000000000
11
82.9443599923
21
95.0241958840
31
0.0000000000
11
82.9635809337
21
95.0394157281
31
0.0000000000
11
82.9924753434
21
95.0470684096
31
0.0000000000
11
83.0251325307
21
95.0504035242
31
0.0000000000
11
83.0607458856
21
95.0513092320
31
0.0000000000
0
SPLINE
5
576
100
AcDbEntity
8
0
100
AcDbSpline
62
7
6
CONTINUOUS
70
0
71
3
72
11
73
7
74
5
42
0.0000001000
43
0.0000001000
44
0.0000000001
40
0.0000000000
40
0.0000000000
40
0.0000000000
40
0.0000000000
40
0.1997113724
40
0.4429568478
40
0.7100957767
40
1.0000000000
40
1.0000000000
40
1.0000000000
40
1.0000000000
10
195.9113903151
20
95.0241916761
30
0.0000000000
10
195.9074216739
20
95.0313439776
30
0.0000000000
10
195.8906800469
20
95.0418211063
30
0.0000000000
10
195.8624445618
20
95.0477990612
30
0.0000000000
10
195.8296661062
20
95.0508902223
30
0.0000000000
10
195.8068664838
20
95.0513092320
30
0.0000000000
10
195.7949928745
20
95.0513092320
30
0.0000000000
11
195.9113903151
21
95.0241916761
31
0.0000000000
11
195.8921482448
21
95.0394196931
31
0.0000000000
11
195.8632560576
21
95.0470697456
31
0.0000000000
11
195.8306021937
21
95.0504038202
31
0.0000000000
11
195.7949928745
21
95.0513092320
31
0.0000000000
0
SPLINE
5
577
100
AcDbEntity
8
0
100
AcDbSpline
62
7
6
CONTINUOUS
70
0
71
3
72
11
73
7
74
5
42
0.0000001000
43
0.0000001000
44
0.0000000001
40
0.0000000000
40
0.0000000000
40
0.0000000000
40
0.0000000000
40
0.1995616105
40
0.4428528293
40
0.7100417090
40
1.0000000000
40
1.0000000000
40
1.0000000000
40
1.0000000000
10
195.9113711380
20
107.2432836276
30
0.0000000000
10
195.9074071470
20
107.2361376081
30
0.0000000000
10
195.8906709099
20
107.2256670091
30
0.0000000000
10
195.8624437635
20
107.2196914670
30
0.0000000000
10
195.8296654453
20
107.2166001999
30
0.0000000000
10
195.8068661231
20
107.2161812482
30
0.0000000000
10
195.7949926465
20
107.2161812482
30
0.0000000000
11
195.9113711380
21
107.2432836276
31
0.0000000000
11
195.8921470647
21
107.2280703314
31
0.0000000000
11
195.8632550900
21
107.2204206005
31
0.0000000000
11
195.8306015680
21
107.2170866347
31
0.0000000000
11
195.7949926465
21
107.2161812482
31
0.0000000000
0
SPLINE
5
578
100
AcDbEntity
8
0
100
AcDbSpline
6
CONTINUOUS
70
0
71
3
72
12
73
8
74
6
42
0.0000001000
43
0.0000001000
44
0.0000000001
40
0.0000000000
40
0.0000000000
40
0.0000000000
40
0.0000000000
40
0.2037771991
40
0.4068806783
40
0.6081836997
40
0.8061563594
40
1.0000000000
40
1.0000000000
40
1.0000000000
40
1.0000000000
10
195.7950261315
20
95.0513092320
30
0.0000000000
10
195.9989737737
20
95.0922113623
30
0.0000000000
10
196.4024088720
20
95.1945184860
30
0.0000000000
10
196.9855007617
20
95.4112238550
30
0.0000000000
10
197.5339125408
20
95.6929848023
30
0.0000000000
10
198.0323811340
20
96.0399258038
30
0.0000000000
10
198.3234875380
20
96.3173966970
30
0.0000000000
10
198.4538479164
20
96.4662532246
30
0.0000000000
11
195.7950261315
21
95.0513092320
31
0.0000000000
11
196.3997305624
21
95.2053909518
31
0.0000000000
11
196.9822967421
21
95.4232317975
31
0.0000000000
11
197.5298410871
21
95.7064369306
31
0.0000000000
11
198.0261031485
21
96.0546669514
31
0.0000000000
11
198.4538479164
21
96.4662532246
31
0.0000000000
0
SPLINE
5
579
100
AcDbEntity
8
0
100
AcDbSpline
62
7
6
CONTINUOUS
70
0
71
3
72
10
73
6
74
4
42
0.0000001000
43
0.0000001000
44
0.0000000001
40
0.0000000000
40
0.0000000000
40
0.0000000000
40
0.0000000000
40
0.3079910113
40
0.6475666201
40
1.0000000000
40
1.0000000000
40
1.0000000000
40
1.0000000000
10
195.9113863775
20
95.0241948932
30
0.0000000000
10
195.9216785957
20
95.0056426204
30
0.0000000000
10
195.9411634527
20
94.9654260499
30
0.0000000000
10
195.9660536582
20
94.9011452156
30
0.0000000000
10
195.9803610214
20
94.8556250168
30
0.0000000000
10
195.9867468486
20
94.8322025590
30
0.0000000000
11
195.9113863775
21
95.0241948932
31
0.0000000000
11
195.9394514991
21
94.9670687329
31
0.0000000000
11
195.9650312515
21
94.9017219500
31
0.0000000000
11
195.9867468486
21
94.8322025590
31
0.0000000000
0
SPLINE
5
57A
100
AcDbEntity
8
0
100
AcDbSpline
6
CONTINUOUS
70
0
71
3
72
12
73
8
74
6
42
0.0000001000
43
0.0000001000
44
0.0000000001
40
0.0000000000
40
0.0000000000
40
0.0000000000
40
0.0000000000
40
0.2057029963
40
0.4101642564
40
0.6117942963
40
0.8088939186
40
1.0000000000
40
1.0000000000
40
1.0000000000
40
1.0000000000
10
195.9869652368
20
94.8322913941
30
0.0000000000
10
196.1939191566
20
94.8748073195
30
0.0000000000
10
196.6029730949
20
94.9786332222
30
0.0000000000
10
197.1947285851
20
95.1931938373
30
0.0000000000
10
197.7516743401
20
95.4678753756
30
0.0000000000
10
198.2587151609
20
95.8024641057
30
0.0000000000
10
198.5576862323
20
96.0692918098
30
0.0000000000
10
198.6922525024
20
96.2121874401
30
0.0000000000
11
195.9869652368
21
94.8322913941
31
0.0000000000
11
196.6011117197
21
94.9890136242
31
0.0000000000
11
197.1929464789
21
95.2049622233
31
0.0000000000
11
197.7493623433
21
95.4813454452
31
0.0000000000
11
198.2549115237
21
95.8178803918
31
0.0000000000
11
198.6922525024
21
96.2121874401
31
0.0000000000
0
SPLINE
5
57B
100
AcDbEntity
8
0
100
AcDbSpline
6
CONTINUOUS
70
0
71
3
72
10
73
6
74
4
42
0.0000001000
43
0.0000001000
44
0.0000000001
40
0.0000000000
40
0.0000000000
40
0.0000000000
40
0.0000000000
40
0.3279780878
40
0.6729843740
40
1.0000000000
40
1.0000000000
40
1.0000000000
40
1.0000000000
10
194.5255051778
20
94.2438403584
30
0.0000000000
10
194.6842298053
20
94.3107708349
30
0.0000000000
10
195.0098194033
20
94.4483494766
30
0.0000000000
10
195.4957193273
20
94.6477656533
30
0.0000000000
10
195.8253694847
20
94.7741010968
30
0.0000000000
10
195.9869652368
20
94.8322913941
30
0.0000000000
11
194.5255051778
21
94.2438403584
31
0.0000000000
11
195.0019168759
21
94.4440668767
31
0.0000000000
11
195.5052819287
21
94.6493300024
31
0.0000000000
11
195.9869652368
21
94.8322913941
31
0.0000000000
0
SPLINE
5
57C
100
AcDbEntity
8
0
100
AcDbSpline
6
CONTINUOUS
70
0
71
3
72
10
73
6
74
4
42
0.0000001000
43
0.0000001000
44
0.0000000001
40
0.0000000000
40
0.0000000000
40
0.0000000000
40
0.0000000000
40
0.3299143014
40
0.6755499148
40
1.0000000000
40
1.0000000000
40
1.0000000000
40
1.0000000000
10
194.5253762417
20
94.2437489755
30
0.0000000000
10
194.6760451452
20
94.3326743784
30
0.0000000000
10
194.9843724639
20
94.5150909839
30
0.0000000000
10
195.4442730682
20
94.7791604773
30
0.0000000000
10
195.7576384807
20
94.9469667077
30
0.0000000000
10
195.9113903151
20
95.0241916761
30
0.0000000000
11
194.5253762417
21
94.2437489755
31
0.0000000000
11
194.9777596094
21
94.5098859710
31
0.0000000000
11
195.4553978367
21
94.7823223715
31
0.0000000000
11
195.9113903151
21
95.0241916761
31
0.0000000000
0
SPLINE
5
57D
100
AcDbEntity
8
0
100
AcDbSpline
62
7
6
CONTINUOUS
70
0
71
3
72
8
73
4
74
2
42
0.0000001000
43
0.0000001000
44
0.0000000001
40
0.0000000000
40
0.0000000000
40
0.0000000000
40
0.0000000000
40
1.0000000000
40
1.0000000000
40
1.0000000000
40
1.0000000000
10
199.0449596517
20
106.0553030401
30
0.0000000000
10
199.0447114098
20
106.0175322390
30
0.0000000000
10
199.0378178828
20
105.9795099319
30
0.0000000000
10
199.0244468815
20
105.9438603122
30
0.0000000000
11
199.0449596517
21
106.0553030401
31
0.0000000000
11
199.0244468815
21
105.9438603122
31
0.0000000000
0
SPLINE
5
57E
100
AcDbEntity
8
0
100
AcDbSpline
62
7
6
CONTINUOUS
70
0
71
3
72
10
73
6
74
4
42
0.0000001000
43
0.0000001000
44
0.0000000001
40
0.0000000000
40
0.0000000000
40
0.0000000000
40
0.0000000000
40
0.3584046148
40
0.6895258017
40
1.0000000000
40
1.0000000000
40
1.0000000000
40
1.0000000000
10
199.0244468815
20
105.9438603122
30
0.0000000000
10
199.0105784113
20
105.9068843465
30
0.0000000000
10
198.9704908126
20
105.8406579352
30
0.0000000000
10
198.8785420814
20
105.7761588816
30
0.0000000000
10
198.8077461748
20
105.7611860401
30
0.0000000000
10
198.7738084971
20
105.7611860401
30
0.0000000000
11
199.0244468815
21
105.9438603122
31
0.0000000000
11
198.9626058922
21
105.8439144979
31
0.0000000000
11
198.8735001565
21
105.7818613085
31
0.0000000000
11
198.7738084971
21
105.7611860401
31
0.0000000000
0
SPLINE
5
57F
100
AcDbEntity
8
0
100
AcDbSpline
6
CONTINUOUS
70
0
71
3
72
11
73
7
74
5
42
0.0000001000
43
0.0000001000
44
0.0000000001
40
0.0000000000
40
0.0000000000
40
0.0000000000
40
0.0000000000
40
0.2402431566
40
0.4888703227
40
0.7431264974
40
1.0000000000
40
1.0000000000
40
1.0000000000
40
1.0000000000
10
198.6923432075
20
106.0553030401
30
0.0000000000
10
198.5232510301
20
106.2348667613
30
0.0000000000
10
198.1385857670
20
106.5631526666
30
0.0000000000
10
197.4787101922
20
106.9518431361
30
0.0000000000
10
196.7540910287
20
107.2468738080
30
0.0000000000
10
196.2455415654
20
107.3820643125
30
0.0000000000
10
195.9872146605
20
107.4351342338
30
0.0000000000
11
198.6923432075
21
106.0553030401
31
0.0000000000
11
198.1332434913
21
106.5399938253
31
0.0000000000
11
197.4756228608
21
106.9323382166
31
0.0000000000
11
196.7513763858
21
107.2301959147
31
0.0000000000
11
195.9872146605
21
107.4351342338
31
0.0000000000
0
SPLINE
5
580
100
AcDbEntity
8
0
100
AcDbSpline
62
7
6
CONTINUOUS
70
0
71
3
72
10
73
6
74
4
42
0.0000001000
43
0.0000001000
44
0.0000000001
40
0.0000000000
40
0.0000000000
40
0.0000000000
40
0.0000000000
40
0.3079919070
40
0.6475688143
40
1.0000000000
40
1.0000000000
40
1.0000000000
40
1.0000000000
10
195.9113853051
20
107.2432948040
30
0.0000000000
10
195.9216798885
20
107.2618460860
30
0.0000000000
10
195.9411626374
20
107.3020641447
30
0.0000000000
10
195.9660702730
20
107.3663393167
30
0.0000000000
10
195.9803610546
20
107.4118653549
30
0.0000000000
10
195.9867472720
20
107.4352878100
30
0.0000000000
11
195.9113853051
21
107.2432948040
31
0.0000000000
11
195.9394538210
21
107.3004202363
31
0.0000000000
11
195.9650408302
21
107.3657652457
31
0.0000000000
11
195.9867472720
21
107.4352878100
31
0.0000000000
0
SPLINE
5
581
100
AcDbEntity
8
0
100
AcDbSpline
6
CONTINUOUS
70
0
71
3
72
12
73
8
74
6
42
0.0000001000
43
0.0000001000
44
0.0000000001
40
0.0000000000
40
0.0000000000
40
0.0000000000
40
0.0000000000
40
0.1938406516
40
0.3918140140
40
0.5931177824
40
0.7962220135
40
1.0000000000
40
1.0000000000
40
1.0000000000
40
1.0000000000
10
198.4538468629
20
105.8012370488
30
0.0000000000
10
198.3234884999
20
105.9500912522
30
0.0000000000
10
198.0323851404
20
106.2275617544
30
0.0000000000
10
197.5339181222
20
106.5745023456
30
0.0000000000
10
196.9855047802
20
106.8562649306
30
0.0000000000
10
196.4024109129
20
107.0729715404
30
0.0000000000
10
195.9989743272
20
107.1752790273
30
0.0000000000
10
195.7950259105
20
107.2161812482
30
0.0000000000
11
198.4538468629
21
105.8012370488
31
0.0000000000
11
198.0261098333
21
106.2128180537
31
0.0000000000
11
197.5298467057
21
106.5610501667
31
0.0000000000
11
196.9823007076
21
106.8442569116
31
0.0000000000
11
196.3997325991
21
107.0620989460
31
0.0000000000
11
195.7950259105
21
107.2161812482
31
0.0000000000
0
SPLINE
5
582
100
AcDbEntity
8
0
100
AcDbSpline
6
CONTINUOUS
70
0
71
3
72
8
73
4
74
2
42
0.0000001000
43
0.0000001000
44
0.0000000001
40
0.0000000000
40
0.0000000000
40
0.0000000000
40
0.0000000000
40
1.0000000000
40
1.0000000000
40
1.0000000000
40
1.0000000000
10
195.9113711380
20
107.2432836276
30
0.0000000000
10
195.8724136999
20
107.2628526371
30
0.0000000000
10
195.8335872080
20
107.2826829041
30
0.0000000000
10
195.7948778855
20
107.3027413950
30
0.0000000000
11
195.9113711380
21
107.2432836276
31
0.0000000000
11
195.7948778855
21
107.3027413950
31
0.0000000000
0
SPLINE
5
583
100
AcDbEntity
8
0
100
AcDbSpline
6
CONTINUOUS
70
0
71
3
72
8
73
4
74
2
42
0.0000001000
43
0.0000001000
44
0.0000000001
40
0.0000000000
40
0.0000000000
40
0.0000000000
40
0.0000000000
40
1.0000000000
40
1.0000000000
40
1.0000000000
40
1.0000000000
10
195.7948778855
20
107.3027413950
30
0.0000000000
10
195.7561804254
20
107.3227937390
30
0.0000000000
10
195.7176000630
20
107.3430741669
30
0.0000000000
10
195.6791230342
20
107.3635496757
30
0.0000000000
11
195.7948778855
21
107.3027413950
31
0.0000000000
11
195.6791230342
21
107.3635496757
31
0.0000000000
0
SPLINE
5
584
100
AcDbEntity
8
0
100
AcDbSpline
6
CONTINUOUS
70
0
71
3
72
9
73
5
74
3
42
0.0000001000
43
0.0000001000
44
0.0000000001
40
0.0000000000
40
0.0000000000
40
0.0000000000
40
0.0000000000
40
0.9608979905
40
1.0000000000
40
1.0000000000
40
1.0000000000
40
1.0000000000
10
195.9872146605
20
107.4351342338
30
0.0000000000
10
195.8633851576
20
107.4797296705
30
0.0000000000
10
195.7352336220
20
107.5281370871
30
0.0000000000
10
195.6076193921
20
107.5779039624
30
0.0000000000
10
195.6026302282
20
107.5798519922
30
0.0000000000
11
195.9872146605
21
107.4351342338
31
0.0000000000
11
195.6176001592
21
107.5740140713
31
0.0000000000
11
195.6026302282
21
107.5798519922
31
0.0000000000
0
SPLINE
5
585
100
AcDbEntity
8
0
100
AcDbSpline
62
7
6
CONTINUOUS
70
0
71
3
72
11
73
7
74
5
42
0.0000001000
43
0.0000001000
44
0.0000000001
40
0.0000000000
40
0.0000000000
40
0.0000000000
40
0.0000000000
40
0.2352850230
40
0.4850236668
40
0.7510491537
40
1.0000000000
40
1.0000000000
40
1.0000000000
40
1.0000000000
10
80.0819029881
20
105.7611860401
30
0.0000000000
10
80.0472981924
20
105.7611860401
30
0.0000000000
10
79.9752621408
20
105.7767311407
30
0.0000000000
10
79.8829812607
20
105.8429496633
30
0.0000000000
10
79.8244229157
20
105.9425091158
30
0.0000000000
10
79.8110228665
20
106.0186893321
30
0.0000000000
10
79.8107518335
20
106.0553030401
30
0.0000000000
11
80.0819029881
21
105.7611860401
31
0.0000000000
11
79.9803365708
21
105.7826730090
31
0.0000000000
11
79.8905805595
21
105.8465954327
31
0.0000000000
11
79.8300627907
21
105.9471696937
31
0.0000000000
11
79.8107518335
21
106.0553030401
31
0.0000000000
0
SPLINE
5
586
100
AcDbEntity
8
0
100
AcDbSpline
6
CONTINUOUS
70
0
71
3
72
12
73
8
74
6
42
0.0000001000
43
0.0000001000
44
0.0000000001
40
0.0000000000
40
0.0000000000
40
0.0000000000
40
0.0000000000
40
0.2037178119
40
0.4068209174
40
0.6081375194
40
0.8061734893
40
1.0000000000
40
1.0000000000
40
1.0000000000
40
1.0000000000
10
83.0604442369
20
107.2161812482
30
0.0000000000
10
82.8565718535
20
107.1752918750
30
0.0000000000
10
82.4532473961
20
107.0729272333
30
0.0000000000
10
81.8702338397
20
106.8562892866
30
0.0000000000
10
81.3218003202
20
106.5744985085
30
0.0000000000
10
80.8233123682
20
106.2275578331
30
0.0000000000
10
80.5321998065
20
105.9500691861
30
0.0000000000
10
80.4018591524
20
105.8012384556
30
0.0000000000
11
83.0604442369
21
107.2161812482
31
0.0000000000
11
82.4559756660
21
107.0621009032
31
0.0000000000
11
81.8734535598
21
106.8442793394
31
0.0000000000
11
81.3259141079
21
106.5610753915
31
0.0000000000
11
80.8295300382
21
106.2127613170
31
0.0000000000
11
80.4018591524
21
105.8012384556
31
0.0000000000
0
SPLINE
5
587
100
AcDbEntity
8
0
100
AcDbSpline
62
7
6
CONTINUOUS
70
0
71
3
72
10
73
6
74
4
42
0.0000001000
43
0.0000001000
44
0.0000000001
40
0.0000000000
40
0.0000000000
40
0.0000000000
40
0.0000000000
40
0.3079766801
40
0.6475224855
40
1.0000000000
40
1.0000000000
40
1.0000000000
40
1.0000000000
10
82.9443449636
20
107.2433049630
30
0.0000000000
10
82.9340619436
20
107.2618591472
30
0.0000000000
10
82.9145595507
20
107.3020672289
30
0.0000000000
10
82.8899753380
20
107.3664500655
30
0.0000000000
10
82.8753067075
20
107.4118507538
30
0.0000000000
10
82.8689208745
20
107.4352742240
30
0.0000000000
11
82.9443449636
21
107.2433049630
31
0.0000000000
11
82.9163210288
21
107.3004420207
31
0.0000000000
11
82.8908576100
21
107.3658212183
31
0.0000000000
11
82.8689208745
21
107.4352742240
31
0.0000000000
0
SPLINE
5
588
100
AcDbEntity
8
0
100
AcDbSpline
6
CONTINUOUS
70
0
71
3
72
11
73
7
74
5
42
0.0000001000
43
0.0000001000
44
0.0000000001
40
0.0000000000
40
0.0000000000
40
0.0000000000
40
0.0000000000
40
0.2569629198
40
0.5111743585
40
0.7597686506
40
1.0000000000
40
1.0000000000
40
1.0000000000
40
1.0000000000
10
82.8687271274
20
107.4352018483
30
0.0000000000
10
82.6102896970
20
107.3821136603
30
0.0000000000
10
82.1016627379
20
107.2468762602
30
0.0000000000
10
81.3769738147
20
106.9518326769
30
0.0000000000
10
80.7171262766
20
106.5631570049
30
0.0000000000
10
80.3324737572
20
106.2348692738
30
0.0000000000
10
80.1633744661
20
106.0553030401
30
0.0000000000
11
82.8687271274
21
107.4352018483
31
0.0000000000
11
82.1042453689
21
107.2301604111
31
0.0000000000
11
81.3800713678
21
106.9323316020
31
0.0000000000
11
80.7224874105
21
106.5400092790
31
0.0000000000
11
80.1633744661
21
106.0553030401
31
0.0000000000
0
SPLINE
5
589
100
AcDbEntity
8
0
100
AcDbSpline
6
CONTINUOUS
70
0
71
3
72
8
73
4
74
2
42
0.0000001000
43
0.0000001000
44
0.0000000001
40
0.0000000000
40
0.0000000000
40
0.0000000000
40
0.0000000000
40
1.0000000000
40
1.0000000000
40
1.0000000000
40
1.0000000000
10
83.2535843695
20
107.5800444859
30
0.0000000000
10
83.1259006621
20
107.5301687748
30
0.0000000000
10
82.9976892335
20
107.4816429219
30
0.0000000000
10
82.8687271274
20
107.4352018483
30
0.0000000000
11
83.2535843695
21
107.5800444859
31
0.0000000000
11
82.8687271274
21
107.4352018483
31
0.0000000000
0
SPLINE
5
58A
100
AcDbEntity
8
0
100
AcDbSpline
6
CONTINUOUS
70
0
71
3
72
8
73
4
74
2
42
0.0000001000
43
0.0000001000
44
0.0000000001
40
0.0000000000
40
0.0000000000
40
0.0000000000
40
0.0000000000
40
1.0000000000
40
1.0000000000
40
1.0000000000
40
1.0000000000
10
83.1765963064
20
107.3635583052
30
0.0000000000
10
83.1381182569
20
107.3430836198
30
0.0000000000
10
83.0995368404
20
107.3228040377
30
0.0000000000
10
83.0608383928
20
107.3027524049
30
0.0000000000
11
83.1765963064
21
107.3635583052
31
0.0000000000
11
83.0608383928
21
107.3027524049
31
0.0000000000
0
SPLINE
5
58B
100
AcDbEntity
8
0
100
AcDbSpline
6
CONTINUOUS
70
0
71
3
72
8
73
4
74
2
42
0.0000001000
43
0.0000001000
44
0.0000000001
40
0.0000000000
40
0.0000000000
40
0.0000000000
40
0.0000000000
40
1.0000000000
40
1.0000000000
40
1.0000000000
40
1.0000000000
10
83.0608383928
20
107.3027524049
30
0.0000000000
10
83.0221308211
20
107.2826960444
30
0.0000000000
10
82.9833061631
20
107.2628677408
30
0.0000000000
10
82.9443507451
20
107.2433003633
30
0.0000000000
11
83.0608383928
21
107.3027524049
31
0.0000000000
11
82.9443507451
21
107.2433003633
31
0.0000000000
0
SPLINE
5
58C
100
AcDbEntity
8
0
100
AcDbSpline
6
CONTINUOUS
70
0
71
3
72
11
73
7
74
5
42
0.0000001000
43
0.0000001000
44
0.0000000001
40
0.0000000000
40
0.0000000000
40
0.0000000000
40
0.0000000000
40
0.2398283091
40
0.4885661160
40
0.7429316268
40
1.0000000000
40
1.0000000000
40
1.0000000000
40
1.0000000000
10
80.1634646831
20
96.2121874401
30
0.0000000000
10
80.3322701752
20
96.0329382995
30
0.0000000000
10
80.7165614022
20
95.7047202273
30
0.0000000000
10
81.3762172011
20
95.3160158253
30
0.0000000000
10
82.1011986502
20
95.0207495681
30
0.0000000000
10
82.6100440029
20
94.8854360491
30
0.0000000000
10
82.8685681221
20
94.8323300571
30
0.0000000000
11
80.1634646831
21
96.2121874401
31
0.0000000000
11
80.7214839124
21
95.7281993442
31
0.0000000000
11
81.3793120414
21
95.3355355624
31
0.0000000000
11
82.1038370906
21
95.0374669608
31
0.0000000000
11
82.8685681221
21
94.8323300571
31
0.0000000000
0
SPLINE
5
58D
100
AcDbEntity
8
0
100
AcDbSpline
62
7
6
CONTINUOUS
70
0
71
3
72
10
73
6
74
4
42
0.0000001000
43
0.0000001000
44
0.0000000001
40
0.0000000000
40
0.0000000000
40
0.0000000000
40
0.0000000000
40
0.3079769186
40
0.6475229517
40
1.0000000000
40
1.0000000000
40
1.0000000000
40
1.0000000000
10
82.9443466303
20
95.0241853294
30
0.0000000000
10
82.9340630933
20
95.0056313629
30
0.0000000000
10
82.9145610150
20
94.9654230186
30
0.0000000000
10
82.8899736585
20
94.9010412055
30
0.0000000000
10
82.8753074199
20
94.8556396421
30
0.0000000000
10
82.8689214310
20
94.8322161959
30
0.0000000000
11
82.9443466303
21
95.0241853294
31
0.0000000000
11
82.9163219426
21
94.9670484400
31
0.0000000000
11
82.8908570535
21
94.9016696095
31
0.0000000000
11
82.8689214310
21
94.8322161959
31
0.0000000000
0
SPLINE
5
58E
100
AcDbEntity
8
0
100
AcDbSpline
6
CONTINUOUS
70
0
71
3
72
12
73
8
74
6
42
0.0000001000
43
0.0000001000
44
0.0000000001
40
0.0000000000
40
0.0000000000
40
0.0000000000
40
0.0000000000
40
0.1938183295
40
0.3918562306
40
0.5931748732
40
0.7962800645
40
1.0000000000
40
1.0000000000
40
1.0000000000
40
1.0000000000
10
80.4018620405
20
96.4662526832
30
0.0000000000
10
80.5321971502
20
96.3174283103
30
0.0000000000
10
80.8233012904
20
96.0399406679
30
0.0000000000
10
81.3217849386
20
95.6930012080
30
0.0000000000
10
81.8702226461
20
95.4112058061
30
0.0000000000
10
82.4532416452
20
95.1945646977
30
0.0000000000
10
82.8565700921
20
95.0921989538
30
0.0000000000
10
83.0604445250
20
95.0513092320
30
0.0000000000
11
80.4018620405
21
96.4662526832
31
0.0000000000
11
80.8295116492
21
96.0547442083
31
0.0000000000
11
81.3258986149
21
95.7064244204
31
0.0000000000
11
81.8734425080
21
95.4232160360
31
0.0000000000
11
82.4559699588
21
95.2053912957
31
0.0000000000
11
83.0604445250
21
95.0513092320
31
0.0000000000
0
SPLINE
5
58F
100
AcDbEntity
8
0
100
AcDbSpline
6
CONTINUOUS
70
0
71
3
72
11
73
7
74
5
42
0.0000001000
43
0.0000001000
44
0.0000000001
40
0.0000000000
40
0.0000000000
40
0.0000000000
40
0.0000000000
40
0.2477497589
40
0.5072612801
40
0.7627806972
40
1.0000000000
40
1.0000000000
40
1.0000000000
40
1.0000000000
10
82.9443599923
20
95.0241958840
30
0.0000000000
10
83.0617359608
20
94.9652357020
30
0.0000000000
10
83.2996267628
20
94.8396610120
30
0.0000000000
10
83.6522301791
20
94.6415761948
30
0.0000000000
10
83.9968564852
20
94.4408173618
30
0.0000000000
10
84.2217167527
20
94.3078344895
30
0.0000000000
10
84.3300102385
20
94.2438781011
30
0.0000000000
11
82.9443599923
21
95.0241958840
31
0.0000000000
11
83.2932988613
21
94.8411044998
31
0.0000000000
11
83.6535350912
21
94.6395993246
31
0.0000000000
11
84.0050044950
21
94.4355349687
31
0.0000000000
11
84.3300102385
21
94.2438781011
31
0.0000000000
0
SPLINE
5
590
100
AcDbEntity
8
0
100
AcDbSpline
6
CONTINUOUS
70
0
71
3
72
11
73
7
74
5
42
0.0000001000
43
0.0000001000
44
0.0000000001
40
0.0000000000
40
0.0000000000
40
0.0000000000
40
0.0000000000
40
0.2501704626
40
0.5097666228
40
0.7640451588
40
1.0000000000
40
1.0000000000
40
1.0000000000
40
1.0000000000
10
82.8685681221
20
94.8323300571
30
0.0000000000
10
82.9922052885
20
94.7878047743
30
0.0000000000
10
83.2427367745
20
94.6931736280
30
0.0000000000
10
83.6151584744
20
94.5435499569
30
0.0000000000
10
83.9787865358
20
94.3921753677
30
0.0000000000
10
84.2160029453
20
94.2919742195
30
0.0000000000
10
84.3301966838
20
94.2437906057
30
0.0000000000
11
82.8685681221
21
94.8323300571
31
0.0000000000
11
83.2376097475
21
94.6936717499
31
0.0000000000
11
83.6174243819
21
94.5417154931
31
0.0000000000
11
83.9875323705
21
94.3881443499
31
0.0000000000
11
84.3301966838
21
94.2437906057
31
0.0000000000
0
SPLINE
5
591
100
AcDbEntity
8
0
100
AcDbSpline
62
7
6
CONTINUOUS
70
0
71
3
72
9
73
5
74
3
42
0.0000001000
43
0.0000001000
44
0.0000000001
40
0.0000000000
40
0.0000000000
40
0.0000000000
40
0.0000000000
40
0.6777046041
40
1.0000000000
40
1.0000000000
40
1.0000000000
40
1.0000000000
10
79.8107518335
20
94.6435634401
30
0.0000000000
10
79.8010420353
20
94.6749360142
30
0.0000000000
10
79.7906403289
20
94.7226065008
30
0.0000000000
10
79.7878145972
20
94.7711843114
30
0.0000000000
10
79.7877849760
20
94.7868380666
30
0.0000000000
11
79.8107518335
21
94.6435634401
31
0.0000000000
11
79.7904229871
21
94.7399657497
31
0.0000000000
11
79.7877849760
21
94.7868380666
31
0.0000000000
0
SPLINE
5
592
100
AcDbEntity
8
0
100
AcDbSpline
62
7
6
CONTINUOUS
70
0
71
3
72
9
73
5
74
3
42
0.0000001000
43
0.0000001000
44
0.0000000001
40
0.0000000000
40
0.0000000000
40
0.0000000000
40
0.0000000000
40
0.6777046041
40
1.0000000000
40
1.0000000000
40
1.0000000000
40
1.0000000000
10
199.0449596517
20
107.6239270401
30
0.0000000000
10
199.0546694499
20
107.5925544660
30
0.0000000000
10
199.0650711563
20
107.5448839794
30
0.0000000000
10
199.0678968880
20
107.4963061688
30
0.0000000000
10
199.0679265092
20
107.4806524136
30
0.0000000000
11
199.0449596517
21
107.6239270401
31
0.0000000000
11
199.0652884981
21
107.5275247306
31
0.0000000000
11
199.0679265092
21
107.4806524136
31
0.0000000000
0
SPLINE
5
593
100
AcDbEntity
8
0
100
AcDbSpline
62
7
6
CONTINUOUS
70
0
71
3
72
9
73
5
74
3
42
0.0000001000
43
0.0000001000
44
0.0000000001
40
0.0000000000
40
0.0000000000
40
0.0000000000
40
0.0000000000
40
0.3222953959
40
1.0000000000
40
1.0000000000
40
1.0000000000
40
1.0000000000
10
79.7877849760
20
107.4806524136
30
0.0000000000
10
79.7878145972
20
107.4963061688
30
0.0000000000
10
79.7906403289
20
107.5448839794
30
0.0000000000
10
79.8010420353
20
107.5925544660
30
0.0000000000
10
79.8107518335
20
107.6239270401
30
0.0000000000
11
79.7877849760
21
107.4806524136
31
0.0000000000
11
79.7904229871
21
107.5275247306
31
0.0000000000
11
79.8107518335
21
107.6239270401
31
0.0000000000
0
SPLINE
5
594
100
AcDbEntity
8
0
100
AcDbSpline
62
7
6
CONTINUOUS
70
0
71
3
72
11
73
7
74
5
42
0.0000001000
43
0.0000001000
44
0.0000000001
40
0.0000000000
40
0.0000000000
40
0.0000000000
40
0.0000000000
40
0.0761323398
40
0.2929229717
40
0.6173454497
40
1.0000000000
40
1.0000000000
40
1.0000000000
40
1.0000000000
10
150.8003797426
20
118.8788042401
30
0.0000000000
10
150.7999454642
20
118.8539244452
30
0.0000000000
10
150.7982745562
20
118.7581981945
30
0.0000000000
10
150.7947530591
20
118.5564517593
30
0.0000000000
10
150.7894830805
20
118.2545348875
30
0.0000000000
10
150.7854497314
20
118.0234644716
30
0.0000000000
10
150.7832669715
20
117.8984142401
30
0.0000000000
11
150.8003797426
21
118.8788042401
31
0.0000000000
11
150.7990769073
21
118.8041648555
31
0.0000000000
11
150.7953670188
21
118.5916254879
31
0.0000000000
11
150.7898152512
21
118.2735649346
31
0.0000000000
11
150.7832669715
21
117.8984142401
31
0.0000000000
0
SPLINE
5
595
100
AcDbEntity
8
0
100
AcDbSpline
62
7
6
CONTINUOUS
70
0
71
3
72
9
73
5
74
3
42
0.0000001000
43
0.0000001000
44
0.0000000001
40
0.0000000000
40
0.0000000000
40
0.0000000000
40
0.0000000000
40
0.3222953959
40
1.0000000000
40
1.0000000000
40
1.0000000000
40
1.0000000000
10
199.0679265092
20
94.7868380666
30
0.0000000000
10
199.0678968880
20
94.7711843114
30
0.0000000000
10
199.0650711563
20
94.7226065008
30
0.0000000000
10
199.0546694499
20
94.6749360142
30
0.0000000000
10
199.0449596517
20
94.6435634401
30
0.0000000000
11
199.0679265092
21
94.7868380666
31
0.0000000000
11
199.0652884981
21
94.7399657497
31
0.0000000000
11
199.0449596517
21
94.6435634401
31
0.0000000000
0
SPLINE
5
596
100
AcDbEntity
8
0
100
AcDbSpline
6
CONTINUOUS
70
0
71
3
72
9
73
5
74
3
42
0.0000001000
43
0.0000001000
44
0.0000000001
40
0.0000000000
40
0.0000000000
40
0.0000000000
40
0.0000000000
40
0.4720029502
40
1.0000000000
40
1.0000000000
40
1.0000000000
40
1.0000000000
10
80.4327702103
20
96.5063044401
30
0.0000000000
10
80.4197756136
20
96.5063187187
30
0.0000000000
10
80.3922534502
20
96.5040839533
30
0.0000000000
10
80.3652183135
20
96.4977287321
30
0.0000000000
10
80.3516422208
20
96.4925335603
30
0.0000000000
11
80.4327702103
21
96.5063044401
31
0.0000000000
11
80.3939030321
21
96.5032911039
31
0.0000000000
11
80.3516422208
21
96.4925335603
31
0.0000000000
0
SPLINE
5
597
100
AcDbEntity
8
0
100
AcDbSpline
62
7
6
CONTINUOUS
70
0
71
3
72
10
73
6
74
4
42
0.0000001000
43
0.0000001000
44
0.0000000001
40
0.0000000000
40
0.0000000000
40
0.0000000000
40
0.0000000000
40
0.2131189771
40
0.5352083379
40
1.0000000000
40
1.0000000000
40
1.0000000000
40
1.0000000000
10
192.3656377592
20
116.6337452401
30
0.0000000000
10
192.3726226880
20
116.6337452401
30
0.0000000000
10
192.3893687314
20
116.6240762795
30
0.0000000000
10
192.4066331185
20
116.5960011442
30
0.0000000000
10
192.4166105461
20
116.5721171011
30
0.0000000000
10
192.4216980494
20
116.5577582981
30
0.0000000000
11
192.3656377592
21
116.6337452401
31
0.0000000000
11
192.3847690108
21
116.6251954864
31
0.0000000000
11
192.4035650125
21
116.5997072456
31
0.0000000000
11
192.4216980494
21
116.5577582981
31
0.0000000000
0
SPLINE
5
598
100
AcDbEntity
8
0
100
AcDbSpline
62
7
6
CONTINUOUS
70
0
71
3
72
10
73
6
74
4
42
0.0000001000
43
0.0000001000
44
0.0000000001
40
0.0000000000
40
0.0000000000
40
0.0000000000
40
0.0000000000
40
0.2131189771
40
0.5352083379
40
1.0000000000
40
1.0000000000
40
1.0000000000
40
1.0000000000
10
86.4900737260
20
116.6337452401
30
0.0000000000
10
86.4830887972
20
116.6337452401
30
0.0000000000
10
86.4663427538
20
116.6240762795
30
0.0000000000
10
86.4490783667
20
116.5960011442
30
0.0000000000
10
86.4391009391
20
116.5721171011
30
0.0000000000
10
86.4340134358
20
116.5577582981
30
0.0000000000
11
86.4900737260
21
116.6337452401
31
0.0000000000
11
86.4709424744
21
116.6251954864
31
0.0000000000
11
86.4521464727
21
116.5997072456
31
0.0000000000
11
86.4340134358
21
116.5577582981
31
0.0000000000
0
SPLINE
5
599
100
AcDbEntity
8
0
100
AcDbSpline
62
7
6
CONTINUOUS
70
0
71
3
72
18
73
14
74
12
42
0.0000001000
43
0.0000001000
44
0.0000000001
40
0.0000000000
40
0.0000000000
40
0.0000000000
40
0.0000000000
40
0.0163240898
40
0.0619475325
40
0.1354710268
40
0.2330356138
40
0.3485930575
40
0.4749446931
40
0.6043117421
40
0.7287694543
40
0.8406360918
40
0.9329294728
40
1.0000000000
40
1.0000000000
40
1.0000000000
40
1.0000000000
10
83.2927702037
20
101.1355826961
30
0.0000000000
10
83.2608229866
20
101.1389618639
30
0.0000000000
10
83.1377248440
20
101.2424186613
30
0.0000000000
10
83.0800052784
20
101.5054197354
30
0.0000000000
10
82.9712435714
20
101.9428621792
30
0.0000000000
10
82.9060869467
20
102.5274944025
30
0.0000000000
10
82.8524068983
20
103.2235130290
30
0.0000000000
10
82.8286544128
20
103.9862035073
30
0.0000000000
10
82.8317748847
20
104.7676111911
30
0.0000000000
10
82.8630528965
20
105.5185400891
30
0.0000000000
10
82.9195015293
20
106.1918978031
30
0.0000000000
10
82.9977969440
20
106.7436143562
30
0.0000000000
10
83.0704254602
20
107.0644775707
30
0.0000000000
10
83.1164537719
20
107.1943863726
30
0.0000000000
11
83.2927702037
21
101.1355826961
31
0.0000000000
11
83.2026617872
21
101.1946537349
31
0.0000000000
11
83.0905681779
21
101.4526031343
31
0.0000000000
11
82.9919843438
21
101.8949981816
31
0.0000000000
11
82.9132667007
21
102.4912757020
31
0.0000000000
11
82.8593110015
21
103.2016000408
31
0.0000000000
11
82.8333537843
21
103.9800803779
31
0.0000000000
11
82.8369134549
21
104.7775743555
31
0.0000000000
11
82.8697826847
21
105.5441075600
31
0.0000000000
11
82.9300286933
21
106.2310890307
31
0.0000000000
11
83.0140080637
21
106.7938130366
31
0.0000000000
11
83.1164537719
21
107.1943863726
31
0.0000000000
0
SPLINE
5
59A
100
AcDbEntity
8
0
100
AcDbSpline
62
7
6
CONTINUOUS
70
0
71
3
72
18
73
14
74
12
42
0.0000001000
43
0.0000001000
44
0.0000000001
40
0.0000000000
40
0.0000000000
40
0.0000000000
40
0.0000000000
40
0.0683228888
40
0.1625919119
40
0.2768455981
40
0.4037274110
40
0.5351655490
40
0.6628501680
40
0.7786514942
40
0.8751149741
40
0.9461025924
40
0.9880655304
40
1.0000000000
40
1.0000000000
40
1.0000000000
40
1.0000000000
10
195.7904052669
20
85.5273286098
30
0.0000000000
10
195.8350730518
20
85.4012597143
30
0.0000000000
10
195.9051448877
20
85.0892469616
30
0.0000000000
10
195.9803324006
20
84.5526499152
30
0.0000000000
10
196.0339172221
20
83.8978282148
30
0.0000000000
10
196.0626911078
20
83.1688405254
30
0.0000000000
10
196.0637097699
20
82.4133356295
30
0.0000000000
10
196.0385979986
20
81.6785251827
30
0.0000000000
10
195.9838629515
20
81.0184659331
30
0.0000000000
10
195.9198349865
20
80.4580935124
30
0.0000000000
10
195.8115104603
20
80.0811013760
30
0.0000000000
10
195.7576707101
20
79.8098739513
30
0.0000000000
10
195.6449944789
20
79.7703608836
30
0.0000000000
10
195.6209088068
20
79.7679025304
30
0.0000000000
11
195.7904052669
21
85.5273286098
31
0.0000000000
11
195.8893871117
21
85.1384844363
31
0.0000000000
11
195.9701391852
21
84.5907852030
31
0.0000000000
11
196.0274318642
21
83.9222501359
31
0.0000000000
11
196.0576905638
21
83.1777171483
31
0.0000000000
11
196.0590782193
21
82.4058125410
31
0.0000000000
11
196.0315059301
21
81.6564573230
31
0.0000000000
11
195.9766406775
21
80.9785996060
31
0.0000000000
11
195.8978927890
21
80.4175917539
31
0.0000000000
11
195.8003407230
21
80.0122719795
31
0.0000000000
11
195.6905087917
21
79.7916615631
31
0.0000000000
11
195.6209088068
21
79.7679025304
31
0.0000000000
0
SPLINE
5
59B
100
AcDbEntity
8
0
100
AcDbSpline
62
7
6
CONTINUOUS
70
0
71
3
72
18
73
14
74
12
42
0.0000001000
43
0.0000001000
44
0.0000000001
40
0.0000000000
40
0.0000000000
40
0.0000000000
40
0.0000000000
40
0.0163240898
40
0.0619475325
40
0.1354710268
40
0.2330356138
40
0.3485930575
40
0.4749446931
40
0.6043117421
40
0.7287694543
40
0.8406360918
40
0.9329294728
40
1.0000000000
40
1.0000000000
40
1.0000000000
40
1.0000000000
10
195.5629412815
20
101.1355826961
30
0.0000000000
10
195.5948884986
20
101.1389618639
30
0.0000000000
10
195.7179866412
20
101.2424186613
30
0.0000000000
10
195.7757062068
20
101.5054197354
30
0.0000000000
10
195.8844679138
20
101.9428621792
30
0.0000000000
10
195.9496245385
20
102.5274944025
30
0.0000000000
10
196.0033045869
20
103.2235130290
30
0.0000000000
10
196.0270570724
20
103.9862035073
30
0.0000000000
10
196.0239366005
20
104.7676111911
30
0.0000000000
10
195.9926585886
20
105.5185400891
30
0.0000000000
10
195.9362099559
20
106.1918978031
30
0.0000000000
10
195.8579145412
20
106.7436143562
30
0.0000000000
10
195.7852860250
20
107.0644775707
30
0.0000000000
10
195.7392577133
20
107.1943863726
30
0.0000000000
11
195.5629412815
21
101.1355826961
31
0.0000000000
11
195.6530496980
21
101.1946537349
31
0.0000000000
11
195.7651433073
21
101.4526031343
31
0.0000000000
11
195.8637271414
21
101.8949981816
31
0.0000000000
11
195.9424447845
21
102.4912757020
31
0.0000000000
11
195.9964004837
21
103.2016000408
31
0.0000000000
11
196.0223577009
21
103.9800803779
31
0.0000000000
11
196.0187980303
21
104.7775743555
31
0.0000000000
11
195.9859288005
21
105.5441075600
31
0.0000000000
11
195.9256827919
21
106.2310890307
31
0.0000000000
11
195.8417034215
21
106.7938130366
31
0.0000000000
11
195.7392577133
21
107.1943863726
31
0.0000000000
0
SPLINE
5
59C
100
AcDbEntity
8
0
100
AcDbSpline
62
7
6
CONTINUOUS
70
0
71
3
72
18
73
14
74
12
42
0.0000001000
43
0.0000001000
44
0.0000000001
40
0.0000000000
40
0.0000000000
40
0.0000000000
40
0.0000000000
40
0.0119344696
40
0.0538974076
40
0.1248850259
40
0.2213485058
40
0.3371498320
40
0.4648344510
40
0.5962725890
40
0.7231544019
40
0.8374080881
40
0.9316771112
40
1.0000000000
40
1.0000000000
40
1.0000000000
40
1.0000000000
10
83.2348026783
20
79.7679025304
30
0.0000000000
10
83.2107170063
20
79.7703608836
30
0.0000000000
10
83.0980407751
20
79.8098739513
30
0.0000000000
10
83.0442010248
20
80.0811013760
30
0.0000000000
10
82.9358764987
20
80.4580935124
30
0.0000000000
10
82.8718485336
20
81.0184659331
30
0.0000000000
10
82.8171134866
20
81.6785251827
30
0.0000000000
10
82.7920017153
20
82.4133356295
30
0.0000000000
10
82.7930203774
20
83.1688405254
30
0.0000000000
10
82.8217942631
20
83.8978282148
30
0.0000000000
10
82.8753790846
20
84.5526499152
30
0.0000000000
10
82.9505665975
20
85.0892469616
30
0.0000000000
10
83.0206384334
20
85.4012597143
30
0.0000000000
10
83.0653062182
20
85.5273286098
30
0.0000000000
11
83.2348026783
21
79.7679025304
31
0.0000000000
11
83.1652026935
21
79.7916615631
31
0.0000000000
11
83.0553707622
21
80.0122719795
31
0.0000000000
11
82.9578186962
21
80.4175917539
31
0.0000000000
11
82.8790708077
21
80.9785996060
31
0.0000000000
11
82.8242055551
21
81.6564573230
31
0.0000000000
11
82.7966332659
21
82.4058125410
31
0.0000000000
11
82.7980209214
21
83.1777171483
31
0.0000000000
11
82.8282796210
21
83.9222501359
31
0.0000000000
11
82.8855723000
21
84.5907852030
31
0.0000000000
11
82.9663243734
21
85.1384844363
31
0.0000000000
11
83.0653062182
21
85.5273286098
31
0.0000000000
0
SPLINE
5
59D
100
AcDbEntity
8
0
100
AcDbSpline
62
7
6
CONTINUOUS
70
0
71
3
72
12
73
8
74
6
42
0.0000001000
43
0.0000001000
44
0.0000000001
40
0.0000000000
40
0.0000000000
40
0.0000000000
40
0.0000000000
40
0.2497637644
40
0.4864433849
40
0.6975200267
40
0.8717228091
40
1.0000000000
40
1.0000000000
40
1.0000000000
40
1.0000000000
10
85.7249234193
20
95.0390386083
30
0.0000000000
10
85.7249234193
20
94.8064638532
30
0.0000000000
10
85.7173109492
20
94.3534444315
30
0.0000000000
10
85.6833310831
20
93.7047176877
30
0.0000000000
10
85.6292058934
20
93.1277445055
30
0.0000000000
10
85.5578569944
20
92.6549097170
30
0.0000000000
10
85.4931481020
20
92.3795901625
30
0.0000000000
10
85.4532558003
20
92.2669994345
30
0.0000000000
11
85.7249234193
21
95.0390386083
31
0.0000000000
11
85.7128657769
21
94.3414185371
31
0.0000000000
11
85.6772911874
21
93.6812030527
31
0.0000000000
11
85.6199944920
21
93.0943430683
31
0.0000000000
11
85.5439523668
21
92.6136790312
31
0.0000000000
11
85.4532558003
21
92.2669994345
31
0.0000000000
0
SPLINE
5
59E
100
AcDbEntity
8
0
100
AcDbSpline
62
7
6
CONTINUOUS
70
0
71
3
72
12
73
8
74
6
42
0.0000001000
43
0.0000001000
44
0.0000000001
40
0.0000000000
40
0.0000000000
40
0.0000000000
40
0.0000000000
40
0.2497637644
40
0.4864433849
40
0.6975200267
40
0.8717228091
40
1.0000000000
40
1.0000000000
40
1.0000000000
40
1.0000000000
10
193.1307880659
20
95.0390386083
30
0.0000000000
10
193.1307880659
20
94.8064638532
30
0.0000000000
10
193.1384005360
20
94.3534444315
30
0.0000000000
10
193.1723804021
20
93.7047176877
30
0.0000000000
10
193.2265055918
20
93.1277445055
30
0.0000000000
10
193.2978544908
20
92.6549097170
30
0.0000000000
10
193.3625633832
20
92.3795901625
30
0.0000000000
10
193.4024556849
20
92.2669994345
30
0.0000000000
11
193.1307880659
21
95.0390386083
31
0.0000000000
11
193.1428457083
21
94.3414185371
31
0.0000000000
11
193.1784202978
21
93.6812030527
31
0.0000000000
11
193.2357169931
21
93.0943430683
31
0.0000000000
11
193.3117591184
21
92.6136790312
31
0.0000000000
11
193.4024556849
21
92.2669994345
31
0.0000000000
0
ENDSEC
0
SECTION
2
OBJECTS
0
DICTIONARY
5
59F
100
AcDbDictionary
3
ACAD_GROUP
350
5A0
3
ACAD_MLINESTYLE
350
5A1
0
DICTIONARY
5
5A0
102
{ACAD_REACTORS
330
59F
102
}
100
AcDbDictionary
0
DICTIONARY
5
5A1
102
{ACAD_REACTORS
330
59F
102
}
100
AcDbDictionary
3
STANDARD
350
5A2
0
MLINESTYLE
5
5A2
102
{ACAD_REACTORS
330
5A1
102
}
100
AcDbMlineStyle
2
STANDARD
70
0
3

62
256
51
90.0
52
90.0
71
2
49
0.5
62
256
6
BYLAYER
49
-0.5
62
256
6
BYLAYER
0
ENDSEC
0
EOF
