999
DXF file: catena1873-k375gsd.dxf
999
Pro/ENGINEER 2003490 by Parametric Technology Corporation
0
SECTION
2
HEADER
9
$ACADVER
1
AC1014
9
$EXTMAX
10
420.0000000000
20
297.0000000000
30
0.0000000000
9
$EXTMIN
10
0.0000000000
20
0.0000000000
30
0.0000000000
9
$LIMMIN
10
0.0000000000
20
0.0000000000
9
$LIMMAX
10
420.0000000000
20
297.0000000000
9
$VIEWCTR
10
210.0000000000
20
148.5000000000
9
$VIEWSIZE
40
297.0000000000
9
$CLAYER
8
0
9
$LTSCALE
40
23.1000000000
9
$CELTYPE
6
BYLAYER
9
$DIMSCALE
40
1
9
$DIMASZ
40
3.5000000000
9
$DIMEXO
40
2.6250000000
9
$DIMDLI
40
15.9600000000
9
$DIMEXE
40
7.5600000000
9
$DIMCEN
40
3.7800000000
9
$DIMLFAC
40
1.0000000000
9
$DIMBLK
1
_FILLED
9
$DIMTXT
40
3.5000000000
9
$DIMTOL
70
1
9
$DIMLIM
70
0
9
$DIMTFAC
40
1.0000000000
9
$DIMTP
40
0.0010000000
9
$DIMTM
40
0.0010000000
9
$PDMODE
70
3
9
$PDSIZE
40
0.3125000000
9
$HANDSEED
5
470
9
$MEASUREMENT
70
1
0
ENDSEC
0
SECTION
2
CLASSES
0
ENDSEC
0
SECTION
2
TABLES
0
TABLE
2
VPORT
5
8
100
AcDbSymbolTable
70
2
0
VPORT
5
1F4
100
AcDbSymbolTableRecord
100
AcDbViewportTableRecord
2
*ACTIVE
70
0
10
0.0
20
0.0
11
1.0
21
1.0
12
210.0000000000
22
148.5000000000
13
0.0
23
0.0
14
1.0
24
1.0
15
0.0
25
0.0
16
0.0
26
0.0
36
1.0
17
0.0
27
0.0
37
0.0
40
297.0000000000
41
1.4141414141
42
50.0
43
0.0
44
0.0
50
0.0
51
0.0
71
0
72
100
73
1
74
1
75
0
76
0
77
0
78
0
0
ENDTAB
0
TABLE
2
LTYPE
5
5
100
AcDbSymbolTable
70
6
0
LTYPE
5
14
100
AcDbSymbolTableRecord
100
AcDbLinetypeTableRecord
2
BYBLOCK
70
0
3

72
65
73
0
40
0.0
0
LTYPE
5
15
100
AcDbSymbolTableRecord
100
AcDbLinetypeTableRecord
2
BYLAYER
70
0
3

72
65
73
0
40
0.0
0
LTYPE
5
16
100
AcDbSymbolTableRecord
100
AcDbLinetypeTableRecord
2
CONTINUOUS
70
64
3
Solid line
72
65
73
0
40
0
0
LTYPE
5
1F5
100
AcDbSymbolTableRecord
100
AcDbLinetypeTableRecord
2
CENTER
70
64
3
____ _ ____ _ ____ _ ____ _ ____ _ ____ _ ____
72
65
73
4
40
0.6
49
0.375
74
0
49
-0.075
74
0
49
0.075
74
0
49
-0.075
74
0
0
LTYPE
5
1F6
100
AcDbSymbolTableRecord
100
AcDbLinetypeTableRecord
2
HIDDEN
70
64
3
- - - - - - - - - - - - - - - - - - - -
72
65
73
2
40
0.2
49
0.1
74
0
49
-0.1
74
0
0
LTYPE
5
1F7
100
AcDbSymbolTableRecord
100
AcDbLinetypeTableRecord
2
PHANTOM
70
64
3
_____ _ _ _____ _ _ _____ _ _ _____
72
65
73
6
40
0.8
49
0.45
74
0
49
-0.05
74
0
49
0.1
74
0
49
-0.05
74
0
49
0.1
74
0
49
-0.05
74
0
0
LTYPE
5
1F8
100
AcDbSymbolTableRecord
100
AcDbLinetypeTableRecord
2
DOT
70
64
3
. . . . . . . . . . . . . . . . . . . .
72
65
73
2
40
0.2
49
0.1
74
0
49
-0.1
74
0
0
LTYPE
5
1F9
100
AcDbSymbolTableRecord
100
AcDbLinetypeTableRecord
2
DASHED
70
64
3
- - - - - - - - - - - - - - - - - - - -
72
65
73
2
40
0.2
49
0.1
74
0
49
-0.1
74
0
0
ENDTAB
0
TABLE
2
LAYER
5
2
100
AcDbSymbolTable
70
36
0
LAYER
5
10
100
AcDbSymbolTableRecord
100
AcDbLayerTableRecord
2
0
70
0
62
7
6
CONTINUOUS
0
LAYER
5
1FA
100
AcDbSymbolTableRecord
100
AcDbLayerTableRecord
2
DEFAULT_1
70
0
62
7
6
CENTER
0
LAYER
5
1FB
100
AcDbSymbolTableRecord
100
AcDbLayerTableRecord
2
DEFAULT_2
70
0
62
8
6
HIDDEN
0
LAYER
5
1FC
100
AcDbSymbolTableRecord
100
AcDbLayerTableRecord
2
DEFAULT_3
70
0
62
7
6
PHANTOM
0
LAYER
5
1FD
100
AcDbSymbolTableRecord
100
AcDbLayerTableRecord
2
ASSI
70
0
62
7
6
CONTINUOUS
0
LAYER
5
1FE
100
AcDbSymbolTableRecord
100
AcDbLayerTableRecord
2
AXES
70
0
62
7
6
CONTINUOUS
0
LAYER
5
1FF
100
AcDbSymbolTableRecord
100
AcDbLayerTableRecord
2
DIMS
70
0
62
7
6
CONTINUOUS
0
LAYER
5
200
100
AcDbSymbolTableRecord
100
AcDbLayerTableRecord
2
GEOM
70
0
62
7
6
CONTINUOUS
0
LAYER
5
201
100
AcDbSymbolTableRecord
100
AcDbLayerTableRecord
2
NOGEOM
70
0
62
7
6
CONTINUOUS
0
LAYER
5
202
100
AcDbSymbolTableRecord
100
AcDbLayerTableRecord
2
PIANI
70
0
62
7
6
CONTINUOUS
0
LAYER
5
203
100
AcDbSymbolTableRecord
100
AcDbLayerTableRecord
2
PLANES
70
0
62
7
6
CONTINUOUS
0
LAYER
5
204
100
AcDbSymbolTableRecord
100
AcDbLayerTableRecord
2
SURF_FILETTI
70
0
62
7
6
CONTINUOUS
0
ENDTAB
0
TABLE
2
STYLE
5
3
100
AcDbSymbolTable
70
1
0
STYLE
5
11
100
AcDbSymbolTableRecord
100
AcDbTextStyleTableRecord
2
STANDARD
70
0
40
0.0
41
0.7143000000
50
0.0
71
0
42
0.2
3
txt
4

0
ENDTAB
0
TABLE
2
VIEW
5
6
100
AcDbSymbolTable
70
0
0
ENDTAB
0
TABLE
2
UCS
5
7
100
AcDbSymbolTable
70
0
0
ENDTAB
0
TABLE
2
APPID
5
9
100
AcDbSymbolTable
70
1
0
APPID
5
205
100
AcDbSymbolTableRecord
100
AcDbRegAppTableRecord
2
ACAD
70
0
0
ENDTAB
0
TABLE
2
DIMSTYLE
5
A
100
AcDbSymbolTable
70
1
0
DIMSTYLE
105
206
100
AcDbSymbolTableRecord
100
AcDbDimStyleTableRecord
2
STANDARD
70
0
3

4

5
_FILLED
6
_FILLED
7
_FILLED
40
1.0
41
3.5000000000
42
0.0625
43
0.38
44
0.18
45
0.0
46
0.0
47
0.0010000000
48
0.0010000000
140
3.5000000000
141
0.09
142
0.0
143
25.4
144
1.0000000000
145
0.0
146
1.0000000000
147
0.09
71
1
72
0
73
0
74
0
75
0
76
0
77
1
78
8
170
0
171
2
172
0
173
0
174
0
175
0
176
0
177
0
178
0
270
2
271
3
272
3
273
2
274
2
340
11
275
0
280
0
281
0
282
0
283
1
284
8
285
0
286
0
287
3
288
0
0
ENDTAB
0
TABLE
2
BLOCK_RECORD
5
1
100
AcDbSymbolTable
70
0
0
BLOCK_RECORD
5
1B
100
AcDbSymbolTableRecord
100
AcDbBlockTableRecord
2
*MODEL_SPACE
0
BLOCK_RECORD
5
1C
100
AcDbSymbolTableRecord
100
AcDbBlockTableRecord
2
*PAPER_SPACE
0
ENDTAB
0
ENDSEC
0
SECTION
2
BLOCKS
0
BLOCK
5
1E
100
AcDbEntity
8
0
100
AcDbBlockBegin
2
*MODEL_SPACE
70
0
10
0.0
20
0.0
30
0.0
3
*MODEL_SPACE
1

0
ENDBLK
5
1F
100
AcDbEntity
8
0
100
AcDbBlockEnd
0
BLOCK
5
20
100
AcDbEntity
8
0
100
AcDbBlockBegin
2
*PAPER_SPACE
70
0
10
0.0
20
0.0
30
0.0
3
*PAPER_SPACE
1

0
ENDBLK
5
21
100
AcDbEntity
8
0
100
AcDbBlockEnd
0
ENDSEC
0
SECTION
2
ENTITIES
0
LINE
5
207
100
AcDbEntity
8
0
100
AcDbLine
62
7
6
CONTINUOUS
10
0.0000000000
20
0.0000000000
11
0.0000000000
21
297.0000000000
0
LINE
5
208
100
AcDbEntity
8
0
100
AcDbLine
62
7
6
CONTINUOUS
10
0.0000000000
20
0.0000000000
11
420.0000000000
21
0.0000000000
0
LINE
5
209
100
AcDbEntity
8
0
100
AcDbLine
62
7
6
CONTINUOUS
10
0.0000000000
20
297.0000000000
11
420.0000000000
21
297.0000000000
0
LINE
5
20A
100
AcDbEntity
8
0
100
AcDbLine
62
7
6
CONTINUOUS
10
420.0000000000
20
0.0000000000
11
420.0000000000
21
297.0000000000
0
LINE
5
20B
100
AcDbEntity
8
0
100
AcDbLine
62
7
6
CONTINUOUS
10
115.8603665865
20
176.5156850962
11
115.8603665865
21
192.8156850962
0
LINE
5
20C
100
AcDbEntity
8
0
100
AcDbLine
62
9
6
CONTINUOUS
10
116.3603665865
20
193.3156850962
11
116.3603665865
21
193.1973232338
0
LINE
5
20D
100
AcDbEntity
8
0
100
AcDbLine
62
9
6
CONTINUOUS
10
116.8603665865
20
191.2084179296
11
116.8603665865
21
180.0156850962
0
LINE
5
20E
100
AcDbEntity
8
0
100
AcDbLine
62
9
6
CONTINUOUS
10
118.7295084244
20
176.5156850962
11
118.7295084244
21
179.0156850962
0
LINE
5
20F
100
AcDbEntity
8
0
100
AcDbLine
62
7
6
CONTINUOUS
10
121.8603665865
20
180.0156850962
11
121.7206227805
21
196.0287391886
0
LINE
5
210
100
AcDbEntity
8
0
100
AcDbLine
62
7
6
CONTINUOUS
10
122.3603665865
20
180.0156850962
11
122.3603665865
21
216.0156850962
0
LINE
5
211
100
AcDbEntity
8
0
100
AcDbLine
62
7
6
CONTINUOUS
10
151.5103665865
20
151.2156850962
11
136.7603665865
21
151.2156850962
0
LINE
5
212
100
AcDbEntity
8
0
100
AcDbLine
62
7
6
CONTINUOUS
10
175.4103665865
20
151.2156850962
11
190.2603665865
21
151.2156850962
0
LINE
5
213
100
AcDbEntity
8
0
100
AcDbLine
62
9
6
CONTINUOUS
10
191.2487280970
20
152.4875000169
11
175.5103665865
21
152.4875000169
0
LINE
5
214
100
AcDbEntity
8
0
100
AcDbLine
62
9
6
CONTINUOUS
10
151.5103665865
20
152.4875000169
11
135.7720050761
21
152.4875000169
0
LINE
5
215
100
AcDbEntity
8
0
100
AcDbLine
62
9
6
CONTINUOUS
10
135.7603665865
20
153.0395730972
11
146.0981635415
21
153.0395708633
0
LINE
5
216
100
AcDbEntity
8
0
100
AcDbLine
62
9
6
CONTINUOUS
10
180.9225696178
20
153.0395708554
11
191.2603665865
21
153.0395730972
0
LINE
5
217
100
AcDbEntity
8
0
100
AcDbLine
62
7
6
CONTINUOUS
10
135.2603665865
20
154.7156850962
11
135.2603665865
21
152.7156850962
0
LINE
5
218
100
AcDbEntity
8
0
100
AcDbLine
62
9
6
CONTINUOUS
10
135.7603665865
20
155.2156850962
11
135.7603665865
21
152.6396234031
0
LINE
5
219
100
AcDbEntity
8
0
100
AcDbLine
62
9
6
CONTINUOUS
10
135.7603665865
20
154.0577218872
11
146.0981686224
21
154.0577250614
0
LINE
5
21A
100
AcDbEntity
8
0
100
AcDbLine
62
9
6
CONTINUOUS
10
180.9225645010
20
154.0577250372
11
191.2603665865
21
154.0577218872
0
LINE
5
21B
100
AcDbEntity
8
0
100
AcDbLine
62
9
6
CONTINUOUS
10
135.7603665865
20
154.9477359037
11
145.5103665865
21
154.9477359037
0
LINE
5
21C
100
AcDbEntity
8
0
100
AcDbLine
62
9
6
CONTINUOUS
10
181.5103665865
20
154.9477359037
11
191.2603665865
21
154.9477359037
0
LINE
5
21D
100
AcDbEntity
8
0
100
AcDbLine
62
7
6
CONTINUOUS
10
135.7603665865
20
155.2156850962
11
145.5103665865
21
155.2156850962
0
LINE
5
21E
100
AcDbEntity
8
0
100
AcDbLine
62
7
6
CONTINUOUS
10
181.5103665865
20
155.2156850962
11
191.2603665865
21
155.2156850962
0
LINE
5
21F
100
AcDbEntity
8
0
100
AcDbLine
62
9
6
CONTINUOUS
10
145.5103665865
20
155.2156850962
11
145.5103665865
21
154.9477359037
0
LINE
5
220
100
AcDbEntity
8
0
100
AcDbLine
62
9
6
CONTINUOUS
10
146.0981594657
20
154.0577250614
11
146.0981635415
21
153.0395708633
0
LINE
5
221
100
AcDbEntity
8
0
100
AcDbLine
62
9
6
CONTINUOUS
10
146.7103665865
20
176.0156850962
11
146.7103665288
21
176.7814671252
0
LINE
5
222
100
AcDbEntity
8
0
100
AcDbLine
62
7
6
CONTINUOUS
10
147.5103665865
20
156.9095669496
11
147.5103665865
21
175.2156850962
0
LINE
5
223
100
AcDbEntity
8
0
100
AcDbLine
62
7
6
CONTINUOUS
10
147.5103665865
20
177.0103289349
11
147.5103665865
21
179.0156850962
0
LINE
5
224
100
AcDbEntity
8
0
100
AcDbLine
62
9
6
CONTINUOUS
10
149.5103665865
20
155.0680283151
11
149.5103665865
21
174.9114383238
0
LINE
5
225
100
AcDbEntity
8
0
100
AcDbLine
62
9
6
CONTINUOUS
10
151.5103665865
20
151.2156850962
11
151.5103665865
21
174.4396234031
0
LINE
5
226
100
AcDbEntity
8
0
100
AcDbLine
62
7
6
CONTINUOUS
10
152.0103665865
20
151.7156850962
11
152.0103665865
21
174.5156850962
0
LINE
5
227
100
AcDbEntity
8
0
100
AcDbLine
62
7
6
CONTINUOUS
10
210.6603665865
20
176.0156850962
11
179.7979206978
21
176.0156850962
0
LINE
5
228
100
AcDbEntity
8
0
100
AcDbLine
62
7
6
CONTINUOUS
10
146.7103665865
20
176.0156850962
11
116.3603665865
21
176.0156850962
0
LINE
5
229
100
AcDbEntity
8
0
100
AcDbLine
62
7
6
CONTINUOUS
10
149.2834268395
20
176.0156850962
11
177.5103665865
21
176.0156850962
0
LINE
5
22A
100
AcDbEntity
8
0
100
AcDbLine
62
9
6
CONTINUOUS
10
211.1603665865
20
176.5156850962
11
179.5103665865
21
176.5156850962
0
LINE
5
22B
100
AcDbEntity
8
0
100
AcDbLine
62
9
6
CONTINUOUS
10
119.6548636104
20
176.5156850962
11
115.8603665865
21
176.5156850962
0
LINE
5
22C
100
AcDbEntity
8
0
100
AcDbLine
62
9
6
CONTINUOUS
10
115.8603665865
20
179.0156850962
11
211.1603665865
21
179.0156850962
0
LINE
5
22D
100
AcDbEntity
8
0
100
AcDbLine
62
7
6
CONTINUOUS
10
116.8603665865
20
180.0156850962
11
210.1603665865
21
180.0156850962
0
LINE
5
22E
100
AcDbEntity
8
0
100
AcDbLine
62
9
6
CONTINUOUS
10
210.1603665865
20
181.2461833659
11
205.1711049823
21
181.2461833659
0
LINE
5
22F
100
AcDbEntity
8
0
100
AcDbLine
62
9
6
CONTINUOUS
10
121.8496281908
20
181.2461833659
11
116.8603665865
21
181.2461833659
0
LINE
5
230
100
AcDbEntity
8
0
100
AcDbLine
62
7
6
CONTINUOUS
10
205.2153458536
20
186.3156850962
11
204.8603665865
21
186.3156850962
0
LINE
5
231
100
AcDbEntity
8
0
100
AcDbLine
62
7
6
CONTINUOUS
10
122.3603665865
20
186.3156850962
11
121.8053873195
21
186.3156850962
0
LINE
5
232
100
AcDbEntity
8
0
100
AcDbLine
62
9
6
CONTINUOUS
10
121.8010238856
20
186.8156850962
11
122.3603665865
21
186.8156850962
0
LINE
5
233
100
AcDbEntity
8
0
100
AcDbLine
62
9
6
CONTINUOUS
10
204.8603665865
20
186.8156850962
11
205.2197092875
21
186.8156850962
0
LINE
5
234
100
AcDbEntity
8
0
100
AcDbLine
62
7
6
CONTINUOUS
10
175.0103665865
20
151.6156850962
11
175.0103665865
21
174.5156850962
0
LINE
5
235
100
AcDbEntity
8
0
100
AcDbLine
62
9
6
CONTINUOUS
10
175.5103665865
20
174.4396234031
11
175.5103665865
21
151.2156850962
0
LINE
5
236
100
AcDbEntity
8
0
100
AcDbLine
62
9
6
CONTINUOUS
10
205.2929515574
20
195.2084179296
11
206.1728686795
21
195.2089851586
0
LINE
5
237
100
AcDbEntity
8
0
100
AcDbLine
62
7
6
CONTINUOUS
10
210.6603665865
20
193.3156850962
11
210.5987601683
21
193.3156850962
0
LINE
5
238
100
AcDbEntity
8
0
100
AcDbLine
62
7
6
CONTINUOUS
10
205.2764339282
20
193.3156850962
11
204.8603665865
21
193.3156850962
0
LINE
5
239
100
AcDbEntity
8
0
100
AcDbLine
62
7
6
CONTINUOUS
10
116.3603665865
20
193.3156850962
11
116.4219731618
21
193.3156850962
0
LINE
5
23A
100
AcDbEntity
8
0
100
AcDbLine
62
7
6
CONTINUOUS
10
121.7442992449
20
193.3156850962
11
122.3603665865
21
193.3156850962
0
LINE
5
23B
100
AcDbEntity
8
0
100
AcDbLine
62
9
6
CONTINUOUS
10
120.8595246911
20
195.2093745852
11
121.7277816157
21
195.2084179296
0
LINE
5
23C
100
AcDbEntity
8
0
100
AcDbLine
62
9
6
CONTINUOUS
10
177.5103665865
20
176.0156850962
11
177.5103665865
21
155.0680283797
0
LINE
5
23D
100
AcDbEntity
8
0
100
AcDbLine
62
7
6
CONTINUOUS
10
120.8604041945
20
196.0287501095
11
121.7206462928
21
196.0287501095
0
LINE
5
23E
100
AcDbEntity
8
0
100
AcDbLine
62
7
6
CONTINUOUS
10
205.3000868802
20
196.0287501095
11
206.1603320338
21
196.0287501095
0
LINE
5
23F
100
AcDbEntity
8
0
100
AcDbLine
62
7
6
CONTINUOUS
10
179.5103665865
20
175.2156850962
11
179.5103665865
21
156.9095669496
0
LINE
5
240
100
AcDbEntity
8
0
100
AcDbLine
62
7
6
CONTINUOUS
10
179.5103665865
20
176.5156850962
11
179.5103665865
21
179.0156850962
0
LINE
5
241
100
AcDbEntity
8
0
100
AcDbLine
62
9
6
CONTINUOUS
10
180.9225736677
20
154.0577250372
11
180.9225696178
21
153.0395708554
0
LINE
5
242
100
AcDbEntity
8
0
100
AcDbLine
62
9
6
CONTINUOUS
10
181.5103665865
20
155.2156850962
11
181.5103665865
21
154.9477359037
0
LINE
5
243
100
AcDbEntity
8
0
100
AcDbLine
62
9
6
CONTINUOUS
10
191.2603665865
20
155.2156850962
11
191.2603665865
21
152.6396234031
0
LINE
5
244
100
AcDbEntity
8
0
100
AcDbLine
62
7
6
CONTINUOUS
10
191.7603665865
20
154.7156850962
11
191.7603665865
21
152.7156850962
0
LINE
5
245
100
AcDbEntity
8
0
100
AcDbLine
62
9
6
CONTINUOUS
10
122.3603665865
20
213.0156850962
11
204.8603665865
21
213.0156850962
0
LINE
5
246
100
AcDbEntity
8
0
100
AcDbLine
62
7
6
CONTINUOUS
10
122.3603665865
20
216.0156850962
11
204.8603665865
21
216.0156850962
0
LINE
5
247
100
AcDbEntity
8
0
100
AcDbLine
62
7
6
CONTINUOUS
10
204.8603665865
20
180.0156850962
11
204.8603665865
21
216.0156850962
0
LINE
5
248
100
AcDbEntity
8
0
100
AcDbLine
62
7
6
CONTINUOUS
10
205.1603665865
20
180.0156850962
11
205.3001103925
21
196.0287391875
0
LINE
5
249
100
AcDbEntity
8
0
100
AcDbLine
62
9
6
CONTINUOUS
10
208.2912247486
20
179.0156850962
11
208.2912247486
21
176.5156850962
0
LINE
5
24A
100
AcDbEntity
8
0
100
AcDbLine
62
9
6
CONTINUOUS
10
210.1603665865
20
180.0156850962
11
210.1603665865
21
191.2084179296
0
LINE
5
24B
100
AcDbEntity
8
0
100
AcDbLine
62
9
6
CONTINUOUS
10
210.6603665865
20
193.3156850962
11
210.6603665865
21
193.1973266081
0
LINE
5
24C
100
AcDbEntity
8
0
100
AcDbLine
62
7
6
CONTINUOUS
10
211.1603665865
20
176.5156850962
11
211.1603665865
21
192.8156850962
0
LINE
5
24D
100
AcDbEntity
8
0
100
AcDbLine
62
7
6
CONTINUOUS
10
344.6970186601
20
151.2156850962
11
319.4047712786
21
151.2156850962
0
LINE
5
24E
100
AcDbEntity
8
0
100
AcDbLine
62
9
6
CONTINUOUS
10
345.7087941992
20
152.7156850962
11
318.3929957396
21
152.7156850962
0
LINE
5
24F
100
AcDbEntity
8
0
100
AcDbLine
62
9
6
CONTINUOUS
10
317.8988149843
20
152.6396234031
11
318.3929957396
21
152.7156850962
0
LINE
5
250
100
AcDbEntity
8
0
100
AcDbLine
62
9
6
CONTINUOUS
10
317.8372568387
20
153.0395730972
11
318.3314375940
21
153.1156347903
0
LINE
5
251
100
AcDbEntity
8
0
100
AcDbLine
62
9
6
CONTINUOUS
10
320.8671678452
20
154.7156850962
11
343.2346220935
21
154.7156850962
0
LINE
5
252
100
AcDbEntity
8
0
100
AcDbLine
62
7
6
CONTINUOUS
10
320.8671678452
20
155.2156850962
11
343.2346220935
21
155.2156850962
0
LINE
5
253
100
AcDbEntity
8
0
100
AcDbLine
62
9
6
CONTINUOUS
10
346.2029749544
20
152.6396234031
11
345.7087941992
21
152.7156850961
0
LINE
5
254
100
AcDbEntity
8
0
100
AcDbLine
62
9
6
CONTINUOUS
10
346.2645331000
20
153.0395730972
11
345.7703523448
21
153.1156347903
0
LINE
5
255
100
AcDbEntity
8
0
100
AcDbLine
62
9
6
CONTINUOUS
10
319.7953710755
20
157.2156850962
11
344.3064188632
21
157.2156850962
0
LINE
5
256
100
AcDbEntity
8
0
100
AcDbLine
62
9
6
CONTINUOUS
10
318.3256183492
20
154.0577218872
11
318.5756183492
21
153.6247091853
0
LINE
5
257
100
AcDbEntity
8
0
100
AcDbLine
62
9
6
CONTINUOUS
10
319.8671678452
20
154.9477359037
11
320.1171678452
21
154.5147232018
0
LINE
5
258
100
AcDbEntity
8
0
100
AcDbLine
62
9
6
CONTINUOUS
10
319.8363831299
20
155.9201775478
11
319.2651588925
21
156.9095669496
0
LINE
5
259
100
AcDbEntity
8
0
100
AcDbLine
62
7
6
CONTINUOUS
10
314.3008949694
20
176.0156850962
11
314.3008949694
21
179.0156850962
0
LINE
5
25A
100
AcDbEntity
8
0
100
AcDbLine
62
9
6
CONTINUOUS
10
343.9846220935
20
154.5147232018
11
345.5261715895
21
153.6247091853
0
LINE
5
25B
100
AcDbEntity
8
0
100
AcDbLine
62
7
6
CONTINUOUS
10
344.2346220935
20
154.9477359037
11
345.7761715895
21
154.0577218872
0
LINE
5
25C
100
AcDbEntity
8
0
100
AcDbLine
62
7
6
CONTINUOUS
10
317.9222290129
20
152.4875000169
11
314.3008949694
21
176.0156850962
0
LINE
5
25D
100
AcDbEntity
8
0
100
AcDbLine
62
9
6
CONTINUOUS
10
318.3929957396
20
152.7156850962
11
318.3314375940
21
153.1156347903
0
LINE
5
25E
100
AcDbEntity
8
0
100
AcDbLine
62
9
6
CONTINUOUS
10
315.5574943744
20
179.0156850962
11
315.5574943744
21
176.5156850962
0
LINE
5
25F
100
AcDbEntity
8
0
100
AcDbLine
62
7
6
CONTINUOUS
10
316.4008949694
20
213.0156850962
11
316.4008949694
21
180.0156850962
0
LINE
5
260
100
AcDbEntity
8
0
100
AcDbLine
62
9
6
CONTINUOUS
10
344.3064188632
20
157.2156850962
11
344.8366310463
21
156.9095669496
0
LINE
5
261
100
AcDbEntity
8
0
100
AcDbLine
62
9
6
CONTINUOUS
10
316.4475778243
20
175.2156850962
11
319.2651588925
21
156.9095669496
0
LINE
5
262
100
AcDbEntity
8
0
100
AcDbLine
62
9
6
CONTINUOUS
10
318.5546390392
20
176.0156850962
11
318.5546390392
21
180.0156850962
0
LINE
5
263
100
AcDbEntity
8
0
100
AcDbLine
62
9
6
CONTINUOUS
10
319.8400419911
20
180.0156850962
11
319.8400419855
21
179.0156851012
0
LINE
5
264
100
AcDbEntity
8
0
100
AcDbLine
62
7
6
CONTINUOUS
10
320.4008949694
20
210.5156850962
11
320.4008949694
21
199.3156850962
0
LINE
5
265
100
AcDbEntity
8
0
100
AcDbLine
62
9
6
CONTINUOUS
10
320.8671678452
20
155.2156850962
11
320.8671678452
21
154.7156850962
0
LINE
5
266
100
AcDbEntity
8
0
100
AcDbLine
62
7
6
CONTINUOUS
10
321.3156329973
20
181.2461833659
11
323.8657965631
21
195.2089821164
0
LINE
5
267
100
AcDbEntity
8
0
100
AcDbLine
62
9
6
CONTINUOUS
10
322.2993603347
20
181.0665155458
11
324.1188614299
21
191.0287501095
0
LINE
5
268
100
AcDbEntity
8
0
100
AcDbLine
62
9
6
CONTINUOUS
10
316.4475778243
20
175.2156850962
11
347.6542121145
21
175.2156850962
0
LINE
5
269
100
AcDbEntity
8
0
100
AcDbLine
62
7
6
CONTINUOUS
10
348.0851733334
20
176.0156850962
11
316.0166166053
21
176.0156850962
0
LINE
5
26A
100
AcDbEntity
8
0
100
AcDbLine
62
9
6
CONTINUOUS
10
348.5846974442
20
176.5156850962
11
315.5170924945
21
176.5156850962
0
LINE
5
26B
100
AcDbEntity
8
0
100
AcDbLine
62
9
6
CONTINUOUS
10
325.0508949694
20
184.7156850962
11
325.0508949694
21
194.0142334280
0
LINE
5
26C
100
AcDbEntity
8
0
100
AcDbLine
62
7
6
CONTINUOUS
10
326.0508949694
20
184.7156850962
11
326.0508949694
21
193.3156850962
0
LINE
5
26D
100
AcDbEntity
8
0
100
AcDbLine
62
9
6
CONTINUOUS
10
326.1848695656
20
193.3156850962
11
326.1848695656
21
194.0142334280
0
LINE
5
26E
100
AcDbEntity
8
0
100
AcDbLine
62
9
6
CONTINUOUS
10
326.5508949694
20
186.3156850962
11
326.5508949694
21
192.8156850962
0
LINE
5
26F
100
AcDbEntity
8
0
100
AcDbLine
62
7
6
CONTINUOUS
10
329.0508949694
20
187.2156850962
11
329.0423502589
21
187.2071403857
0
LINE
5
270
100
AcDbEntity
8
0
100
AcDbLine
62
9
6
CONTINUOUS
10
316.4475778243
20
175.2156850962
11
314.4708548033
21
174.9114383238
0
LINE
5
271
100
AcDbEntity
8
0
100
AcDbLine
62
9
6
CONTINUOUS
10
314.3008949694
20
179.0156850962
11
319.8400419911
21
179.0156850962
0
LINE
5
272
100
AcDbEntity
8
0
100
AcDbLine
62
9
6
CONTINUOUS
10
344.2617479476
20
179.0156850962
11
349.8008949694
21
179.0156850962
0
LINE
5
273
100
AcDbEntity
8
0
100
AcDbLine
62
9
6
CONTINUOUS
10
347.6542121145
20
175.2156850962
11
349.6309351359
21
174.9114383272
0
LINE
5
274
100
AcDbEntity
8
0
100
AcDbLine
62
9
6
CONTINUOUS
10
328.0508949694
20
186.8156850962
11
328.0508949856
21
186.3156850962
0
LINE
5
275
100
AcDbEntity
8
0
100
AcDbLine
62
9
6
CONTINUOUS
10
328.5508949694
20
187.3156850962
11
328.5508949694
21
189.8156850962
0
LINE
5
276
100
AcDbEntity
8
0
100
AcDbLine
62
7
6
CONTINUOUS
10
329.0508949694
20
184.7156850962
11
329.0508949694
21
188.8156850962
0
LINE
5
277
100
AcDbEntity
8
0
100
AcDbLine
62
9
6
CONTINUOUS
10
342.7861569415
20
181.2461833659
11
341.8024296079
21
181.0665155523
0
LINE
5
278
100
AcDbEntity
8
0
100
AcDbLine
62
7
6
CONTINUOUS
10
315.3008949694
20
180.0156850962
11
319.8400419911
21
180.0156850962
0
LINE
5
279
100
AcDbEntity
8
0
100
AcDbLine
62
7
6
CONTINUOUS
10
344.2617479476
20
180.0156850962
11
348.8008949694
21
180.0156850962
0
LINE
5
27A
100
AcDbEntity
8
0
100
AcDbLine
62
9
6
CONTINUOUS
10
321.3156329973
20
181.2461833659
11
322.2993603347
21
181.0665155458
0
LINE
5
27B
100
AcDbEntity
8
0
100
AcDbLine
62
9
6
CONTINUOUS
10
330.0508949694
20
184.7156850962
11
330.0508949694
21
189.2156850962
0
LINE
5
27C
100
AcDbEntity
8
0
100
AcDbLine
62
7
6
CONTINUOUS
10
337.2241000501
20
193.5156850962
11
338.3863436775
21
195.5287501095
0
LINE
5
27D
100
AcDbEntity
8
0
100
AcDbLine
62
9
6
CONTINUOUS
10
334.0508949694
20
184.7156850962
11
334.0508949694
21
189.2156850962
0
LINE
5
27E
100
AcDbEntity
8
0
100
AcDbLine
62
9
6
CONTINUOUS
10
335.0508949694
20
184.7156850962
11
334.0508949694
21
184.7156851012
0
LINE
5
27F
100
AcDbEntity
8
0
100
AcDbLine
62
9
6
CONTINUOUS
10
330.0508949694
20
184.7156850962
11
329.0508949694
21
184.7156851012
0
LINE
5
280
100
AcDbEntity
8
0
100
AcDbLine
62
9
6
CONTINUOUS
10
325.0508949694
20
184.7156850962
11
326.0508949694
21
184.7156850962
0
LINE
5
281
100
AcDbEntity
8
0
100
AcDbLine
62
9
6
CONTINUOUS
10
338.0508949694
20
184.7156850962
11
339.0508949694
21
184.7156850962
0
LINE
5
282
100
AcDbEntity
8
0
100
AcDbLine
62
7
6
CONTINUOUS
10
326.1008949694
20
186.0156850962
11
329.0508949694
21
186.0156850962
0
LINE
5
283
100
AcDbEntity
8
0
100
AcDbLine
62
7
6
CONTINUOUS
10
335.0508949694
20
186.0156850962
11
338.0008949694
21
186.0156850962
0
LINE
5
284
100
AcDbEntity
8
0
100
AcDbLine
62
7
6
CONTINUOUS
10
326.5508949694
20
186.3156850962
11
329.0508949694
21
186.3156850962
0
LINE
5
285
100
AcDbEntity
8
0
100
AcDbLine
62
7
6
CONTINUOUS
10
335.0508949694
20
186.3156850962
11
337.5508949694
21
186.3156850962
0
LINE
5
286
100
AcDbEntity
8
0
100
AcDbLine
62
7
6
CONTINUOUS
10
325.7154462613
20
195.5287501095
11
326.8776898886
21
193.5156850962
0
LINE
5
287
100
AcDbEntity
8
0
100
AcDbLine
62
7
6
CONTINUOUS
10
335.0508949694
20
188.8156850962
11
335.0508949694
21
184.7156850962
0
LINE
5
288
100
AcDbEntity
8
0
100
AcDbLine
62
9
6
CONTINUOUS
10
335.5508949694
20
189.8156850962
11
335.5508949694
21
187.3156850962
0
LINE
5
289
100
AcDbEntity
8
0
100
AcDbLine
62
9
6
CONTINUOUS
10
336.0508949694
20
186.8156850962
11
336.0508949694
21
186.3156850962
0
LINE
5
28A
100
AcDbEntity
8
0
100
AcDbLine
62
9
6
CONTINUOUS
10
335.1880810359
20
186.8156850962
11
335.0508949694
21
186.8156850962
0
LINE
5
28B
100
AcDbEntity
8
0
100
AcDbLine
62
9
6
CONTINUOUS
10
329.0508949694
20
186.8156850962
11
328.9137090465
21
186.8156850962
0
LINE
5
28C
100
AcDbEntity
8
0
100
AcDbLine
62
9
6
CONTINUOUS
10
326.0508949694
20
186.8156850962
11
328.0508949694
21
186.8156850962
0
LINE
5
28D
100
AcDbEntity
8
0
100
AcDbLine
62
9
6
CONTINUOUS
10
336.0508949694
20
186.8156850962
11
338.0508949694
21
186.8156850962
0
LINE
5
28E
100
AcDbEntity
8
0
100
AcDbLine
62
9
6
CONTINUOUS
10
335.5508949694
20
187.3156850962
11
335.0508949694
21
187.3156850799
0
LINE
5
28F
100
AcDbEntity
8
0
100
AcDbLine
62
9
6
CONTINUOUS
10
328.5508949694
20
187.3156850962
11
329.0508949694
21
187.3156850962
0
LINE
5
290
100
AcDbEntity
8
0
100
AcDbLine
62
9
6
CONTINUOUS
10
335.0508949694
20
188.2156850962
11
329.0508949694
21
188.2156850962
0
LINE
5
291
100
AcDbEntity
8
0
100
AcDbLine
62
7
6
CONTINUOUS
10
335.0594396516
20
187.2071404139
11
335.0508949694
21
187.2156850962
0
LINE
5
292
100
AcDbEntity
8
0
100
AcDbLine
62
9
6
CONTINUOUS
10
337.5508949694
20
186.3156850962
11
337.5508949694
21
192.8156850962
0
LINE
5
293
100
AcDbEntity
8
0
100
AcDbLine
62
9
6
CONTINUOUS
10
337.9169203732
20
193.3156850962
11
337.9169203732
21
194.0142334280
0
LINE
5
294
100
AcDbEntity
8
0
100
AcDbLine
62
7
6
CONTINUOUS
10
338.0508949694
20
184.7156850962
11
338.0508949694
21
193.3156850962
0
LINE
5
295
100
AcDbEntity
8
0
100
AcDbLine
62
9
6
CONTINUOUS
10
339.0508949694
20
184.7156850962
11
339.0508949694
21
194.0142334280
0
LINE
5
296
100
AcDbEntity
8
0
100
AcDbLine
62
9
6
CONTINUOUS
10
340.9666558463
20
191.2084179296
11
339.9829285089
21
191.0287501095
0
LINE
5
297
100
AcDbEntity
8
0
100
AcDbLine
62
7
6
CONTINUOUS
10
329.2539369361
20
189.2156850962
11
334.8478530026
21
189.2156850962
0
LINE
5
298
100
AcDbEntity
8
0
100
AcDbLine
62
7
6
CONTINUOUS
10
334.5508949694
20
189.3156850962
11
329.5508949694
21
189.3156850962
0
LINE
5
299
100
AcDbEntity
8
0
100
AcDbLine
62
9
6
CONTINUOUS
10
335.5508949694
20
189.8156850962
11
328.5508949694
21
189.8156850962
0
LINE
5
29A
100
AcDbEntity
8
0
100
AcDbLine
62
9
6
CONTINUOUS
10
324.1188614299
20
191.0287501095
11
326.0508949694
21
191.0287501095
0
LINE
5
29B
100
AcDbEntity
8
0
100
AcDbLine
62
9
6
CONTINUOUS
10
338.0508949694
20
191.0287501095
11
339.9829285089
21
191.0287501095
0
LINE
5
29C
100
AcDbEntity
8
0
100
AcDbLine
62
9
6
CONTINUOUS
10
323.1351340924
20
191.2084179296
11
324.1188614295
21
191.0287501074
0
LINE
5
29D
100
AcDbEntity
8
0
100
AcDbLine
62
9
6
CONTINUOUS
10
326.5508949694
20
192.8156850962
11
337.5508949694
21
192.8156850962
0
LINE
5
29E
100
AcDbEntity
8
0
100
AcDbLine
62
7
6
CONTINUOUS
10
326.0508949694
20
193.2156850962
11
326.0262700309
21
193.2156850962
0
LINE
5
29F
100
AcDbEntity
8
0
100
AcDbLine
62
7
6
CONTINUOUS
10
326.0508949694
20
193.3156850962
11
338.0508949694
21
193.3156850962
0
LINE
5
2A0
100
AcDbEntity
8
0
100
AcDbLine
62
9
6
CONTINUOUS
10
339.9829285089
20
191.0287501095
11
341.8024296040
21
181.0665155458
0
LINE
5
2A1
100
AcDbEntity
8
0
100
AcDbLine
62
7
6
CONTINUOUS
10
340.2359216952
20
195.2093745852
11
342.7861569415
21
181.2461833659
0
LINE
5
2A2
100
AcDbEntity
8
0
100
AcDbLine
62
9
6
CONTINUOUS
10
343.2346220935
20
155.2156850962
11
343.2346220935
21
154.7156850962
0
LINE
5
2A3
100
AcDbEntity
8
0
100
AcDbLine
62
7
6
CONTINUOUS
10
343.7008949694
20
199.3156850962
11
343.7008949694
21
210.5156850962
0
LINE
5
2A4
100
AcDbEntity
8
0
100
AcDbLine
62
9
6
CONTINUOUS
10
344.2617479476
20
180.0156850962
11
344.2617479476
21
179.0156850962
0
LINE
5
2A5
100
AcDbEntity
8
0
100
AcDbLine
62
9
6
CONTINUOUS
10
339.0508949694
20
194.0142334280
11
337.9169203732
21
194.0142334280
0
LINE
5
2A6
100
AcDbEntity
8
0
100
AcDbLine
62
9
6
CONTINUOUS
10
326.1848695656
20
194.0142334280
11
325.0508949694
21
194.0142334280
0
LINE
5
2A7
100
AcDbEntity
8
0
100
AcDbLine
62
7
6
CONTINUOUS
10
337.6859802655
20
194.3156850962
11
326.4158096733
21
194.3156850962
0
LINE
5
2A8
100
AcDbEntity
8
0
100
AcDbLine
62
7
6
CONTINUOUS
10
339.2523710084
20
196.0287501095
11
339.2522449449
21
196.0287501095
0
LINE
5
2A9
100
AcDbEntity
8
0
100
AcDbLine
62
9
6
CONTINUOUS
10
345.5471508995
20
176.0156850962
11
345.5471508995
21
180.0156850962
0
LINE
5
2AA
100
AcDbEntity
8
0
100
AcDbLine
62
7
6
CONTINUOUS
10
321.9008949694
20
197.8156850962
11
342.2008949694
21
197.8156850962
0
LINE
5
2AB
100
AcDbEntity
8
0
100
AcDbLine
62
7
6
CONTINUOUS
10
347.7008949694
20
180.0156850962
11
347.7008949694
21
213.0156850962
0
LINE
5
2AC
100
AcDbEntity
8
0
100
AcDbLine
62
9
6
CONTINUOUS
10
348.5442955643
20
176.5156850962
11
348.5442955643
21
179.0156850962
0
LINE
5
2AD
100
AcDbEntity
8
0
100
AcDbLine
62
9
6
CONTINUOUS
10
344.8366310463
20
156.9095669496
11
347.6542121145
21
175.2156850962
0
LINE
5
2AE
100
AcDbEntity
8
0
100
AcDbLine
62
9
6
CONTINUOUS
10
319.2651588925
20
156.9095669496
11
319.7953710755
21
157.2156850962
0
LINE
5
2AF
100
AcDbEntity
8
0
100
AcDbLine
62
7
6
CONTINUOUS
10
349.8008949694
20
176.0156850962
11
349.8008949694
21
179.0156850962
0
LINE
5
2B0
100
AcDbEntity
8
0
100
AcDbLine
62
9
6
CONTINUOUS
10
345.7703523448
20
153.1156347903
11
345.7087941992
21
152.7156850962
0
LINE
5
2B1
100
AcDbEntity
8
0
100
AcDbLine
62
7
6
CONTINUOUS
10
346.1795609258
20
152.4875000169
11
349.8008949694
21
176.0156850962
0
LINE
5
2B2
100
AcDbEntity
8
0
100
AcDbLine
62
7
6
CONTINUOUS
10
318.3256183492
20
154.0577218872
11
319.8671678452
21
154.9477359037
0
LINE
5
2B3
100
AcDbEntity
8
0
100
AcDbLine
62
9
6
CONTINUOUS
10
318.5756183492
20
153.6247091853
11
320.1171678452
21
154.5147232018
0
LINE
5
2B4
100
AcDbEntity
8
0
100
AcDbLine
62
9
6
CONTINUOUS
10
344.2654068088
20
155.9201775491
11
344.8366310463
21
156.9095669496
0
LINE
5
2B5
100
AcDbEntity
8
0
100
AcDbLine
62
9
6
CONTINUOUS
10
344.2346220935
20
154.9477359037
11
343.9846220935
21
154.5147232018
0
LINE
5
2B6
100
AcDbEntity
8
0
100
AcDbLine
62
9
6
CONTINUOUS
10
345.7761715895
20
154.0577218872
11
345.5261715895
21
153.6247091853
0
LINE
5
2B7
100
AcDbEntity
8
0
100
AcDbLine
62
7
6
CONTINUOUS
10
342.2008949694
20
212.0156850962
11
321.9008949694
21
212.0156850962
0
LINE
5
2B8
100
AcDbEntity
8
0
100
AcDbLine
62
7
6
CONTINUOUS
10
344.7008949694
20
216.0156850962
11
319.4008949694
21
216.0156850962
0
LINE
5
2B9
100
AcDbEntity
8
0
100
AcDbLine
62
7
6
CONTINUOUS
10
115.8603665865
20
72.0378430219
11
115.8603665865
21
99.0303548822
0
LINE
5
2BA
100
AcDbEntity
8
0
100
AcDbLine
62
9
6
CONTINUOUS
10
116.3603665865
20
91.5340989521
11
116.3603665865
21
79.5340989521
0
LINE
5
2BB
100
AcDbEntity
8
0
100
AcDbLine
62
9
6
CONTINUOUS
10
118.7731278118
20
101.0284513254
11
118.7295084315
21
102.0274995473
0
LINE
5
2BC
100
AcDbEntity
8
0
100
AcDbLine
62
7
6
CONTINUOUS
10
116.7506047693
20
78.9463023808
11
116.7506047693
21
79.6680735483
0
LINE
5
2BD
100
AcDbEntity
8
0
100
AcDbLine
62
7
6
CONTINUOUS
10
116.7506047693
20
91.4001243558
11
116.7506047693
21
92.1218955233
0
LINE
5
2BE
100
AcDbEntity
8
0
100
AcDbLine
62
9
6
CONTINUOUS
10
116.8495201229
20
78.5340989521
11
116.8495201229
21
79.6680735483
0
LINE
5
2BF
100
AcDbEntity
8
0
100
AcDbLine
62
9
6
CONTINUOUS
10
116.8495201229
20
91.4001243558
11
116.8495201229
21
92.5340989521
0
LINE
5
2C0
100
AcDbEntity
8
0
100
AcDbLine
62
9
6
CONTINUOUS
10
116.8603665865
20
99.0303548822
11
116.8603665865
21
94.4498598290
0
LINE
5
2C1
100
AcDbEntity
8
0
100
AcDbLine
62
9
6
CONTINUOUS
10
116.8603665865
20
76.6183380751
11
116.8603665865
21
72.0378430219
0
LINE
5
2C2
100
AcDbEntity
8
0
100
AcDbLine
62
9
6
CONTINUOUS
10
117.6524874373
20
90.7073040328
11
117.6524874373
21
90.6805091136
0
LINE
5
2C3
100
AcDbEntity
8
0
100
AcDbLine
62
9
6
CONTINUOUS
10
117.6524874373
20
80.3876887905
11
117.6524874373
21
80.3608938713
0
LINE
5
2C4
100
AcDbEntity
8
0
100
AcDbLine
62
9
6
CONTINUOUS
10
118.7731278118
20
70.0397465787
11
118.7295084244
21
69.0406983571
0
LINE
5
2C5
100
AcDbEntity
8
0
100
AcDbLine
62
7
6
CONTINUOUS
10
121.8496281908
20
74.7988369800
11
121.7277816157
21
77.3488975028
0
LINE
5
2C6
100
AcDbEntity
8
0
100
AcDbLine
62
7
6
CONTINUOUS
10
121.7425538714
20
90.7073040328
11
121.7249861191
21
91.8695476602
0
LINE
5
2C7
100
AcDbEntity
8
0
100
AcDbLine
62
7
6
CONTINUOUS
10
121.8603665865
20
97.7449519303
11
121.8603665865
21
91.5340989521
0
LINE
5
2C8
100
AcDbEntity
8
0
100
AcDbLine
62
7
6
CONTINUOUS
10
121.8603665865
20
79.5340989521
11
121.8603665865
21
73.3232459738
0
LINE
5
2C9
100
AcDbEntity
8
0
100
AcDbLine
62
7
6
CONTINUOUS
10
122.3603665865
20
69.8840989521
11
122.3603665865
21
101.1840989521
0
LINE
5
2CA
100
AcDbEntity
8
0
100
AcDbLine
62
7
6
CONTINUOUS
10
121.7249861191
20
79.1986502440
11
121.7425538714
21
80.3608938713
0
LINE
5
2CB
100
AcDbEntity
8
0
100
AcDbLine
62
7
6
CONTINUOUS
10
121.7277816157
20
93.7193004014
11
121.8496281908
21
96.2693609241
0
LINE
5
2CC
100
AcDbEntity
8
0
100
AcDbLine
62
7
6
CONTINUOUS
10
116.8475259360
20
79.9639229189
11
116.8477625794
21
79.9642460064
0
LINE
5
2CD
100
AcDbEntity
8
0
100
AcDbLine
62
7
6
CONTINUOUS
10
116.8473503503
20
91.1045134433
11
116.8472281084
21
91.1046801685
0
LINE
5
2CE
100
AcDbEntity
8
0
100
AcDbLine
62
7
6
CONTINUOUS
10
179.5103665865
20
67.7840989521
11
208.2912247486
21
69.0406983571
0
LINE
5
2CF
100
AcDbEntity
8
0
100
AcDbLine
62
9
6
CONTINUOUS
10
179.4885465089
20
68.7840989521
11
204.6826886122
21
69.8840989521
0
LINE
5
2D0
100
AcDbEntity
8
0
100
AcDbLine
62
9
6
CONTINUOUS
10
204.8600285274
20
69.8918417800
11
208.2476053613
21
70.0397465787
0
LINE
5
2D1
100
AcDbEntity
8
0
100
AcDbLine
62
7
6
CONTINUOUS
10
147.5103665865
20
67.7840989521
11
179.5103665865
21
67.7840989521
0
LINE
5
2D2
100
AcDbEntity
8
0
100
AcDbLine
62
9
6
CONTINUOUS
10
147.5321866642
20
68.7840989521
11
179.4885465089
21
68.7840989521
0
LINE
5
2D3
100
AcDbEntity
8
0
100
AcDbLine
62
7
6
CONTINUOUS
10
118.7295084244
20
69.0406983571
11
147.5103665865
21
67.7840989521
0
LINE
5
2D4
100
AcDbEntity
8
0
100
AcDbLine
62
9
6
CONTINUOUS
10
118.7731278118
20
70.0397465787
11
147.5321866642
21
68.7840989521
0
LINE
5
2D5
100
AcDbEntity
8
0
100
AcDbLine
62
7
6
CONTINUOUS
10
122.3603665865
20
69.8840989521
11
204.8603665865
21
69.8840989521
0
LINE
5
2D6
100
AcDbEntity
8
0
100
AcDbLine
62
9
6
CONTINUOUS
10
116.8603665865
20
72.0378430219
11
115.8603665865
21
72.0378430282
0
LINE
5
2D7
100
AcDbEntity
8
0
100
AcDbLine
62
9
6
CONTINUOUS
10
210.1603665865
20
72.0378430219
11
211.1603665865
21
72.0378430219
0
LINE
5
2D8
100
AcDbEntity
8
0
100
AcDbLine
62
9
6
CONTINUOUS
10
122.3603665865
20
72.8840989521
11
204.8603665865
21
72.8840989521
0
LINE
5
2D9
100
AcDbEntity
8
0
100
AcDbLine
62
9
6
CONTINUOUS
10
121.8603665865
20
73.3232459738
11
115.8603665865
21
73.3232459738
0
LINE
5
2DA
100
AcDbEntity
8
0
100
AcDbLine
62
9
6
CONTINUOUS
10
205.1603665865
20
73.3232459738
11
211.1603665865
21
73.3232459661
0
LINE
5
2DB
100
AcDbEntity
8
0
100
AcDbLine
62
9
6
CONTINUOUS
10
210.1603665865
20
74.7988369800
11
205.1711049823
21
74.7988369800
0
LINE
5
2DC
100
AcDbEntity
8
0
100
AcDbLine
62
9
6
CONTINUOUS
10
121.8496281908
20
74.7988369800
11
116.8603665865
21
74.7988369800
0
LINE
5
2DD
100
AcDbEntity
8
0
100
AcDbLine
62
9
6
CONTINUOUS
10
205.2929515574
20
77.3488975028
11
206.1728686795
21
77.3490011014
0
LINE
5
2DE
100
AcDbEntity
8
0
100
AcDbLine
62
9
6
CONTINUOUS
10
211.1603665865
20
78.5340989521
11
210.1712130502
21
78.5340989521
0
LINE
5
2DF
100
AcDbEntity
8
0
100
AcDbLine
62
9
6
CONTINUOUS
10
116.8495201229
20
78.5340989521
11
115.8603665865
21
78.5340989521
0
LINE
5
2E0
100
AcDbEntity
8
0
100
AcDbLine
62
9
6
CONTINUOUS
10
119.3813466408
20
79.1986502440
11
121.7249861191
21
79.1986502440
0
LINE
5
2E1
100
AcDbEntity
8
0
100
AcDbLine
62
9
6
CONTINUOUS
10
205.2957470539
20
79.1986502440
11
207.6393865323
21
79.1986502440
0
LINE
5
2E2
100
AcDbEntity
8
0
100
AcDbLine
62
9
6
CONTINUOUS
10
120.8595246911
20
77.3490722262
11
121.7277816157
21
77.3488975028
0
LINE
5
2E3
100
AcDbEntity
8
0
100
AcDbLine
62
7
6
CONTINUOUS
10
210.6603665865
20
79.5340989521
11
210.2701284038
21
79.5340989521
0
LINE
5
2E4
100
AcDbEntity
8
0
100
AcDbLine
62
7
6
CONTINUOUS
10
205.2755612414
20
79.5340989521
11
204.8603665865
21
79.5340989521
0
LINE
5
2E5
100
AcDbEntity
8
0
100
AcDbLine
62
7
6
CONTINUOUS
10
116.3603665865
20
79.5340989521
11
116.7506047693
21
79.5340989521
0
LINE
5
2E6
100
AcDbEntity
8
0
100
AcDbLine
62
7
6
CONTINUOUS
10
121.7451719317
20
79.5340989521
11
122.3603665865
21
79.5340989521
0
LINE
5
2E7
100
AcDbEntity
8
0
100
AcDbLine
62
9
6
CONTINUOUS
10
210.2701283601
20
79.6680735483
11
210.1712130502
21
79.6680735483
0
LINE
5
2E8
100
AcDbEntity
8
0
100
AcDbLine
62
9
6
CONTINUOUS
10
116.7506047693
20
79.6680735483
11
116.8495201229
21
79.6680735483
0
LINE
5
2E9
100
AcDbEntity
8
0
100
AcDbLine
62
9
6
CONTINUOUS
10
117.6524874373
20
80.3608938713
11
121.7425538714
21
80.3608938713
0
LINE
5
2EA
100
AcDbEntity
8
0
100
AcDbLine
62
9
6
CONTINUOUS
10
205.2781793017
20
80.3608938713
11
209.3682457358
21
80.3608938713
0
LINE
5
2EB
100
AcDbEntity
8
0
100
AcDbLine
62
7
6
CONTINUOUS
10
117.6524874373
20
80.3876887905
11
121.7434265580
21
80.3876887905
0
LINE
5
2EC
100
AcDbEntity
8
0
100
AcDbLine
62
7
6
CONTINUOUS
10
205.2773066150
20
80.3876887905
11
209.3682457358
21
80.3876887905
0
LINE
5
2ED
100
AcDbEntity
8
0
100
AcDbLine
62
7
6
CONTINUOUS
10
117.6524874373
20
90.6805091136
11
121.7434265581
21
90.6805091136
0
LINE
5
2EE
100
AcDbEntity
8
0
100
AcDbLine
62
7
6
CONTINUOUS
10
205.2773066150
20
90.6805091136
11
209.3682457358
21
90.6805091136
0
LINE
5
2EF
100
AcDbEntity
8
0
100
AcDbLine
62
9
6
CONTINUOUS
10
117.6524874373
20
90.7073040328
11
121.7425538714
21
90.7073040328
0
LINE
5
2F0
100
AcDbEntity
8
0
100
AcDbLine
62
9
6
CONTINUOUS
10
205.2781793017
20
90.7073040328
11
209.3682457358
21
90.7073040328
0
LINE
5
2F1
100
AcDbEntity
8
0
100
AcDbLine
62
9
6
CONTINUOUS
10
210.2701284038
20
91.4001243558
11
210.1712130502
21
91.4001243558
0
LINE
5
2F2
100
AcDbEntity
8
0
100
AcDbLine
62
9
6
CONTINUOUS
10
116.7506048130
20
91.4001243558
11
116.8495201229
21
91.4001243558
0
LINE
5
2F3
100
AcDbEntity
8
0
100
AcDbLine
62
7
6
CONTINUOUS
10
210.6603665865
20
91.5340989521
11
210.2701284038
21
91.5340989521
0
LINE
5
2F4
100
AcDbEntity
8
0
100
AcDbLine
62
7
6
CONTINUOUS
10
205.2755612414
20
91.5340989521
11
204.8603665865
21
91.5340989521
0
LINE
5
2F5
100
AcDbEntity
8
0
100
AcDbLine
62
7
6
CONTINUOUS
10
116.3603665865
20
91.5340989521
11
116.7506047693
21
91.5340989521
0
LINE
5
2F6
100
AcDbEntity
8
0
100
AcDbLine
62
7
6
CONTINUOUS
10
121.7451719317
20
91.5340989521
11
122.3603665865
21
91.5340989521
0
LINE
5
2F7
100
AcDbEntity
8
0
100
AcDbLine
62
9
6
CONTINUOUS
10
119.3813466408
20
91.8695476602
11
121.7249861191
21
91.8695476602
0
LINE
5
2F8
100
AcDbEntity
8
0
100
AcDbLine
62
9
6
CONTINUOUS
10
205.2957470539
20
91.8695476602
11
207.6393865323
21
91.8695476602
0
LINE
5
2F9
100
AcDbEntity
8
0
100
AcDbLine
62
9
6
CONTINUOUS
10
115.8603665865
20
92.5340989521
11
116.8495201229
21
92.5340989521
0
LINE
5
2FA
100
AcDbEntity
8
0
100
AcDbLine
62
9
6
CONTINUOUS
10
210.1712130502
20
92.5340989521
11
211.1603665865
21
92.5340989521
0
LINE
5
2FB
100
AcDbEntity
8
0
100
AcDbLine
62
9
6
CONTINUOUS
10
120.8552292572
20
93.7191973584
11
121.7277816157
21
93.7193004014
0
LINE
5
2FC
100
AcDbEntity
8
0
100
AcDbLine
62
9
6
CONTINUOUS
10
205.2929515574
20
93.7193004014
11
206.1721481392
21
93.7191961766
0
LINE
5
2FD
100
AcDbEntity
8
0
100
AcDbLine
62
9
6
CONTINUOUS
10
210.1603665865
20
96.2693609241
11
205.1711049823
21
96.2693609241
0
LINE
5
2FE
100
AcDbEntity
8
0
100
AcDbLine
62
9
6
CONTINUOUS
10
121.8496281908
20
96.2693609241
11
116.8603665865
21
96.2693609241
0
LINE
5
2FF
100
AcDbEntity
8
0
100
AcDbLine
62
9
6
CONTINUOUS
10
121.8603665865
20
97.7449519303
11
115.8603665865
21
97.7449519360
0
LINE
5
300
100
AcDbEntity
8
0
100
AcDbLine
62
9
6
CONTINUOUS
10
205.1603665865
20
97.7449519303
11
211.1603665865
21
97.7449519303
0
LINE
5
301
100
AcDbEntity
8
0
100
AcDbLine
62
9
6
CONTINUOUS
10
122.3603665865
20
98.1840989521
11
204.8603665865
21
98.1840989521
0
LINE
5
302
100
AcDbEntity
8
0
100
AcDbLine
62
9
6
CONTINUOUS
10
116.8603665865
20
99.0303548822
11
115.8603665865
21
99.0303548822
0
LINE
5
303
100
AcDbEntity
8
0
100
AcDbLine
62
9
6
CONTINUOUS
10
210.1603665865
20
99.0303548822
11
211.1603665865
21
99.0303548759
0
LINE
5
304
100
AcDbEntity
8
0
100
AcDbLine
62
7
6
CONTINUOUS
10
122.3603665865
20
101.1840989521
11
204.8603665865
21
101.1840989521
0
LINE
5
305
100
AcDbEntity
8
0
100
AcDbLine
62
9
6
CONTINUOUS
10
179.4885465089
20
102.2840989521
11
147.5321866642
21
102.2840989521
0
LINE
5
306
100
AcDbEntity
8
0
100
AcDbLine
62
9
6
CONTINUOUS
10
147.5321866642
20
102.2840989521
11
118.7731278118
21
101.0284513254
0
LINE
5
307
100
AcDbEntity
8
0
100
AcDbLine
62
7
6
CONTINUOUS
10
147.5103665865
20
103.2840989521
11
118.7295084244
21
102.0274995470
0
LINE
5
308
100
AcDbEntity
8
0
100
AcDbLine
62
7
6
CONTINUOUS
10
179.5103665865
20
103.2840989521
11
147.5103665865
21
103.2840989521
0
LINE
5
309
100
AcDbEntity
8
0
100
AcDbLine
62
9
6
CONTINUOUS
10
208.2476053613
20
101.0284513254
11
204.8600285274
21
101.1763561241
0
LINE
5
30A
100
AcDbEntity
8
0
100
AcDbLine
62
9
6
CONTINUOUS
10
204.6826886122
20
101.1840989521
11
179.4885465089
21
102.2840989521
0
LINE
5
30B
100
AcDbEntity
8
0
100
AcDbLine
62
7
6
CONTINUOUS
10
208.2912247486
20
102.0274995470
11
179.5103665865
21
103.2840989521
0
LINE
5
30C
100
AcDbEntity
8
0
100
AcDbLine
62
7
6
CONTINUOUS
10
210.1732072371
20
91.1042749852
11
210.1729705937
21
91.1039518977
0
LINE
5
30D
100
AcDbEntity
8
0
100
AcDbLine
62
7
6
CONTINUOUS
10
210.1733828228
20
79.9636844608
11
210.1735050647
21
79.9635177356
0
LINE
5
30E
100
AcDbEntity
8
0
100
AcDbLine
62
7
6
CONTINUOUS
10
205.2929515574
20
93.7193004014
11
205.1711049823
21
96.2693609241
0
LINE
5
30F
100
AcDbEntity
8
0
100
AcDbLine
62
9
6
CONTINUOUS
10
208.2476053613
20
70.0397465787
11
208.2912247416
21
69.0406983568
0
LINE
5
310
100
AcDbEntity
8
0
100
AcDbLine
62
7
6
CONTINUOUS
10
205.2957470539
20
79.1986502440
11
205.2781793017
21
80.3608938713
0
LINE
5
311
100
AcDbEntity
8
0
100
AcDbLine
62
7
6
CONTINUOUS
10
204.8603665865
20
69.8840989521
11
204.8603665865
21
101.1840989521
0
LINE
5
312
100
AcDbEntity
8
0
100
AcDbLine
62
7
6
CONTINUOUS
10
205.1603665865
20
73.3232459738
11
205.1603665865
21
79.5340989521
0
LINE
5
313
100
AcDbEntity
8
0
100
AcDbLine
62
7
6
CONTINUOUS
10
205.1603665865
20
91.5340989521
11
205.1603665865
21
97.7449519303
0
LINE
5
314
100
AcDbEntity
8
0
100
AcDbLine
62
7
6
CONTINUOUS
10
205.2781793017
20
90.7073040328
11
205.2957470539
21
91.8695476602
0
LINE
5
315
100
AcDbEntity
8
0
100
AcDbLine
62
9
6
CONTINUOUS
10
208.2476053613
20
101.0284513254
11
208.2912247486
21
102.0274995470
0
LINE
5
316
100
AcDbEntity
8
0
100
AcDbLine
62
7
6
CONTINUOUS
10
205.1711049823
20
74.7988369800
11
205.2929515574
21
77.3488975028
0
LINE
5
317
100
AcDbEntity
8
0
100
AcDbLine
62
9
6
CONTINUOUS
10
209.3682457358
20
80.3608938713
11
209.3682457358
21
80.3876887905
0
LINE
5
318
100
AcDbEntity
8
0
100
AcDbLine
62
9
6
CONTINUOUS
10
209.3682457358
20
90.6805091136
11
209.3682457358
21
90.7073040328
0
LINE
5
319
100
AcDbEntity
8
0
100
AcDbLine
62
9
6
CONTINUOUS
10
210.1603665865
20
72.0378430219
11
210.1603665865
21
76.6183380751
0
LINE
5
31A
100
AcDbEntity
8
0
100
AcDbLine
62
9
6
CONTINUOUS
10
210.1603665865
20
94.4498598290
11
210.1603665865
21
99.0303548822
0
LINE
5
31B
100
AcDbEntity
8
0
100
AcDbLine
62
9
6
CONTINUOUS
10
210.1712130502
20
92.5340989521
11
210.1712130502
21
91.4001243558
0
LINE
5
31C
100
AcDbEntity
8
0
100
AcDbLine
62
9
6
CONTINUOUS
10
210.1712130502
20
79.6680735483
11
210.1712130502
21
78.5340989521
0
LINE
5
31D
100
AcDbEntity
8
0
100
AcDbLine
62
7
6
CONTINUOUS
10
210.2701284038
20
92.1218955233
11
210.2701284038
21
91.4001243558
0
LINE
5
31E
100
AcDbEntity
8
0
100
AcDbLine
62
7
6
CONTINUOUS
10
210.2701284038
20
79.6680735483
11
210.2701284038
21
78.9463023808
0
LINE
5
31F
100
AcDbEntity
8
0
100
AcDbLine
62
9
6
CONTINUOUS
10
210.6603665865
20
79.5340989521
11
210.6603665865
21
91.5340989521
0
LINE
5
320
100
AcDbEntity
8
0
100
AcDbLine
62
7
6
CONTINUOUS
10
211.1603665865
20
72.0378430219
11
211.1603665865
21
79.8751031493
0
LINE
5
321
100
AcDbEntity
8
0
100
AcDbLine
62
7
6
CONTINUOUS
10
211.1603665865
20
80.0340989521
11
211.1603665865
21
99.0303548822
0
ARC
5
322
100
AcDbEntity
8
0
100
AcDbCircle
62
7
6
CONTINUOUS
10
210.6603665865
20
192.8156850962
40
0.5000000000
100
AcDbArc
50
0.0000000000
51
90.0000000000
0
ARC
5
323
100
AcDbEntity
8
0
100
AcDbCircle
62
7
6
CONTINUOUS
10
116.3603665865
20
192.8156850962
40
0.5000000000
100
AcDbArc
50
90.0000000000
51
180.0000000000
0
ARC
5
324
100
AcDbEntity
8
0
100
AcDbCircle
62
7
6
CONTINUOUS
10
210.1603665865
20
179.0156850962
40
1.0000000000
100
AcDbArc
50
0.0000000000
51
90.0000000000
0
ARC
5
325
100
AcDbEntity
8
0
100
AcDbCircle
62
7
6
CONTINUOUS
10
116.8603665865
20
179.0156850962
40
1.0000000000
100
AcDbArc
50
90.0000000000
51
180.0000000000
0
ARC
5
326
100
AcDbEntity
8
0
100
AcDbCircle
62
7
6
CONTINUOUS
10
191.2603665865
20
154.7156850962
40
0.5000000000
100
AcDbArc
50
0.0000000000
51
90.0000000000
0
ARC
5
327
100
AcDbEntity
8
0
100
AcDbCircle
62
7
6
CONTINUOUS
10
153.5103665865
20
174.5156850962
40
1.5000000000
100
AcDbArc
50
90.0000000000
51
180.0000000000
0
ARC
5
328
100
AcDbEntity
8
0
100
AcDbCircle
62
7
6
CONTINUOUS
10
173.5103665865
20
174.5156850962
40
1.5000000000
100
AcDbArc
50
0.0000000000
51
90.0000000000
0
ARC
5
329
100
AcDbEntity
8
0
100
AcDbCircle
62
7
6
CONTINUOUS
10
146.7103665865
20
175.2156850962
40
0.8000000000
100
AcDbArc
50
0.0000000000
51
90.0000000000
0
ARC
5
32A
100
AcDbEntity
8
0
100
AcDbCircle
62
7
6
CONTINUOUS
10
175.5103665865
20
151.7156850962
40
0.5000000000
100
AcDbArc
50
180.0000000000
51
270.0000000000
0
ARC
5
32B
100
AcDbEntity
8
0
100
AcDbCircle
62
7
6
CONTINUOUS
10
151.5103665865
20
151.7156850962
40
0.5000000000
100
AcDbArc
50
270.0000000000
51
360.0000000000
0
ARC
5
32C
100
AcDbEntity
8
0
100
AcDbCircle
62
7
6
CONTINUOUS
10
180.3103067969
20
175.2156850962
40
0.7999829172
100
AcDbArc
50
89.9957178823
51
180.0000000000
0
ARC
5
32D
100
AcDbEntity
8
0
100
AcDbCircle
62
7
6
CONTINUOUS
10
145.5103665865
20
157.2156850962
40
2.0000000000
100
AcDbArc
50
270.0000000000
51
354.1579313517
0
ARC
5
32E
100
AcDbEntity
8
0
100
AcDbCircle
62
7
6
CONTINUOUS
10
116.3603665865
20
176.5156850962
40
0.5000000000
100
AcDbArc
50
180.0000000000
51
270.0000000000
0
ARC
5
32F
100
AcDbEntity
8
0
100
AcDbCircle
62
7
6
CONTINUOUS
10
181.5103665865
20
157.2156850962
40
2.0000000000
100
AcDbArc
50
185.8176938806
51
270.0000000000
0
ARC
5
330
100
AcDbEntity
8
0
100
AcDbCircle
62
7
6
CONTINUOUS
10
210.6603665865
20
176.5156850962
40
0.5000000000
100
AcDbArc
50
270.0000000000
51
360.0000000000
0
ARC
5
331
100
AcDbEntity
8
0
100
AcDbCircle
62
7
6
CONTINUOUS
10
175.4103665865
20
151.6156850962
40
0.4000000000
100
AcDbArc
50
180.0000000000
51
270.0000000000
0
ARC
5
332
100
AcDbEntity
8
0
100
AcDbCircle
62
7
6
CONTINUOUS
10
206.1603665865
20
191.0287501095
40
5.0000000000
100
AcDbArc
50
0.0000000000
51
89.9916044110
0
ARC
5
333
100
AcDbEntity
8
0
100
AcDbCircle
62
7
6
CONTINUOUS
10
120.8603665865
20
191.0287501095
40
5.0000000000
100
AcDbArc
50
89.9952757654
51
180.0000000000
0
ARC
5
334
100
AcDbEntity
8
0
100
AcDbCircle
62
7
6
CONTINUOUS
10
190.2603665865
20
152.7156850962
40
1.5000000000
100
AcDbArc
50
270.0000000000
51
360.0000000000
0
ARC
5
335
100
AcDbEntity
8
0
100
AcDbCircle
62
7
6
CONTINUOUS
10
135.7603665865
20
154.7156850962
40
0.5000000000
100
AcDbArc
50
90.0000000000
51
180.0000000000
0
ARC
5
336
100
AcDbEntity
8
0
100
AcDbCircle
62
7
6
CONTINUOUS
10
136.7603665865
20
152.7156850962
40
1.5000000000
100
AcDbArc
50
180.0000000000
51
270.0000000000
0
ARC
5
337
100
AcDbEntity
8
0
100
AcDbCircle
62
7
6
CONTINUOUS
10
336.0508949694
20
187.3156850962
40
1.0000000000
100
AcDbArc
50
180.0000000000
51
270.0000000000
0
ARC
5
338
100
AcDbEntity
8
0
100
AcDbCircle
62
7
6
CONTINUOUS
10
328.0508949694
20
187.3156850962
40
1.0000000000
100
AcDbArc
50
270.0000000000
51
360.0000000000
0
ARC
5
339
100
AcDbEntity
8
0
100
AcDbCircle
62
7
6
CONTINUOUS
10
334.5508949694
20
188.8156850962
40
0.5000000000
100
AcDbArc
50
0.0000000000
51
90.0000000000
0
ARC
5
33A
100
AcDbEntity
8
0
100
AcDbCircle
62
7
6
CONTINUOUS
10
329.5508161640
20
188.8157639015
40
0.4999605973
100
AcDbArc
50
89.9909681503
51
180.0090318497
0
ARC
5
33B
100
AcDbEntity
8
0
100
AcDbCircle
62
7
6
CONTINUOUS
10
326.5508949694
20
186.8156850962
40
0.5000000000
100
AcDbArc
50
180.0000000000
51
270.0000000000
0
ARC
5
33C
100
AcDbEntity
8
0
100
AcDbCircle
62
7
6
CONTINUOUS
10
337.5508949694
20
186.8156850962
40
0.5000000000
100
AcDbArc
50
270.0000000000
51
360.0000000000
0
ARC
5
33D
100
AcDbEntity
8
0
100
AcDbCircle
62
9
6
CONTINUOUS
10
336.0508949694
20
187.3156850962
40
0.4999905080
100
AcDbArc
50
180.0000000000
51
270.0000000000
0
ARC
5
33E
100
AcDbEntity
8
0
100
AcDbCircle
62
9
6
CONTINUOUS
10
328.0508949694
20
187.3156850962
40
0.4999905080
100
AcDbArc
50
270.0000000000
51
360.0000000000
0
ARC
5
33F
100
AcDbEntity
8
0
100
AcDbCircle
62
7
6
CONTINUOUS
10
338.0008949694
20
186.8156850962
40
0.8000000000
100
AcDbArc
50
270.0000000000
51
273.5959620342
0
ARC
5
340
100
AcDbEntity
8
0
100
AcDbCircle
62
7
6
CONTINUOUS
10
326.1008949694
20
186.8156850962
40
0.8000000000
100
AcDbArc
50
266.4040379658
51
270.0000000000
0
ARC
5
341
100
AcDbEntity
8
0
100
AcDbCircle
62
7
6
CONTINUOUS
10
321.9008949694
20
210.5156850962
40
1.5000000000
100
AcDbArc
50
90.0000000000
51
180.0000000000
0
ARC
5
342
100
AcDbEntity
8
0
100
AcDbCircle
62
7
6
CONTINUOUS
10
342.2008949694
20
210.5156850962
40
1.5000000000
100
AcDbArc
50
0.0000000000
51
90.0000000000
0
ARC
5
343
100
AcDbEntity
8
0
100
AcDbCircle
62
7
6
CONTINUOUS
10
342.2008949694
20
199.3156850962
40
1.5000000000
100
AcDbArc
50
270.0000000000
51
360.0000000000
0
ARC
5
344
100
AcDbEntity
8
0
100
AcDbCircle
62
7
6
CONTINUOUS
10
321.9008949694
20
199.3156850962
40
1.5000000000
100
AcDbArc
50
180.0000000000
51
270.0000000000
0
ARC
5
345
100
AcDbEntity
8
0
100
AcDbCircle
62
7
6
CONTINUOUS
10
319.4008949694
20
213.0156850962
40
3.0000000000
100
AcDbArc
50
90.0000000000
51
180.0000000000
0
ARC
5
346
100
AcDbEntity
8
0
100
AcDbCircle
62
7
6
CONTINUOUS
10
344.7008949694
20
213.0156850962
40
3.0000000000
100
AcDbArc
50
0.0000000000
51
90.0000000000
0
CIRCLE
5
347
100
AcDbEntity
8
0
100
AcDbCircle
62
7
6
CONTINUOUS
10
341.0508949694
20
165.7956850962
40
2.6000000000
0
CIRCLE
5
348
100
AcDbEntity
8
0
100
AcDbCircle
62
7
6
CONTINUOUS
10
323.0508949694
20
165.7956850962
40
2.6000000000
0
ARC
5
349
100
AcDbEntity
8
0
100
AcDbCircle
62
7
6
CONTINUOUS
10
315.3008949694
20
179.0156850962
40
1.0000000000
100
AcDbArc
50
90.0000000000
51
180.0000000000
0
ARC
5
34A
100
AcDbEntity
8
0
100
AcDbCircle
62
7
6
CONTINUOUS
10
348.8008949694
20
179.0156850962
40
1.0000000000
100
AcDbArc
50
0.0000000000
51
90.0000000000
0
ARC
5
34B
100
AcDbEntity
8
0
100
AcDbCircle
62
7
6
CONTINUOUS
10
348.0851733334
20
178.0156850962
40
2.0000000000
100
AcDbArc
50
270.0000000000
51
321.8946767304
0
ARC
5
34C
100
AcDbEntity
8
0
100
AcDbCircle
62
7
6
CONTINUOUS
10
316.0166166053
20
178.0156850962
40
2.0000000000
100
AcDbArc
50
218.1053232693
51
270.0000000000
0
ARC
5
34D
100
AcDbEntity
8
0
100
AcDbCircle
62
7
6
CONTINUOUS
10
336.5508949694
20
184.7156850962
40
1.5000000000
100
AcDbArc
50
180.0000000000
51
360.0000000000
0
ARC
5
34E
100
AcDbEntity
8
0
100
AcDbCircle
62
7
6
CONTINUOUS
10
327.5508949694
20
184.7156850962
40
1.5000000000
100
AcDbArc
50
180.0000000000
51
360.0000000000
0
ARC
5
34F
100
AcDbEntity
8
0
100
AcDbCircle
62
7
6
CONTINUOUS
10
319.8400419911
20
181.5156850962
40
1.5000000000
100
AcDbArc
50
270.0000000000
51
349.6495881282
0
ARC
5
350
100
AcDbEntity
8
0
100
AcDbCircle
62
7
6
CONTINUOUS
10
324.8494208575
20
195.0287501095
40
1.0000000000
100
AcDbArc
50
30.0000000000
51
169.6495881282
0
ARC
5
351
100
AcDbEntity
8
0
100
AcDbCircle
62
7
6
CONTINUOUS
10
344.2617479476
20
181.5156850962
40
1.5000000000
100
AcDbArc
50
190.3504118718
51
270.0000000000
0
ARC
5
352
100
AcDbEntity
8
0
100
AcDbCircle
62
7
6
CONTINUOUS
10
339.2523690812
20
195.0287501095
40
1.0000000000
100
AcDbArc
50
10.3504118718
51
150.0000000000
0
ARC
5
353
100
AcDbEntity
8
0
100
AcDbCircle
62
7
6
CONTINUOUS
10
326.7044848079
20
193.4156850962
40
0.2000000000
100
AcDbArc
50
330.0000000000
51
30.0000000000
0
ARC
5
354
100
AcDbEntity
8
0
100
AcDbCircle
62
7
6
CONTINUOUS
10
337.3973051309
20
193.4156850962
40
0.2000000000
100
AcDbArc
50
150.0000000000
51
210.0000000000
0
ARC
5
355
100
AcDbEntity
8
0
100
AcDbCircle
62
7
6
CONTINUOUS
10
344.6970186601
20
152.7156850962
40
1.5000000000
100
AcDbArc
50
270.0000000000
51
351.2500000000
0
ARC
5
356
100
AcDbEntity
8
0
100
AcDbCircle
62
7
6
CONTINUOUS
10
319.4047712786
20
152.7156850962
40
1.5000000000
100
AcDbArc
50
188.7500000000
51
270.0000000000
0
ARC
5
357
100
AcDbEntity
8
0
100
AcDbCircle
62
7
6
CONTINUOUS
10
318.8256183492
20
153.1916964834
40
1.0000000000
100
AcDbArc
50
120.0000000000
51
188.7500000000
0
ARC
5
358
100
AcDbEntity
8
0
100
AcDbCircle
62
7
6
CONTINUOUS
10
345.2761715895
20
153.1916964834
40
1.0000000000
100
AcDbArc
50
351.2500000000
51
60.0000000000
0
ARC
5
359
100
AcDbEntity
8
0
100
AcDbCircle
62
7
6
CONTINUOUS
10
320.8671678452
20
153.2156850962
40
2.0000000000
100
AcDbArc
50
90.0000000000
51
120.0000000000
0
ARC
5
35A
100
AcDbEntity
8
0
100
AcDbCircle
62
7
6
CONTINUOUS
10
343.2346220935
20
153.2156850962
40
2.0000000000
100
AcDbArc
50
60.0000000000
51
90.0000000000
0
ARC
5
35B
100
AcDbEntity
8
0
100
AcDbCircle
62
9
6
CONTINUOUS
10
336.5508949694
20
184.7156850962
40
2.4999901623
100
AcDbArc
50
180.0000000000
51
360.0000000000
0
ARC
5
35C
100
AcDbEntity
8
0
100
AcDbCircle
62
9
6
CONTINUOUS
10
327.5508949694
20
184.7156850962
40
2.4999739404
100
AcDbArc
50
180.0000000000
51
360.0000000000
0
ARC
5
35D
100
AcDbEntity
8
0
100
AcDbCircle
62
9
6
CONTINUOUS
10
319.8400419911
20
181.5156850962
40
2.4999959821
100
AcDbArc
50
270.0000000000
51
349.6495881282
0
ARC
5
35E
100
AcDbEntity
8
0
100
AcDbCircle
62
9
6
CONTINUOUS
10
344.2617479476
20
181.5156850962
40
2.4999959821
100
AcDbArc
50
190.3504118718
51
270.0000000000
0
ARC
5
35F
100
AcDbEntity
8
0
100
AcDbCircle
62
9
6
CONTINUOUS
10
318.8256183492
20
153.1916964834
40
0.4999996765
100
AcDbArc
50
120.0000000000
51
188.7500000000
0
ARC
5
360
100
AcDbEntity
8
0
100
AcDbCircle
62
9
6
CONTINUOUS
10
345.2761715895
20
153.1916964834
40
0.4999996508
100
AcDbArc
50
351.2500000000
51
60.0000000000
0
ARC
5
361
100
AcDbEntity
8
0
100
AcDbCircle
62
9
6
CONTINUOUS
10
320.8671678452
20
153.2156850962
40
1.5000046857
100
AcDbArc
50
90.0000000000
51
120.0000000000
0
ARC
5
362
100
AcDbEntity
8
0
100
AcDbCircle
62
9
6
CONTINUOUS
10
343.2346220935
20
153.2156850962
40
1.5000046857
100
AcDbArc
50
60.0000000000
51
90.0000000000
0
ARC
5
363
100
AcDbEntity
8
0
100
AcDbCircle
62
7
6
CONTINUOUS
10
210.6603665865
20
91.0340989521
40
0.5000000000
100
AcDbArc
50
0.0000000000
51
90.0000000000
0
ARC
5
364
100
AcDbEntity
8
0
100
AcDbCircle
62
7
6
CONTINUOUS
10
210.6603665865
20
80.0340989521
40
0.5000000000
100
AcDbArc
50
270.0000000000
51
360.0000000000
0
ARC
5
365
100
AcDbEntity
8
0
100
AcDbCircle
62
7
6
CONTINUOUS
10
116.3603665865
20
80.0340989521
40
0.5000000000
100
AcDbArc
50
180.0000000000
51
270.0000000000
0
ARC
5
366
100
AcDbEntity
8
0
100
AcDbCircle
62
7
6
CONTINUOUS
10
116.3603665865
20
91.0340989521
40
0.5000000000
100
AcDbArc
50
90.0000000000
51
180.0000000000
0
ARC
5
367
100
AcDbEntity
8
0
100
AcDbCircle
62
7
6
CONTINUOUS
10
210.1603665865
20
78.5340989521
40
1.0000000000
100
AcDbArc
50
0.0000000000
51
81.0000000000
0
ARC
5
368
100
AcDbEntity
8
0
100
AcDbCircle
62
7
6
CONTINUOUS
10
210.1603665865
20
92.5340989521
40
1.0000000000
100
AcDbArc
50
279.0000000000
51
360.0000000000
0
ARC
5
369
100
AcDbEntity
8
0
100
AcDbCircle
62
7
6
CONTINUOUS
10
116.8603665865
20
78.5340989521
40
1.0000000000
100
AcDbArc
50
98.9999532711
51
180.0000000000
0
ARC
5
36A
100
AcDbEntity
8
0
100
AcDbCircle
62
7
6
CONTINUOUS
10
116.8603665865
20
92.5340989521
40
1.0000000000
100
AcDbArc
50
180.0000000000
51
261.0000545002
0
ARC
5
36B
100
AcDbEntity
8
0
100
AcDbCircle
62
7
6
CONTINUOUS
10
208.1603665865
20
99.0303548822
40
3.0000000000
100
AcDbArc
50
0.0000000000
51
87.5000000000
0
ARC
5
36C
100
AcDbEntity
8
0
100
AcDbCircle
62
7
6
CONTINUOUS
10
118.8603665865
20
99.0303548822
40
3.0000000000
100
AcDbArc
50
92.5000000000
51
180.0000000000
0
ARC
5
36D
100
AcDbEntity
8
0
100
AcDbCircle
62
7
6
CONTINUOUS
10
208.1603665865
20
72.0378430219
40
3.0000000000
100
AcDbArc
50
272.5000000000
51
360.0000000000
0
ARC
5
36E
100
AcDbEntity
8
0
100
AcDbCircle
62
7
6
CONTINUOUS
10
118.8603665865
20
72.0378430219
40
3.0000000000
100
AcDbArc
50
180.0000000000
51
267.5000000000
0
ARC
5
36F
100
AcDbEntity
8
0
100
AcDbCircle
62
9
6
CONTINUOUS
10
208.1603665865
20
99.0303548822
40
1.9999985661
100
AcDbArc
50
0.0000000000
51
87.5000000000
0
ARC
5
370
100
AcDbEntity
8
0
100
AcDbCircle
62
9
6
CONTINUOUS
10
118.8603665865
20
99.0303548822
40
1.9999985661
100
AcDbArc
50
92.5000000000
51
180.0000000000
0
ARC
5
371
100
AcDbEntity
8
0
100
AcDbCircle
62
9
6
CONTINUOUS
10
208.1603665865
20
72.0378430219
40
1.9999985661
100
AcDbArc
50
272.5000000000
51
360.0000000000
0
ARC
5
372
100
AcDbEntity
8
0
100
AcDbCircle
62
9
6
CONTINUOUS
10
118.8603665865
20
72.0378430219
40
1.9999985661
100
AcDbArc
50
180.0000000000
51
267.5000000000
0
SPLINE
5
373
100
AcDbEntity
8
0
100
AcDbSpline
62
7
6
CONTINUOUS
70
0
71
3
72
13
73
9
74
7
42
0.0000001000
43
0.0000001000
44
0.0000000001
12
-26.9753303121
22
-2.0030516404
32
0.0000000000
13
-27.0495963244
23
0.0000708278
33
0.0000000000
40
0.0000000000
40
0.0000000000
40
0.0000000000
40
0.0000000000
40
0.1314521836
40
0.2751889145
40
0.4328058834
40
0.6058858237
40
0.7951307038
40
1.0000000000
40
1.0000000000
40
1.0000000000
40
1.0000000000
10
146.7103665288
20
176.7814671252
30
0.0000000000
10
145.5283778380
20
176.6936986212
30
0.0000000000
10
143.0516829003
20
176.5402803013
30
0.0000000000
10
139.1533585105
20
176.3597924135
30
0.0000000000
10
134.8779901393
20
176.2143288681
30
0.0000000000
10
130.1911462297
20
176.1038206499
30
0.0000000000
10
125.0774512773
20
176.0322614678
30
0.0000000000
10
121.5238838916
20
176.0156802593
30
0.0000000000
10
119.6766733041
20
176.0156850962
30
0.0000000000
11
146.7103665288
21
176.7814671252
31
0.0000000000
11
143.1617967741
21
176.5559502196
31
0.0000000000
11
139.2780758724
21
176.3731504665
31
0.0000000000
11
135.0171359312
21
176.2261363801
31
0.0000000000
11
130.3367270279
21
176.1143978337
31
0.0000000000
11
125.2182431831
21
176.0418741827
31
0.0000000000
11
119.6766733041
21
176.0156850962
31
0.0000000000
0
SPLINE
5
374
100
AcDbEntity
8
0
100
AcDbSpline
62
9
6
CONTINUOUS
70
0
71
3
72
11
73
7
74
5
42
0.0000001000
43
0.0000001000
44
0.0000000001
12
0.5135515042
22
0.0000000000
32
0.0000000000
13
0.0000000000
23
0.5135515042
33
0.0000000000
40
0.0000000000
40
0.0000000000
40
0.0000000000
40
0.0000000000
40
0.3727557855
40
0.6902458352
40
0.9066990775
40
1.0000000000
40
1.0000000000
40
1.0000000000
40
1.0000000000
10
151.5103665865
20
152.4875000169
30
0.0000000000
10
151.5741763513
20
152.4875000169
30
0.0000000000
10
151.6905434057
20
152.4904486102
30
0.0000000000
10
151.8517245621
20
152.5060560878
30
0.0000000000
10
151.9440713988
20
152.5234407345
30
0.0000000000
10
152.0103665865
20
152.5475901003
30
0.0000000000
10
152.0103665865
20
152.5635617100
30
0.0000000000
11
151.5103665865
21
152.4875000169
31
0.0000000000
11
151.7017083027
21
152.4932898685
31
0.0000000000
11
151.8639199771
21
152.5097779710
31
0.0000000000
11
151.9723063528
21
152.5344541602
31
0.0000000000
11
152.0103665865
21
152.5635617100
31
0.0000000000
0
SPLINE
5
375
100
AcDbEntity
8
0
100
AcDbSpline
62
9
6
CONTINUOUS
70
0
71
3
72
14
73
10
74
8
42
0.0000001000
43
0.0000001000
44
0.0000000001
12
0.0000055868
22
-3.0121392098
32
0.0000000000
13
3.0121392096
23
0.0000367188
33
0.0000000000
40
0.0000000000
40
0.0000000000
40
0.0000000000
40
0.0000000000
40
0.1349545495
40
0.2770711243
40
0.4235324475
40
0.5699068365
40
0.7139810828
40
0.8567944651
40
1.0000000000
40
1.0000000000
40
1.0000000000
40
1.0000000000
10
147.5103665865
20
156.9095669496
30
0.0000000000
10
147.5103668379
20
156.7740663195
30
0.0000000000
10
147.5440942070
20
156.4947663396
30
0.0000000000
10
147.6971838644
20
156.0935768864
30
0.0000000000
10
147.9494600568
20
155.7318018105
30
0.0000000000
10
148.2800917976
20
155.4377458159
30
0.0000000000
10
148.6633049783
20
155.2249403541
30
0.0000000000
10
149.0785790899
20
155.0965883542
30
0.0000000000
10
149.3665815843
20
155.0679184550
30
0.0000000000
10
149.5103665865
20
155.0679202077
30
0.0000000000
11
147.5103665865
21
156.9095669496
31
0.0000000000
11
147.5589806302
21
156.5059824336
31
0.0000000000
11
147.7109093772
21
156.1057752598
31
0.0000000000
11
147.9624572121
21
155.7433562981
31
0.0000000000
11
148.2912549116
21
155.4496133581
31
0.0000000000
11
148.6702852486
21
155.2382666564
31
0.0000000000
11
149.0811519607
21
155.1108381145
31
0.0000000000
11
149.5103665865
21
155.0679202077
31
0.0000000000
0
SPLINE
5
376
100
AcDbEntity
8
0
100
AcDbSpline
62
9
6
CONTINUOUS
70
0
71
3
72
11
73
7
74
5
42
0.0000001000
43
0.0000001000
44
0.0000000001
12
-0.0003521922
22
1.8113025327
32
0.0000000000
13
1.4272179953
23
1.1152873096
33
0.0000000000
40
0.0000000000
40
0.0000000000
40
0.0000000000
40
0.0000000000
40
0.2503360368
40
0.5002082000
40
0.7502064349
40
1.0000000000
40
1.0000000000
40
1.0000000000
40
1.0000000000
10
151.5103665865
20
174.4396234031
30
0.0000000000
10
151.5103371977
20
174.5907681689
30
0.0000000000
10
151.5449408403
20
174.8938879860
30
0.0000000000
10
151.6975692499
20
175.3243280417
30
0.0000000000
10
151.9427639438
20
175.7092669735
30
0.0000000000
10
152.1602584494
20
175.9228212317
30
0.0000000000
10
152.2790950732
20
176.0156850962
30
0.0000000000
11
151.5103665865
21
174.4396234031
31
0.0000000000
11
151.5617948343
21
174.8901317884
31
0.0000000000
11
151.7129848355
21
175.3167264373
31
0.0000000000
11
151.9563485003
21
175.6985932896
31
0.0000000000
11
152.2790950732
21
176.0156850962
31
0.0000000000
0
SPLINE
5
377
100
AcDbEntity
8
0
100
AcDbSpline
62
9
6
CONTINUOUS
70
0
71
3
72
11
73
7
74
5
42
0.0000001000
43
0.0000001000
44
0.0000000001
12
0.5135516352
22
0.0000000074
32
0.0000000000
13
0.0000000000
23
0.5135516352
33
0.0000000000
40
0.0000000000
40
0.0000000000
40
0.0000000000
40
0.0000000000
40
0.3727733576
40
0.6902622001
40
0.9067050096
40
1.0000000000
40
1.0000000000
40
1.0000000000
40
1.0000000000
10
151.5103665865
20
174.4396234031
30
0.0000000000
10
151.5741793757
20
174.4396234040
30
0.0000000000
10
151.6905492380
20
174.4425721246
30
0.0000000000
10
151.8517311857
20
174.4581805745
30
0.0000000000
10
151.9440760970
20
174.4755649991
30
0.0000000000
10
152.0103665865
20
174.4997145036
30
0.0000000000
10
152.0103665865
20
174.5156851019
30
0.0000000000
11
151.5103665865
21
174.4396234031
31
0.0000000000
11
151.7017173625
21
174.4454138280
31
0.0000000000
11
151.8639283835
21
174.4619026401
31
0.0000000000
11
151.9723093347
21
174.4865786479
31
0.0000000000
11
152.0103665865
21
174.5156851019
31
0.0000000000
0
SPLINE
5
378
100
AcDbEntity
8
0
100
AcDbSpline
62
9
6
CONTINUOUS
70
0
71
3
72
11
73
7
74
5
42
0.0000001000
43
0.0000001000
44
0.0000000001
12
0.5012111617
22
0.0000000000
32
0.0000000000
13
-0.0000000001
23
0.5012111617
33
0.0000000000
40
0.0000000000
40
0.0000000000
40
0.0000000000
40
0.0000000000
40
0.0777409001
40
0.2944501213
40
0.6182269414
40
1.0000000000
40
1.0000000000
40
1.0000000000
40
1.0000000000
10
208.2694150550
20
176.0156850962
30
0.0000000000
10
208.2824032572
20
176.0156850962
30
0.0000000000
10
208.2707515727
20
176.0930985074
30
0.0000000000
10
208.2917868447
20
176.1707792660
30
0.0000000000
10
208.2880659149
20
176.3376687508
30
0.0000000000
10
208.2912247486
20
176.4519021234
30
0.0000000000
10
208.2912247486
20
176.5156850962
30
0.0000000000
11
208.2694150550
21
176.0156850962
31
0.0000000000
11
208.2777612634
21
176.0537453299
31
0.0000000000
11
208.2848368373
21
176.1621317056
31
0.0000000000
11
208.2895645846
21
176.3243433800
31
0.0000000000
11
208.2912247486
21
176.5156850962
31
0.0000000000
0
SPLINE
5
379
100
AcDbEntity
8
0
100
AcDbSpline
62
7
6
CONTINUOUS
70
0
71
3
72
32
73
28
74
26
42
0.0000001000
43
0.0000001000
44
0.0000000001
12
1.3806068501
22
0.1132436187
32
0.0000000000
13
0.0000000000
23
1.3852434414
33
0.0000000000
40
0.0000000000
40
0.0000000000
40
0.0000000000
40
0.0000000000
40
0.0839563726
40
0.1620241709
40
0.2346112938
40
0.3021021085
40
0.3648423012
40
0.4231621803
40
0.4773706372
40
0.5277582015
40
0.5746082460
40
0.6181501698
40
0.6585752050
40
0.6960707393
40
0.7308440626
40
0.7631186766
40
0.7931224056
40
0.8210899524
40
0.8472586838
40
0.8717884035
40
0.8946630143
40
0.9158523062
40
0.9354419743
40
0.9535551260
40
0.9704605624
40
0.9859405653
40
1.0000000000
40
1.0000000000
40
1.0000000000
40
1.0000000000
10
178.1629699940
20
176.2804864700
30
0.0000000000
10
178.2016069084
20
176.2836556445
30
0.0000000000
10
178.2761601845
20
176.2899030722
30
0.0000000000
10
178.3840690387
20
176.2994649057
30
0.0000000000
10
178.4843606879
20
176.3088383753
30
0.0000000000
10
178.5775593336
20
176.3180347333
30
0.0000000000
10
178.6641538257
20
176.3270587874
30
0.0000000000
10
178.7445977995
20
176.3359182048
30
0.0000000000
10
178.8193191642
20
176.3446220825
30
0.0000000000
10
178.8887237636
20
176.3531819377
30
0.0000000000
10
178.9531803837
20
176.3616098004
30
0.0000000000
10
179.0130116480
20
176.3699165888
30
0.0000000000
10
179.0684955636
20
176.3781113052
30
0.0000000000
10
179.1198992400
20
176.3862054000
30
0.0000000000
10
179.1675034020
20
176.3942176041
30
0.0000000000
10
179.2116054928
20
176.4021769059
30
0.0000000000
10
179.2525128005
20
176.4101247461
30
0.0000000000
10
179.2905349012
20
176.4181180047
30
0.0000000000
10
179.3259444035
20
176.4262269653
30
0.0000000000
10
179.3588921829
20
176.4345196158
30
0.0000000000
10
179.3893966858
20
176.4430601191
30
0.0000000000
10
179.4174277337
20
176.4519224683
30
0.0000000000
10
179.4429780413
20
176.4612683485
30
0.0000000000
10
179.4661149208
20
176.4713350715
30
0.0000000000
10
179.4865210816
20
176.4827901544
30
0.0000000000
10
179.5034917655
20
176.4959367074
30
0.0000000000
10
179.5103665865
20
176.5091931829
30
0.0000000000
10
179.5103665865
20
176.5156850962
30
0.0000000000
11
178.1629699940
21
176.2804864700
31
0.0000000000
11
178.2788614963
21
176.2902257250
31
0.0000000000
11
178.3865817174
21
176.2997777919
31
0.0000000000
11
178.4866951282
21
176.3091466548
31
0.0000000000
11
178.5797334100
21
176.3183381816
31
0.0000000000
11
178.6661745595
21
176.3273577336
31
0.0000000000
11
178.7464749988
21
176.3362130134
31
0.0000000000
11
178.8210612045
21
176.3449131744
31
0.0000000000
11
178.8903338581
21
176.3534692168
31
0.0000000000
11
178.9546831509
21
176.3618960760
31
0.0000000000
11
179.0144243968
21
176.3702040973
31
0.0000000000
11
179.0698198443
21
176.3784003199
31
0.0000000000
11
179.1211257117
21
176.3864946136
31
0.0000000000
11
179.1686243500
21
176.3945059698
31
0.0000000000
11
179.2126185006
21
176.4024644636
31
0.0000000000
11
179.2534140923
21
176.4104116967
31
0.0000000000
11
179.2913222499
21
176.4184056545
31
0.0000000000
11
179.3266510871
21
176.4265260224
31
0.0000000000
11
179.3595938978
21
176.4348558905
31
0.0000000000
11
179.3900945789
21
176.4434447420
31
0.0000000000
11
179.4180603779
21
176.4523595179
31
0.0000000000
11
179.4435152031
21
176.4617637345
31
0.0000000000
11
179.4664430351
21
176.4719558421
31
0.0000000000
11
179.4867555760
21
176.4836096051
31
0.0000000000
11
179.5029346615
21
176.4976831261
31
0.0000000000
11
179.5103665865
21
176.5156850962
31
0.0000000000
0
SPLINE
5
37A
100
AcDbEntity
8
0
100
AcDbSpline
62
9
6
CONTINUOUS
70
0
71
3
72
11
73
7
74
5
42
0.0000001000
43
0.0000001000
44
0.0000000001
12
-0.5012111617
22
0.0000000000
32
0.0000000000
13
0.0000000000
23
0.5012111617
33
0.0000000000
40
0.0000000000
40
0.0000000000
40
0.0000000000
40
0.0000000000
40
0.0777409001
40
0.2944501213
40
0.6182269414
40
1.0000000000
40
1.0000000000
40
1.0000000000
40
1.0000000000
10
119.6766733041
20
176.0156850962
30
0.0000000000
10
119.6636851018
20
176.0156850962
30
0.0000000000
10
119.6753367864
20
176.0930985074
30
0.0000000000
10
119.6543015143
20
176.1707792660
30
0.0000000000
10
119.6580224442
20
176.3376687508
30
0.0000000000
10
119.6548636104
20
176.4519021234
30
0.0000000000
10
119.6548636104
20
176.5156850962
30
0.0000000000
11
119.6766733041
21
176.0156850962
31
0.0000000000
11
119.6683270956
21
176.0537453299
31
0.0000000000
11
119.6612515218
21
176.1621317056
31
0.0000000000
11
119.6565237745
21
176.3243433800
31
0.0000000000
11
119.6548636104
21
176.5156850962
31
0.0000000000
0
SPLINE
5
37B
100
AcDbEntity
8
0
100
AcDbSpline
62
9
6
CONTINUOUS
70
0
71
3
72
11
73
7
74
5
42
0.0000001000
43
0.0000001000
44
0.0000000001
12
-0.5012111622
22
0.0000000000
32
0.0000000000
13
-0.0000000019
23
0.5012111622
33
0.0000000000
40
0.0000000000
40
0.0000000000
40
0.0000000000
40
0.0000000000
40
0.0777406765
40
0.2944496220
40
0.6182265150
40
1.0000000000
40
1.0000000000
40
1.0000000000
40
1.0000000000
10
118.7513181181
20
176.0156850962
30
0.0000000000
10
118.7383299532
20
176.0156850962
30
0.0000000000
10
118.7499815881
20
176.0930983633
30
0.0000000000
10
118.7289463384
20
176.1707790694
30
0.0000000000
10
118.7326672627
20
176.3376686029
30
0.0000000000
10
118.7295084247
20
176.4519020521
30
0.0000000000
10
118.7295084244
20
176.5156850962
30
0.0000000000
11
118.7513181181
21
176.0156850962
31
0.0000000000
11
118.7429719220
21
176.0537452179
31
0.0000000000
11
118.7358963475
21
176.1621314552
31
0.0000000000
11
118.7311685929
21
176.3243431661
31
0.0000000000
11
118.7295084244
21
176.5156850962
31
0.0000000000
0
SPLINE
5
37C
100
AcDbEntity
8
0
100
AcDbSpline
62
9
6
CONTINUOUS
70
0
71
3
72
12
73
8
74
6
42
0.0000001000
43
0.0000001000
44
0.0000000001
12
-1.0026282819
22
0.0000000000
32
0.0000000000
13
-0.0000000331
23
-1.0026282819
33
0.0000000000
40
0.0000000000
40
0.0000000000
40
0.0000000000
40
0.0000000000
40
0.0506325767
40
0.1928179279
40
0.4136795463
40
0.6917857045
40
1.0000000000
40
1.0000000000
40
1.0000000000
40
1.0000000000
10
118.7731278118
20
180.0156850962
30
0.0000000000
10
118.7562059273
20
180.0156850962
30
0.0000000000
10
118.7656495228
20
179.9158191059
30
0.0000000000
10
118.7387143247
20
179.8106057584
30
0.0000000000
10
118.7390154355
20
179.5794478135
30
0.0000000000
10
118.7299030080
20
179.3163702732
30
0.0000000000
10
118.7295084278
20
179.1186932193
30
0.0000000000
10
118.7295084244
20
179.0156850962
30
0.0000000000
11
118.7731278118
21
180.0156850962
31
0.0000000000
11
118.7596486804
21
179.9667416126
31
0.0000000000
11
118.7474889814
21
179.8247020910
31
0.0000000000
11
118.7378389906
21
179.6034703493
31
0.0000000000
11
118.7316433155
21
179.3247020912
31
0.0000000000
11
118.7295084244
21
179.0156850962
31
0.0000000000
0
SPLINE
5
37D
100
AcDbEntity
8
0
100
AcDbSpline
62
9
6
CONTINUOUS
70
0
71
3
72
11
73
7
74
5
42
0.0000001000
43
0.0000001000
44
0.0000000001
12
-0.5135515036
22
-0.0000000006
32
0.0000000000
13
0.0000000000
23
0.5135515036
33
0.0000000000
40
0.0000000000
40
0.0000000000
40
0.0000000000
40
0.0000000000
40
0.3727557860
40
0.6902458358
40
0.9066990789
40
1.0000000000
40
1.0000000000
40
1.0000000000
40
1.0000000000
10
175.5103665865
20
174.4396234031
30
0.0000000000
10
175.4465568217
20
174.4396234030
30
0.0000000000
10
175.3301897676
20
174.4425719966
30
0.0000000000
10
175.1690086104
20
174.4581794734
30
0.0000000000
10
175.0766617756
20
174.4755641232
30
0.0000000000
10
175.0103665865
20
174.4997134867
30
0.0000000000
10
175.0103665865
20
174.5156850962
30
0.0000000000
11
175.5103665865
21
174.4396234031
31
0.0000000000
11
175.3190248703
21
174.4454132547
31
0.0000000000
11
175.1568131961
21
174.4619013576
31
0.0000000000
11
175.0484268204
21
174.4865775478
31
0.0000000000
11
175.0103665865
21
174.5156850962
31
0.0000000000
0
SPLINE
5
37E
100
AcDbEntity
8
0
100
AcDbSpline
62
7
6
CONTINUOUS
70
0
71
3
72
13
73
9
74
7
42
0.0000001000
43
0.0000001000
44
0.0000000001
12
0.9498416105
22
-0.5548266989
32
0.0000000000
13
1.1000143891
23
0.0003076334
33
0.0000000000
40
0.0000000000
40
0.0000000000
40
0.0000000000
40
0.0000000000
40
0.2029532973
40
0.3889365030
40
0.5633220969
40
0.7244064385
40
0.8684035077
40
1.0000000000
40
1.0000000000
40
1.0000000000
40
1.0000000000
10
148.3131636339
20
176.5135286446
30
0.0000000000
10
148.3774214629
20
176.4759940087
30
0.0000000000
10
148.4990828533
20
176.4015295572
30
0.0000000000
10
148.6730056593
20
176.2901014893
30
0.0000000000
10
148.8345882552
20
176.1879024042
30
0.0000000000
10
148.9873936027
20
176.1005658303
30
0.0000000000
10
149.1342782152
20
176.0360509292
30
0.0000000000
10
149.2351741612
20
176.0156716017
30
0.0000000000
10
149.2834268396
20
176.0156850962
30
0.0000000000
11
148.3131636339
21
176.5135286446
31
0.0000000000
11
148.5039611728
21
176.3976081699
31
0.0000000000
11
148.6766943412
21
176.2879817512
31
0.0000000000
11
148.8395102178
21
176.1865496969
31
0.0000000000
11
148.9943421759
21
176.1003802801
31
0.0000000000
11
149.1406866458
21
176.0397709310
31
0.0000000000
11
149.2834268396
21
176.0156850962
31
0.0000000000
0
SPLINE
5
37F
100
AcDbEntity
8
0
100
AcDbSpline
62
9
6
CONTINUOUS
70
0
71
3
72
9
73
5
74
3
42
0.0000001000
43
0.0000001000
44
0.0000000001
12
-0.0000594402
22
1.1331395150
32
0.0000000000
13
-0.4468279221
23
1.0413212626
33
0.0000000000
40
0.0000000000
40
0.0000000000
40
0.0000000000
40
0.0000000000
40
0.5016325693
40
1.0000000000
40
1.0000000000
40
1.0000000000
40
1.0000000000
10
149.5103665865
20
174.9114383238
30
0.0000000000
10
149.5103566475
20
175.1009115525
30
0.0000000000
10
149.4718314999
20
175.4796174394
30
0.0000000000
10
149.3576550007
20
175.8426982288
30
0.0000000000
10
149.2834268395
20
176.0156850962
30
0.0000000000
11
149.5103665865
21
174.9114383238
31
0.0000000000
11
149.4526691643
21
175.4769221415
31
0.0000000000
11
149.2834268395
21
176.0156850962
31
0.0000000000
0
SPLINE
5
380
100
AcDbEntity
8
0
100
AcDbSpline
62
9
6
CONTINUOUS
70
0
71
3
72
11
73
7
74
5
42
0.0000001000
43
0.0000001000
44
0.0000000001
12
-0.5135516144
22
0.0000000815
32
0.0000000000
13
0.0000000000
23
0.5135516144
33
0.0000000000
40
0.0000000000
40
0.0000000000
40
0.0000000000
40
0.0000000000
40
0.3727667060
40
0.6902584131
40
0.9067047537
40
1.0000000000
40
1.0000000000
40
1.0000000000
40
1.0000000000
10
175.5103665865
20
152.4875000169
30
0.0000000000
10
175.4465549387
20
152.4875000270
30
0.0000000000
10
175.3301857036
20
152.4904486953
30
0.0000000000
10
175.1690037491
20
152.5060569557
30
0.0000000000
10
175.0766579224
20
152.5234413677
30
0.0000000000
10
175.0103665865
20
152.5475910685
30
0.0000000000
10
175.0103665865
20
152.5635617100
30
0.0000000000
11
175.5103665865
21
152.4875000169
31
0.0000000000
11
175.3190192299
21
152.4932902460
31
0.0000000000
11
175.1568067290
21
152.5097789805
31
0.0000000000
11
175.0484239761
21
152.5344552228
31
0.0000000000
11
175.0103665865
21
152.5635617100
31
0.0000000000
0
SPLINE
5
381
100
AcDbEntity
8
0
100
AcDbSpline
62
7
6
CONTINUOUS
70
0
71
3
72
8
73
4
74
2
42
0.0000001000
43
0.0000001000
44
0.0000000001
12
-0.0293171464
22
-0.0293171464
32
0.0000000000
13
-0.0293171464
23
-0.0293171464
33
0.0000000000
40
0.0000000000
40
0.0000000000
40
0.0000000000
40
0.0000000000
40
1.0000000000
40
1.0000000000
40
1.0000000000
40
1.0000000000
10
175.1568410205
20
151.3621595301
30
0.0000000000
10
175.1470686383
20
151.3523871479
30
0.0000000000
10
175.1372962562
20
151.3426147658
30
0.0000000000
10
175.1275238741
20
151.3328423837
30
0.0000000000
11
175.1568410205
21
151.3621595301
31
0.0000000000
11
175.1275238741
21
151.3328423837
31
0.0000000000
0
SPLINE
5
382
100
AcDbEntity
8
0
100
AcDbSpline
62
9
6
CONTINUOUS
70
0
71
3
72
11
73
7
74
5
42
0.0000001000
43
0.0000001000
44
0.0000000001
12
1.4272178439
22
-1.1152875111
32
0.0000000000
13
-0.0003521186
23
-1.8113025375
33
0.0000000000
40
0.0000000000
40
0.0000000000
40
0.0000000000
40
0.0000000000
40
0.2497934823
40
0.4997920102
40
0.7496641296
40
1.0000000000
40
1.0000000000
40
1.0000000000
40
1.0000000000
10
174.7416380999
20
176.0156850962
30
0.0000000000
10
174.8604746716
20
175.9228212458
30
0.0000000000
10
175.0779693042
20
175.7092669428
30
0.0000000000
10
175.3231640296
20
175.3243278888
30
0.0000000000
10
175.4757923686
20
174.8938877569
30
0.0000000000
10
175.5103959692
20
174.5907680688
30
0.0000000000
10
175.5103665865
20
174.4396234031
30
0.0000000000
11
174.7416380999
21
176.0156850962
31
0.0000000000
11
175.0643845861
21
175.6985934138
31
0.0000000000
11
175.3077485149
21
175.3167260988
31
0.0000000000
11
175.4589384061
21
174.8901314939
31
0.0000000000
11
175.5103665865
21
174.4396234031
31
0.0000000000
0
SPLINE
5
383
100
AcDbEntity
8
0
100
AcDbSpline
62
7
6
CONTINUOUS
70
0
71
3
72
10
73
6
74
4
42
0.0000001000
43
0.0000001000
44
0.0000000001
12
-0.2490324638
22
-0.2437970465
32
0.0000000000
13
-0.3485027517
23
0.0000000000
33
0.0000000000
40
0.0000000000
40
0.0000000000
40
0.0000000000
40
0.0000000000
40
0.3898433765
40
0.7054920934
40
1.0000000000
40
1.0000000000
40
1.0000000000
40
1.0000000000
10
177.8152165323
20
176.1675746495
30
0.0000000000
10
177.7828553134
20
176.1358937616
30
0.0000000000
10
177.7199827827
20
176.0824269617
30
0.0000000000
10
177.6159025691
20
176.0281693707
30
0.0000000000
10
177.5445788585
20
176.0156850962
30
0.0000000000
10
177.5103665865
20
176.0156850962
30
0.0000000000
11
177.8152165323
21
176.1675746495
31
0.0000000000
11
177.7101476244
21
176.0814417933
31
0.0000000000
11
177.6116098148
21
176.0325410948
31
0.0000000000
11
177.5103665865
21
176.0156850962
31
0.0000000000
0
SPLINE
5
384
100
AcDbEntity
8
0
100
AcDbSpline
62
7
6
CONTINUOUS
70
0
71
3
72
12
73
8
74
6
42
0.0000001000
43
0.0000001000
44
0.0000000001
12
1.0006642294
22
0.0000000000
32
0.0000000000
13
-0.0000000000
23
-1.0006642294
33
0.0000000000
40
0.0000000000
40
0.0000000000
40
0.0000000000
40
0.0000000000
40
0.0493601833
40
0.1914111537
40
0.4125349936
40
0.6911470999
40
1.0000000000
40
1.0000000000
40
1.0000000000
40
1.0000000000
10
179.4885465089
20
180.0156850962
30
0.0000000000
10
179.5050108322
20
180.0156850962
30
0.0000000000
10
179.4812333544
20
179.9137971845
30
0.0000000000
10
179.5123350072
20
179.8114647408
30
0.0000000000
10
179.5029346740
20
179.5790305176
30
0.0000000000
10
179.5111052775
20
179.3165183273
30
0.0000000000
10
179.5103665865
20
179.1187044459
30
0.0000000000
10
179.5103665865
20
179.0156850962
30
0.0000000000
11
179.4885465089
21
180.0156850962
31
0.0000000000
11
179.4952884242
21
179.9667544101
31
0.0000000000
11
179.5013709117
21
179.8247392816
31
0.0000000000
11
179.5061985158
21
179.6035212344
31
0.0000000000
11
179.5092983579
21
179.3247412993
31
0.0000000000
11
179.5103665865
21
179.0156850962
31
0.0000000000
0
SPLINE
5
385
100
AcDbEntity
8
0
100
AcDbSpline
62
9
6
CONTINUOUS
70
0
71
3
72
10
73
6
74
4
42
0.0000001000
43
0.0000001000
44
0.0000000001
12
-0.2107316035
22
-1.0500719067
32
0.0000000000
13
-0.8052105467
23
-0.7061832577
33
0.0000000000
40
0.0000000000
40
0.0000000000
40
0.0000000000
40
0.0000000000
40
0.2980178709
40
0.6283564651
40
1.0000000000
40
1.0000000000
40
1.0000000000
40
1.0000000000
10
181.4872795187
20
154.9478052548
30
0.0000000000
10
181.4663455907
20
154.8434918569
30
0.0000000000
10
181.3924002449
20
154.6287701628
30
0.0000000000
10
181.1982647179
20
154.3260193029
30
0.0000000000
10
181.0223149323
20
154.1452078513
30
0.0000000000
10
180.9225645010
20
154.0577250372
30
0.0000000000
11
181.4872795187
21
154.9478052548
31
0.0000000000
11
181.3853972877
21
154.6453227925
31
0.0000000000
11
181.1974987127
21
154.3455473798
31
0.0000000000
11
180.9225645010
21
154.0577250372
31
0.0000000000
0
SPLINE
5
386
100
AcDbEntity
8
0
100
AcDbSpline
62
9
6
CONTINUOUS
70
0
71
3
72
9
73
5
74
3
42
0.0000001000
43
0.0000001000
44
0.0000000001
12
0.0000000000
22
-0.7952775078
32
0.0000000000
13
0.3944643044
23
-0.6952306383
33
0.0000000000
40
0.0000000000
40
0.0000000000
40
0.0000000000
40
0.0000000000
40
0.6638172873
40
1.0000000000
40
1.0000000000
40
1.0000000000
40
1.0000000000
10
179.5103665865
20
156.9095669496
30
0.0000000000
10
179.5103665865
20
156.7335939636
30
0.0000000000
10
179.5582285399
20
156.4665096025
30
0.0000000000
10
179.6711030944
20
156.2238356374
30
0.0000000000
10
179.7153071210
20
156.1459274635
30
0.0000000000
11
179.5103665865
21
156.9095669496
31
0.0000000000
11
179.6025577938
21
156.3897600553
31
0.0000000000
11
179.7153071210
21
156.1459274635
31
0.0000000000
0
SPLINE
5
387
100
AcDbEntity
8
0
100
AcDbSpline
62
9
6
CONTINUOUS
70
0
71
3
72
8
73
4
74
2
42
0.0000001000
43
0.0000001000
44
0.0000000001
12
0.1351319309
22
-0.2381656783
32
0.0000000000
13
0.1706573802
23
-0.2123651648
33
0.0000000000
40
0.0000000000
40
0.0000000000
40
0.0000000000
40
0.0000000000
40
1.0000000000
40
1.0000000000
40
1.0000000000
40
1.0000000000
10
179.7153071210
20
156.1459274635
30
0.0000000000
10
179.7603510980
20
156.0665389040
30
0.0000000000
10
179.8118926950
20
155.9909659370
30
0.0000000000
10
179.8687784883
20
155.9201775488
30
0.0000000000
11
179.7153071210
21
156.1459274635
31
0.0000000000
11
179.8687784883
21
155.9201775488
31
0.0000000000
0
SPLINE
5
388
100
AcDbEntity
8
0
100
AcDbSpline
62
9
6
CONTINUOUS
70
0
71
3
72
9
73
5
74
3
42
0.0000001000
43
0.0000001000
44
0.0000000001
12
0.0000000000
22
0.2575151091
32
0.0000000000
13
-0.1585075760
23
0.2052021933
33
0.0000000000
40
0.0000000000
40
0.0000000000
40
0.0000000000
40
0.0000000000
40
0.6602390460
40
1.0000000000
40
1.0000000000
40
1.0000000000
40
1.0000000000
10
191.7603665865
20
154.5147232018
30
0.0000000000
10
191.7603665865
20
154.5713970452
30
0.0000000000
10
191.7399614288
20
154.6583241380
30
0.0000000000
10
191.6940566788
20
154.7320551488
30
0.0000000000
10
191.6761051171
20
154.7552950464
30
0.0000000000
11
191.7603665865
21
154.5147232018
31
0.0000000000
11
191.7223063528
21
154.6804299888
31
0.0000000000
11
191.6761051171
21
154.7552950464
31
0.0000000000
0
SPLINE
5
389
100
AcDbEntity
8
0
100
AcDbSpline
62
9
6
CONTINUOUS
70
0
71
3
72
10
73
6
74
4
42
0.0000001000
43
0.0000001000
44
0.0000000001
12
-0.2902275588
22
0.3757254582
32
0.0000000000
13
-0.4715104688
23
-0.0000000000
33
0.0000000000
40
0.0000000000
40
0.0000000000
40
0.0000000000
40
0.0000000000
40
0.1907451065
40
0.5882170841
40
1.0000000000
40
1.0000000000
40
1.0000000000
40
1.0000000000
10
191.6761051171
20
154.7552950464
30
0.0000000000
10
191.6576519549
20
154.7791843106
30
0.0000000000
10
191.5930727808
20
154.8469524275
30
0.0000000000
10
191.4533930024
20
154.9261717335
30
0.0000000000
10
191.3250865718
20
154.9477359037
30
0.0000000000
10
191.2603665865
20
154.9477359037
30
0.0000000000
11
191.6761051171
21
154.7552950464
31
0.0000000000
11
191.6139199771
21
154.8209094197
31
0.0000000000
11
191.4517083027
21
154.9147747744
31
0.0000000000
11
191.2603665865
21
154.9477359037
31
0.0000000000
0
SPLINE
5
38A
100
AcDbEntity
8
0
100
AcDbSpline
62
9
6
CONTINUOUS
70
0
71
3
72
14
73
10
74
8
42
0.0000001000
43
0.0000001000
44
0.0000000001
12
-0.0000057828
22
-3.0121391393
32
0.0000000000
13
-3.0121391390
23
0.0000367659
33
0.0000000000
40
0.0000000000
40
0.0000000000
40
0.0000000000
40
0.0000000000
40
0.1349652421
40
0.2770840616
40
0.4235418739
40
0.5699122623
40
0.7139841831
40
0.8567961522
40
1.0000000000
40
1.0000000000
40
1.0000000000
40
1.0000000000
10
179.5103665865
20
156.9095669496
30
0.0000000000
10
179.5103663264
20
156.7740555869
30
0.0000000000
10
179.4766346291
20
156.4947423670
30
0.0000000000
10
179.3235332034
20
156.0935471173
30
0.0000000000
10
179.0712535170
20
155.7317813186
30
0.0000000000
10
178.7406260170
20
155.4377359214
30
0.0000000000
10
178.3574184683
20
155.2249367006
30
0.0000000000
10
177.9421492351
20
155.0965877170
30
0.0000000000
10
177.6541498915
20
155.0679184353
30
0.0000000000
10
177.5103665865
20
155.0679201903
30
0.0000000000
11
179.5103665865
21
156.9095669496
31
0.0000000000
11
179.4617448429
21
156.5059509306
31
0.0000000000
11
179.3098054732
21
156.1057405676
31
0.0000000000
11
179.0582569308
21
155.7433349828
31
0.0000000000
11
178.7294647979
21
155.4496039148
31
0.0000000000
11
178.3504392564
21
155.2382630172
31
0.0000000000
11
177.9395761937
21
155.1108371127
31
0.0000000000
11
177.5103665865
21
155.0679201903
31
0.0000000000
0
SPLINE
5
38B
100
AcDbEntity
8
0
100
AcDbSpline
62
9
6
CONTINUOUS
70
0
71
3
72
10
73
6
74
4
42
0.0000001000
43
0.0000001000
44
0.0000000001
12
-0.0007958869
22
0.3762325459
32
0.0000000000
13
-0.3748369475
23
0.0323855654
33
0.0000000000
40
0.0000000000
40
0.0000000000
40
0.0000000000
40
0.0000000000
40
0.1289650603
40
0.4645278158
40
1.0000000000
40
1.0000000000
40
1.0000000000
40
1.0000000000
10
179.5103665865
20
175.2156850962
30
0.0000000000
10
179.5103323727
20
175.2318587138
30
0.0000000000
10
179.4307924801
20
175.2481530658
30
0.0000000000
10
179.3282370172
20
175.2697783043
30
0.0000000000
10
179.2112450173
20
175.2800829164
30
0.0000000000
10
179.1443400976
20
175.2858634395
30
0.0000000000
11
179.5103665865
21
175.2156850962
31
0.0000000000
11
179.4686264025
21
175.2404245533
31
0.0000000000
11
179.3446332888
21
175.2641889833
31
0.0000000000
11
179.1443400976
21
175.2858634395
31
0.0000000000
0
SPLINE
5
38C
100
AcDbEntity
8
0
100
AcDbSpline
62
9
6
CONTINUOUS
70
0
71
3
72
12
73
8
74
6
42
0.0000001000
43
0.0000001000
44
0.0000000001
12
1.0026283054
22
0.0000000000
32
0.0000000000
13
-0.0000000248
23
-1.0026283054
33
0.0000000000
40
0.0000000000
40
0.0000000000
40
0.0000000000
40
0.0000000000
40
0.0506300338
40
0.1928107767
40
0.4136702572
40
0.6917791712
40
1.0000000000
40
1.0000000000
40
1.0000000000
40
1.0000000000
10
208.2476053613
20
180.0156850962
30
0.0000000000
10
208.2645263963
20
180.0156850962
30
0.0000000000
10
208.2550839533
20
179.9158231227
30
0.0000000000
10
208.2820183102
20
179.8106119927
30
0.0000000000
10
208.2817175436
20
179.5794554133
30
0.0000000000
10
208.2908301398
20
179.3163756328
30
0.0000000000
10
208.2912247441
20
179.1186954053
30
0.0000000000
10
208.2912247416
20
179.0156850962
30
0.0000000000
11
208.2476053613
21
180.0156850962
31
0.0000000000
11
208.2610841546
21
179.9667441628
31
0.0000000000
11
208.2732437680
21
179.8247092678
31
0.0000000000
11
208.2828938951
21
179.6034796724
31
0.0000000000
11
208.2890897704
21
179.3247086485
31
0.0000000000
11
208.2912247416
21
179.0156850962
31
0.0000000000
0
SPLINE
5
38D
100
AcDbEntity
8
0
100
AcDbSpline
62
9
6
CONTINUOUS
70
0
71
3
72
8
73
4
74
2
42
0.0000001000
43
0.0000001000
44
0.0000000001
12
0.1711856907
22
0.2130225919
32
0.0000000000
13
0.1354305976
23
0.2389809041
33
0.0000000000
40
0.0000000000
40
0.0000000000
40
0.0000000000
40
0.0000000000
40
1.0000000000
40
1.0000000000
40
1.0000000000
40
1.0000000000
10
147.1519546850
20
155.9201775491
30
0.0000000000
10
147.2090165819
20
155.9911850798
30
0.0000000000
10
147.2607012613
20
156.0670095736
30
0.0000000000
10
147.3058447939
20
156.1466698749
30
0.0000000000
11
147.1519546850
21
155.9201775491
31
0.0000000000
11
147.3058447939
21
156.1466698749
31
0.0000000000
0
SPLINE
5
38E
100
AcDbEntity
8
0
100
AcDbSpline
62
9
6
CONTINUOUS
70
0
71
3
72
9
73
5
74
3
42
0.0000001000
43
0.0000001000
44
0.0000000001
12
0.3936985947
22
0.6947207481
32
0.0000000000
13
0.0000000000
23
0.7944351073
33
0.0000000000
40
0.0000000000
40
0.0000000000
40
0.0000000000
40
0.0000000000
40
0.3368649163
40
1.0000000000
40
1.0000000000
40
1.0000000000
40
1.0000000000
10
147.3058447939
20
156.1466698749
30
0.0000000000
10
147.3500525419
20
156.2246788905
30
0.0000000000
10
147.4626643714
20
156.4671720733
30
0.0000000000
10
147.5103665865
20
156.7339610191
30
0.0000000000
10
147.5103665865
20
156.9095669496
30
0.0000000000
11
147.3058447939
21
156.1466698749
31
0.0000000000
11
147.4185566796
21
156.3908108158
31
0.0000000000
11
147.5103665865
21
156.9095669496
31
0.0000000000
0
SPLINE
5
38F
100
AcDbEntity
8
0
100
AcDbSpline
62
9
6
CONTINUOUS
70
0
71
3
72
10
73
6
74
4
42
0.0000001000
43
0.0000001000
44
0.0000000001
12
0.2107342865
22
-1.0501170531
32
0.0000000000
13
0.8052444319
23
-0.7062125528
33
0.0000000000
40
0.0000000000
40
0.0000000000
40
0.0000000000
40
0.0000000000
40
0.2982324180
40
0.6284659709
40
1.0000000000
40
1.0000000000
40
1.0000000000
40
1.0000000000
10
145.5333105610
20
154.9478045584
30
0.0000000000
10
145.5542598262
20
154.8434115758
30
0.0000000000
10
145.6284356978
20
154.6287120487
30
0.0000000000
10
145.8225143864
20
154.3259380503
30
0.0000000000
10
145.9984433864
20
154.1451857265
30
0.0000000000
10
146.0981686224
20
154.0577250614
30
0.0000000000
11
145.5333105610
21
154.9478045584
31
0.0000000000
11
145.6354218079
21
154.6451427140
31
0.0000000000
11
145.8232968418
21
154.3454678631
31
0.0000000000
11
146.0981686224
21
154.0577250614
31
0.0000000000
0
SPLINE
5
390
100
AcDbEntity
8
0
100
AcDbSpline
62
9
6
CONTINUOUS
70
0
71
3
72
18
73
14
74
12
42
0.0000001000
43
0.0000001000
44
0.0000000001
12
3.1362827621
22
-1.7940711027
32
0.0000000000
13
3.5967270588
23
0.3442602937
33
0.0000000000
40
0.0000000000
40
0.0000000000
40
0.0000000000
40
0.0000000000
40
0.0650287998
40
0.1341963754
40
0.2071938532
40
0.2839168524
40
0.3646096117
40
0.4504308082
40
0.5427666725
40
0.6422336255
40
0.7501215450
40
0.8689596416
40
1.0000000000
40
1.0000000000
40
1.0000000000
40
1.0000000000
10
177.5104296433
20
155.0679254131
30
0.0000000000
10
177.5784125446
20
155.0290366496
30
0.0000000000
10
177.7199342761
20
154.9509290183
30
0.0000000000
10
177.9409232869
20
154.8349902228
30
0.0000000000
10
178.1767799997
20
154.7171740981
30
0.0000000000
10
178.4276600603
20
154.5985088104
30
0.0000000000
10
178.6954937917
20
154.4797249826
30
0.0000000000
10
178.9847842715
20
154.3633077520
30
0.0000000000
10
179.3005074078
20
154.2527438414
30
0.0000000000
10
179.6481092545
20
154.1544706531
30
0.0000000000
10
180.0338722395
20
154.0774160491
30
0.0000000000
10
180.4634948835
20
154.0352565164
30
0.0000000000
10
180.7654681999
20
154.0426856996
30
0.0000000000
10
180.9225736675
20
154.0577230304
30
0.0000000000
11
177.5104296433
21
155.0679254131
31
0.0000000000
11
177.7159475305
21
154.9540461120
31
0.0000000000
11
177.9372065799
21
154.8378507199
31
0.0000000000
11
178.1731680015
21
154.7200063918
31
0.0000000000
11
178.4237974811
21
154.6015503773
31
0.0000000000
11
178.6904910658
21
154.4837387610
31
0.0000000000
11
178.9783151428
21
154.3683667005
31
0.0000000000
11
179.2934038891
21
154.2587103021
31
0.0000000000
11
179.6394276954
21
154.1616069535
31
0.0000000000
11
180.0218579603
21
154.0860803662
31
0.0000000000
11
180.4492732837
21
154.0450348441
31
0.0000000000
11
180.9225736675
21
154.0577230304
31
0.0000000000
0
SPLINE
5
391
100
AcDbEntity
8
0
100
AcDbSpline
62
9
6
CONTINUOUS
70
0
71
3
72
18
73
14
74
12
42
0.0000001000
43
0.0000001000
44
0.0000000001
12
2.0943776970
22
-3.5904310644
32
0.0000000000
13
4.1566348335
23
-0.0001616345
33
0.0000000000
40
0.0000000000
40
0.0000000000
40
0.0000000000
40
0.0000000000
40
0.0497335290
40
0.1052539466
40
0.1671266360
40
0.2358655714
40
0.3120541873
40
0.3969392103
40
0.4920342096
40
0.5980399395
40
0.7163684737
40
0.8498426996
40
1.0000000000
40
1.0000000000
40
1.0000000000
40
1.0000000000
10
177.5103665865
20
155.0680283797
30
0.0000000000
10
177.5450868512
20
155.0085067773
30
0.0000000000
10
177.6212313145
20
154.8840705393
30
0.0000000000
10
177.7512641815
20
154.6923425002
30
0.0000000000
10
177.9081800256
20
154.4874764801
30
0.0000000000
10
178.0968448437
20
154.2715219605
30
0.0000000000
10
178.3238660657
20
154.0477793421
30
0.0000000000
10
178.5969192424
20
153.8202972840
30
0.0000000000
10
178.9244874939
20
153.5961594097
30
0.0000000000
10
179.3150243686
20
153.3859593610
30
0.0000000000
10
179.7777815297
20
153.2043515401
30
0.0000000000
10
180.3207398789
20
153.0724621021
30
0.0000000000
10
180.7145199294
20
153.0395789456
30
0.0000000000
10
180.9225696178
20
153.0395708554
30
0.0000000000
11
177.5103665865
21
155.0680283797
31
0.0000000000
11
177.6183282841
21
154.8917356309
31
0.0000000000
11
177.7480281821
21
154.7008522404
31
0.0000000000
11
177.9044218311
21
154.4966863803
31
0.0000000000
11
178.0925115781
21
154.2816057402
31
0.0000000000
11
178.3180883096
21
154.0593298103
31
0.0000000000
11
178.5892186272
21
153.8335387016
31
0.0000000000
11
178.9154621985
21
153.6103625256
31
0.0000000000
11
179.3034999318
21
153.4016067654
31
0.0000000000
11
179.7613889611
21
153.2220167020
31
0.0000000000
11
180.3005648483
21
153.0912634362
31
0.0000000000
11
180.9225696178
21
153.0395708554
31
0.0000000000
0
SPLINE
5
392
100
AcDbEntity
8
0
100
AcDbSpline
62
9
6
CONTINUOUS
70
0
71
3
72
12
73
8
74
6
42
0.0000001000
43
0.0000001000
44
0.0000000001
12
1.0384749492
22
0.0000000000
32
0.0000000000
13
0.0000000000
23
-1.0384749492
33
0.0000000000
40
0.0000000000
40
0.0000000000
40
0.0000000000
40
0.0000000000
40
0.2976885353
40
0.5672510665
40
0.7836974241
40
0.9287287762
40
1.0000000000
40
1.0000000000
40
1.0000000000
40
1.0000000000
10
210.1603665865
20
181.2461833659
30
0.0000000000
10
210.2634139487
20
181.2461833659
30
0.0000000000
10
210.4602140943
20
181.2404795041
30
0.0000000000
10
210.7291554332
20
181.2185184808
30
0.0000000000
10
210.9489531679
20
181.1790558233
30
0.0000000000
10
211.0848449551
20
181.1437522167
30
0.0000000000
10
211.1603665865
20
181.0911866726
30
0.0000000000
10
211.1603665865
20
181.0665155458
30
0.0000000000
11
210.1603665865
21
181.2461833659
31
0.0000000000
11
210.4693835809
21
181.2373897969
31
0.0000000000
11
210.7481518388
21
181.2118698656
31
0.0000000000
11
210.9693835809
21
181.1721216408
31
0.0000000000
11
211.1114231028
21
181.1220359556
31
0.0000000000
11
211.1603665865
21
181.0665155458
31
0.0000000000
0
SPLINE
5
393
100
AcDbEntity
8
0
100
AcDbSpline
62
9
6
CONTINUOUS
70
0
71
3
72
11
73
7
74
5
42
0.0000001000
43
0.0000001000
44
0.0000000001
12
0.0008525733
22
0.8203318220
32
0.0000000000
13
-0.0000466869
23
0.8203322682
33
0.0000000000
40
0.0000000000
40
0.0000000000
40
0.0000000000
40
0.0000000000
40
0.3953258680
40
0.7171945947
40
0.9271197543
40
1.0000000000
40
1.0000000000
40
1.0000000000
40
1.0000000000
10
206.1600732197
20
195.2084179296
30
0.0000000000
10
206.1601855678
20
195.3165173928
30
0.0000000000
10
206.1603573096
20
195.5126299777
30
0.0000000000
10
206.1602969077
20
195.7661454055
30
0.0000000000
10
206.1603015275
20
195.9314899707
30
0.0000000000
10
206.1602995445
20
196.0088214368
30
0.0000000000
10
206.1602984103
20
196.0287501092
30
0.0000000000
11
206.1600732197
21
195.2084179296
31
0.0000000000
11
206.1603085221
21
195.5327164090
31
0.0000000000
11
206.1603037949
21
195.7967557106
31
0.0000000000
11
206.1603002914
21
195.9689640922
31
0.0000000000
11
206.1602984103
21
196.0287501092
31
0.0000000000
0
SPLINE
5
394
100
AcDbEntity
8
0
100
AcDbSpline
62
9
6
CONTINUOUS
70
0
71
3
72
16
73
12
74
10
42
0.0000001000
43
0.0000001000
44
0.0000000001
12
-0.0008678623
22
6.2622422282
32
0.0000000000
13
-6.2622422771
23
-0.0003763160
33
0.0000000000
40
0.0000000000
40
0.0000000000
40
0.0000000000
40
0.0000000000
40
0.1241840419
40
0.2522344319
40
0.3802797548
40
0.5046570998
40
0.6224230602
40
0.7321232283
40
0.8326266204
40
0.9229299166
40
1.0000000000
40
1.0000000000
40
1.0000000000
40
1.0000000000
10
210.1603665865
20
191.2084179296
30
0.0000000000
10
210.1603306617
20
191.4676414467
30
0.0000000000
10
210.1088931890
20
191.9955707193
30
0.0000000000
10
209.8764193208
20
192.7599493147
30
0.0000000000
10
209.4959450891
20
193.4632580123
30
0.0000000000
10
208.9986135874
20
194.0610825969
30
0.0000000000
10
208.4275789698
20
194.5296123923
30
0.0000000000
10
207.8267356909
20
194.8646759046
30
0.0000000000
10
207.2337610759
20
195.0773953908
30
0.0000000000
10
206.6833322267
20
195.1850852072
30
0.0000000000
10
206.3337458577
20
195.2089948261
30
0.0000000000
10
206.1728686795
20
195.2089851586
30
0.0000000000
11
210.1603665865
21
191.2084179296
31
0.0000000000
11
210.0847733470
21
191.9824057590
31
0.0000000000
11
209.8515304308
21
192.7496171989
31
0.0000000000
11
209.4699689202
21
193.4548657914
31
0.0000000000
11
208.9718735891
21
194.0536618850
31
0.0000000000
11
208.4017435813
21
194.5214513848
31
0.0000000000
11
207.8018012124
21
194.8561088279
31
0.0000000000
11
207.2093174210
21
195.0684242807
31
0.0000000000
11
206.6544902520
21
195.1777784293
31
0.0000000000
11
206.1728686795
21
195.2089851586
31
0.0000000000
0
SPLINE
5
395
100
AcDbEntity
8
0
100
AcDbSpline
62
9
6
CONTINUOUS
70
0
71
3
72
12
73
8
74
6
42
0.0000001000
43
0.0000001000
44
0.0000000001
12
1.0384749311
22
0.0000000836
32
0.0000000000
13
0.0000000000
23
-1.0384749311
33
0.0000000000
40
0.0000000000
40
0.0000000000
40
0.0000000000
40
0.0000000000
40
0.2976862335
40
0.5672483213
40
0.7836955845
40
0.9287281622
40
1.0000000000
40
1.0000000000
40
1.0000000000
40
1.0000000000
10
210.1603665865
20
191.2084179296
30
0.0000000000
10
210.2634131501
20
191.2084179379
30
0.0000000000
10
210.4602123429
20
191.2027141595
30
0.0000000000
10
210.7291530387
20
191.1807533500
30
0.0000000000
10
210.9489514536
20
191.1412908218
30
0.0000000000
10
211.0848440220
20
191.1059872080
30
0.0000000000
10
211.1603665865
20
191.0534214463
30
0.0000000000
10
211.1603665865
20
191.0287501074
30
0.0000000000
11
210.1603665865
21
191.2084179296
31
0.0000000000
11
210.4693811888
21
191.1996245205
31
0.0000000000
11
210.7481490014
21
191.1741048302
31
0.0000000000
11
210.9693817115
21
191.1343566964
31
0.0000000000
11
211.1114225256
21
191.0842708565
31
0.0000000000
11
211.1603665865
21
191.0287501074
31
0.0000000000
0
SPLINE
5
396
100
AcDbEntity
8
0
100
AcDbSpline
62
9
6
CONTINUOUS
70
0
71
3
72
18
73
14
74
12
42
0.0000001000
43
0.0000001000
44
0.0000000001
12
3.5967136698
22
-0.3443040456
32
0.0000000000
13
3.1361673861
23
1.7942543367
33
0.0000000000
40
0.0000000000
40
0.0000000000
40
0.0000000000
40
0.0000000000
40
0.1323327812
40
0.2520637762
40
0.3603635368
40
0.4600038713
40
0.5523199800
40
0.6379962287
40
0.7184394070
40
0.7947587199
40
0.8671879506
40
0.9356845110
40
1.0000000000
40
1.0000000000
40
1.0000000000
40
1.0000000000
10
146.0981553900
20
154.0577250524
30
0.0000000000
10
146.2568097644
20
154.0425374818
30
0.0000000000
10
146.5614502697
20
154.0352563468
30
0.0000000000
10
146.9941288047
20
154.0784336037
30
0.0000000000
10
147.3814853714
20
154.1566035316
30
0.0000000000
10
147.7295566182
20
154.2557097105
30
0.0000000000
10
148.0451078550
20
154.3667856246
30
0.0000000000
10
148.3337942065
20
154.4833609468
30
0.0000000000
10
148.6006347108
20
154.6020080486
30
0.0000000000
10
148.8501224258
20
154.7201735582
30
0.0000000000
10
149.0841413773
20
154.8372382588
30
0.0000000000
10
149.3030225892
20
154.9521304332
30
0.0000000000
10
149.4430688977
20
155.0294593088
30
0.0000000000
10
149.5103036107
20
155.0679254239
30
0.0000000000
11
146.0981553900
21
154.0577250524
31
0.0000000000
11
146.5761308721
21
154.0452232982
31
0.0000000000
11
147.0066895710
21
154.0872684216
31
0.0000000000
11
147.3904302704
21
154.1638309472
31
0.0000000000
11
147.7368747235
21
154.2617482372
31
0.0000000000
11
148.0517197438
21
154.3718839247
31
0.0000000000
11
148.3389150455
21
154.4874142753
31
0.0000000000
11
148.6046743044
21
154.6051071321
31
0.0000000000
11
148.8539128271
21
154.7230909749
31
0.0000000000
11
149.0879773906
21
154.8401365694
31
0.0000000000
11
149.3070580281
21
154.9552641132
31
0.0000000000
11
149.5103036107
21
155.0679254239
31
0.0000000000
0
SPLINE
5
397
100
AcDbEntity
8
0
100
AcDbSpline
62
9
6
CONTINUOUS
70
0
71
3
72
18
73
14
74
12
42
0.0000001000
43
0.0000001000
44
0.0000000001
12
4.1566065437
22
0.0002129940
32
0.0000000000
13
2.0939319593
23
3.5906582899
33
0.0000000000
40
0.0000000000
40
0.0000000000
40
0.0000000000
40
0.0000000000
40
0.1516123020
40
0.2860497812
40
0.4047626102
40
0.5108647692
40
0.6058343112
40
0.6904617011
40
0.7663003215
40
0.8345711231
40
0.8958875798
40
0.9508226475
40
1.0000000000
40
1.0000000000
40
1.0000000000
40
1.0000000000
10
146.0981635415
20
153.0395708633
30
0.0000000000
10
146.3082277704
20
153.0395816274
30
0.0000000000
10
146.7053784649
20
153.0730665373
30
0.0000000000
10
147.2518619595
20
153.2070348072
30
0.0000000000
10
147.7159773146
20
153.3906802288
30
0.0000000000
10
148.1063075811
20
153.6022970072
30
0.0000000000
10
148.4328709822
20
153.8271870093
30
0.0000000000
10
148.7045119370
20
154.0547646408
30
0.0000000000
10
148.9299247085
20
154.2780045516
30
0.0000000000
10
149.1169144295
20
154.4928838564
30
0.0000000000
10
149.2721874459
20
154.6961909245
30
0.0000000000
10
149.4007424122
20
154.8860724618
30
0.0000000000
10
149.4760419098
20
155.0091686256
30
0.0000000000
10
149.5103665865
20
155.0680283151
30
0.0000000000
11
146.0981635415
21
153.0395708633
31
0.0000000000
11
146.7261491513
21
153.0922671374
31
0.0000000000
11
147.2689342399
21
153.2251051205
31
0.0000000000
11
147.7278001867
21
153.4065646640
31
0.0000000000
11
148.1155530115
21
153.6166854262
31
0.0000000000
11
148.4406954314
21
153.8405397876
31
0.0000000000
11
148.7103781925
21
154.0663898478
31
0.0000000000
11
148.9343807183
21
154.2881862519
31
0.0000000000
11
149.1207712645
21
154.5021646063
31
0.0000000000
11
149.2754750057
21
154.7047100239
31
0.0000000000
11
149.4036558327
21
154.8936820121
31
0.0000000000
11
149.5103665865
21
155.0680283151
31
0.0000000000
0
SPLINE
5
398
100
AcDbEntity
8
0
100
AcDbSpline
62
9
6
CONTINUOUS
70
0
71
3
72
12
73
8
74
6
42
0.0000001000
43
0.0000001000
44
0.0000000001
12
-1.0384746521
22
0.0000000265
32
0.0000000000
13
-0.0000000289
23
-1.0384746521
33
0.0000000000
40
0.0000000000
40
0.0000000000
40
0.0000000000
40
0.0000000000
40
0.2976771431
40
0.5672348148
40
0.7836844340
40
0.9287236126
40
1.0000000000
40
1.0000000000
40
1.0000000000
40
1.0000000000
10
116.8603665865
20
181.2461833659
30
0.0000000000
10
116.7573231973
20
181.2461833686
30
0.0000000000
10
116.5605287063
20
181.2404799015
30
0.0000000000
10
116.2915920347
20
181.2185200198
30
0.0000000000
10
116.0717914223
20
181.1790585472
30
0.0000000000
10
115.9358954374
20
181.1437550803
30
0.0000000000
10
115.8603665872
20
181.0911884595
30
0.0000000000
10
115.8603665865
20
181.0665155523
30
0.0000000000
11
116.8603665865
21
181.2461833659
31
0.0000000000
11
116.5513614960
21
181.2373904971
31
0.0000000000
11
116.2725982477
21
181.2118720787
31
0.0000000000
11
116.0513629335
21
181.1721249452
31
0.0000000000
11
115.9093150345
21
181.1220387059
31
0.0000000000
11
115.8603665865
21
181.0665155523
31
0.0000000000
0
SPLINE
5
399
100
AcDbEntity
8
0
100
AcDbSpline
62
7
6
CONTINUOUS
70
0
71
3
72
11
73
7
74
5
42
0.0000001000
43
0.0000001000
44
0.0000000001
12
0.2536659944
22
0.2719358106
32
0.0000000000
13
0.3707327672
23
0.0292016625
33
0.0000000000
40
0.0000000000
40
0.0000000000
40
0.0000000000
40
0.0000000000
40
0.2083098892
40
0.4506073697
40
0.7142252869
40
1.0000000000
40
1.0000000000
40
1.0000000000
40
1.0000000000
10
177.8152165323
20
176.1675746495
30
0.0000000000
10
177.8328302440
20
176.1864569557
30
0.0000000000
10
177.8806417665
20
176.2178058399
30
0.0000000000
10
177.9637766756
20
176.2487721483
30
0.0000000000
10
178.0599417962
20
176.2697341282
30
0.0000000000
10
178.1276546440
20
176.2777047711
30
0.0000000000
10
178.1629699940
20
176.2804864700
30
0.0000000000
11
177.8152165323
21
176.1675746495
31
0.0000000000
11
177.8780268373
21
176.2129169536
31
0.0000000000
11
177.9618832754
21
176.2458890755
31
0.0000000000
11
178.0574758928
21
176.2676334235
31
0.0000000000
11
178.1629699940
21
176.2804864700
31
0.0000000000
0
SPLINE
5
39A
100
AcDbEntity
8
0
100
AcDbSpline
62
9
6
CONTINUOUS
70
0
71
3
72
14
73
10
74
8
42
0.0000001000
43
0.0000001000
44
0.0000000001
12
-1.6061262747
22
0.1376080982
32
0.0000000000
13
-1.3303284450
23
0.9103866362
33
0.0000000000
40
0.0000000000
40
0.0000000000
40
0.0000000000
40
0.0000000000
40
0.0776372719
40
0.1752561896
40
0.2937667815
40
0.4347402123
40
0.5991579022
40
0.7882267812
40
1.0000000000
40
1.0000000000
40
1.0000000000
40
1.0000000000
10
179.1443400976
20
175.2858634395
30
0.0000000000
10
179.1027750102
20
175.2894246120
30
0.0000000000
10
179.0104299366
20
175.3129831959
30
0.0000000000
10
178.8667604597
20
175.3791854396
30
0.0000000000
10
178.7022369958
20
175.4785391948
30
0.0000000000
10
178.5165262157
20
175.6105652462
30
0.0000000000
10
178.3056172462
20
175.7722833425
30
0.0000000000
10
178.0760790368
20
175.9715953698
30
0.0000000000
10
177.8988774518
20
176.0946095711
30
0.0000000000
10
177.8049681395
20
176.1588747405
30
0.0000000000
11
179.1443400976
21
175.2858634395
31
0.0000000000
11
179.0222605033
21
175.3134246194
31
0.0000000000
11
178.8782273928
21
175.3768082641
31
0.0000000000
11
178.7138102552
21
175.4740882961
31
0.0000000000
11
178.5275490392
21
175.6042789738
31
0.0000000000
11
178.3176974053
21
175.7661743083
31
0.0000000000
11
178.0820884467
21
175.9595130748
31
0.0000000000
11
177.8049681395
21
176.1588747405
31
0.0000000000
0
SPLINE
5
39B
100
AcDbEntity
8
0
100
AcDbSpline
62
9
6
CONTINUOUS
70
0
71
3
72
12
73
8
74
6
42
0.0000001000
43
0.0000001000
44
0.0000000001
12
-1.0384749487
22
-0.0000000001
32
0.0000000000
13
-0.0000000000
23
-1.0384749487
33
0.0000000000
40
0.0000000000
40
0.0000000000
40
0.0000000000
40
0.0000000000
40
0.2976885354
40
0.5672510668
40
0.7836974245
40
0.9287287768
40
1.0000000000
40
1.0000000000
40
1.0000000000
40
1.0000000000
10
116.8603665865
20
191.2084179296
30
0.0000000000
10
116.7573192244
20
191.2084179296
30
0.0000000000
10
116.5605190788
20
191.2027140678
30
0.0000000000
10
116.2915777400
20
191.1807530441
30
0.0000000000
10
116.0717800049
20
191.1412903865
30
0.0000000000
10
115.9358882187
20
191.1059867791
30
0.0000000000
10
115.8603665865
20
191.0534212361
30
0.0000000000
10
115.8603665865
20
191.0287501095
30
0.0000000000
11
116.8603665865
21
191.2084179296
31
0.0000000000
11
116.5513495922
21
191.1996243605
31
0.0000000000
11
116.2725813343
21
191.1741044290
31
0.0000000000
11
116.0513495922
21
191.1343562038
31
0.0000000000
11
115.9093100703
21
191.0842705183
31
0.0000000000
11
115.8603665865
21
191.0287501095
31
0.0000000000
0
SPLINE
5
39C
100
AcDbEntity
8
0
100
AcDbSpline
62
9
6
CONTINUOUS
70
0
71
3
72
11
73
7
74
5
42
0.0000001000
43
0.0000001000
44
0.0000000001
12
-1.0699032317
22
-0.0000004356
32
0.0000000000
13
-0.0770735102
23
-1.0671235164
33
0.0000000000
40
0.0000000000
40
0.0000000000
40
0.0000000000
40
0.0000000000
40
0.2279182779
40
0.4688168578
40
0.7276753029
40
1.0000000000
40
1.0000000000
40
1.0000000000
40
1.0000000000
10
179.7979295020
20
176.0156847459
30
0.0000000000
10
179.7166460013
20
176.0156847128
30
0.0000000000
10
179.5474443266
20
175.9758148664
30
0.0000000000
10
179.3379100943
20
175.8115708152
30
0.0000000000
10
179.1934948499
20
175.5710537861
30
0.0000000000
10
179.1513343476
20
175.3827316934
30
0.0000000000
10
179.1443380075
20
175.2858636640
30
0.0000000000
11
179.7979295020
21
176.0156847459
31
0.0000000000
11
179.5602135405
21
175.9613322938
31
0.0000000000
11
179.3547986352
21
175.8056605864
31
0.0000000000
11
179.2095967342
21
175.5698224176
31
0.0000000000
11
179.1443380075
21
175.2858636640
31
0.0000000000
0
SPLINE
5
39D
100
AcDbEntity
8
0
100
AcDbSpline
62
9
6
CONTINUOUS
70
0
71
3
72
16
73
12
74
10
42
0.0000001000
43
0.0000001000
44
0.0000000001
12
-6.2739056477
22
-0.0009058597
32
0.0000000000
13
-0.0008728175
23
-6.2739056524
33
0.0000000000
40
0.0000000000
40
0.0000000000
40
0.0000000000
40
0.0000000000
40
0.0789193284
40
0.1690527545
40
0.2693619672
40
0.3788459071
40
0.4963764079
40
0.6205015585
40
0.7482846072
40
0.8760713474
40
1.0000000000
40
1.0000000000
40
1.0000000000
40
1.0000000000
10
120.8595246911
20
195.2093745852
30
0.0000000000
10
120.6944805510
20
195.2093507552
30
0.0000000000
10
120.3406730120
20
195.1858709951
30
0.0000000000
10
119.7861808881
20
195.0771450414
30
0.0000000000
10
119.1932932653
20
194.8643600569
30
0.0000000000
10
118.5925790641
20
194.5292103695
30
0.0000000000
10
118.0217028927
20
194.0606580751
30
0.0000000000
10
117.5245354892
20
193.4628671230
30
0.0000000000
10
117.1442021065
20
192.7596543870
30
0.0000000000
10
116.9118194142
20
191.9954137346
30
0.0000000000
10
116.8604026422
20
191.4675901543
30
0.0000000000
10
116.8603665865
20
191.2084179296
30
0.0000000000
11
120.8595246911
21
195.2093745852
31
0.0000000000
11
120.3654080829
21
195.1776744844
31
0.0000000000
11
119.8106160520
21
195.0682067806
31
0.0000000000
11
119.2182183572
21
194.8557876133
31
0.0000000000
11
118.6184055910
21
194.5210561531
31
0.0000000000
11
118.0484321122
21
194.0532393761
31
0.0000000000
11
117.5505009825
21
193.4544778532
31
0.0000000000
11
117.1690809607
21
192.7493255777
31
0.0000000000
11
116.9359299362
21
191.9822540689
31
0.0000000000
11
116.8603665865
21
191.2084179296
31
0.0000000000
0
SPLINE
5
39E
100
AcDbEntity
8
0
100
AcDbSpline
62
9
6
CONTINUOUS
70
0
71
3
72
11
73
7
74
5
42
0.0000001000
43
0.0000001000
44
0.0000000001
12
0.0000099996
22
-0.8203327278
32
0.0000000000
13
-0.0020952330
23
-0.8203300294
33
0.0000000000
40
0.0000000000
40
0.0000000000
40
0.0000000000
40
0.0000000000
40
0.0728802144
40
0.2828053492
40
0.6046740209
40
1.0000000000
40
1.0000000000
40
1.0000000000
40
1.0000000000
10
120.8604379214
20
196.0287501092
30
0.0000000000
10
120.8604381643
20
196.0088214342
30
0.0000000000
10
120.8604346755
20
195.9314899424
30
0.0000000000
10
120.8604142339
20
195.7661453274
30
0.0000000000
10
120.8605429831
20
195.5126296909
30
0.0000000000
10
120.8601198505
20
195.3165171870
30
0.0000000000
10
120.8598437505
20
195.2084179296
30
0.0000000000
11
120.8604379214
21
196.0287501092
31
0.0000000000
11
120.8604359629
21
195.9689640858
31
0.0000000000
11
120.8604323275
21
195.7967556322
31
0.0000000000
11
120.8604274986
21
195.5327162341
31
0.0000000000
11
120.8598437505
21
195.2084179296
31
0.0000000000
0
SPLINE
5
39F
100
AcDbEntity
8
0
100
AcDbSpline
62
9
6
CONTINUOUS
70
0
71
3
72
13
73
9
74
7
42
0.0000001000
43
0.0000001000
44
0.0000000001
12
-1.6536980646
22
-0.0000140492
32
0.0000000000
13
-1.6147134271
23
0.3569563525
33
0.0000000000
40
0.0000000000
40
0.0000000000
40
0.0000000000
40
0.0000000000
40
0.1132007966
40
0.2475642206
40
0.4018859656
40
0.5778357986
40
0.7770911541
40
1.0000000000
40
1.0000000000
40
1.0000000000
40
1.0000000000
10
179.7978966977
20
176.0156850964
30
0.0000000000
10
179.7354967183
20
176.0156845663
30
0.0000000000
10
179.5990314319
20
176.0222347509
30
0.0000000000
10
179.3787334542
20
176.0462870154
30
0.0000000000
10
179.1254921839
20
176.0850007021
30
0.0000000000
10
178.8384347525
20
176.1380814397
30
0.0000000000
10
178.5155816928
20
176.2049866999
30
0.0000000000
10
178.2881760773
20
176.2544004975
30
0.0000000000
10
178.1681981085
20
176.2809234071
30
0.0000000000
11
179.7978966977
21
176.0156850964
31
0.0000000000
11
179.6108559307
21
176.0234031499
31
0.0000000000
11
179.3898694139
21
176.0465604208
31
0.0000000000
11
179.1374915502
21
176.0844187863
31
0.0000000000
11
178.8512598534
21
176.1367039050
31
0.0000000000
11
178.5284547187
21
176.2028287568
31
0.0000000000
11
178.1681981085
21
176.2809234071
31
0.0000000000
0
SPLINE
5
3A0
100
AcDbEntity
8
0
100
AcDbSpline
62
7
6
CONTINUOUS
70
0
71
3
72
27
73
23
74
21
42
0.0000001000
43
0.0000001000
44
0.0000000001
12
0.0000000000
22
-0.9507859290
32
0.0000000000
13
0.8209876826
23
-0.4795551144
33
0.0000000000
40
0.0000000000
40
0.0000000000
40
0.0000000000
40
0.0000000000
40
0.0215290497
40
0.0466051257
40
0.0728576244
40
0.1005426024
40
0.1304678053
40
0.1628305982
40
0.1977291145
40
0.2352350483
40
0.2756807224
40
0.3193610579
40
0.3665611596
40
0.4175590697
40
0.4726504385
40
0.5321583593
40
0.5964051476
40
0.6657274753
40
0.7405529117
40
0.8213383424
40
0.9085434805
40
1.0000000000
40
1.0000000000
40
1.0000000000
40
1.0000000000
10
147.5103665865
20
177.0103289349
30
0.0000000000
10
147.5103665865
20
177.0035057624
30
0.0000000000
10
147.5168789984
20
176.9891681731
30
0.0000000000
10
147.5324087628
20
176.9722040944
30
0.0000000000
10
147.5514943592
20
176.9558560266
30
0.0000000000
10
147.5729202569
20
176.9401312901
30
0.0000000000
10
147.5966385218
20
176.9242841376
30
0.0000000000
10
147.6227605268
20
176.9079601499
30
0.0000000000
10
147.6512780680
20
176.8909493853
30
0.0000000000
10
147.6822524688
20
176.8730663891
30
0.0000000000
10
147.7158176618
20
176.8541084118
30
0.0000000000
10
147.7521759986
20
176.8338503682
30
0.0000000000
10
147.7915184011
20
176.8120775439
30
0.0000000000
10
147.8340349297
20
176.7885714713
30
0.0000000000
10
147.8799250358
20
176.7631055089
30
0.0000000000
10
147.9294062301
20
176.7354575387
30
0.0000000000
10
147.9827069405
20
176.7053996753
30
0.0000000000
10
148.0400859726
20
176.6726921850
30
0.0000000000
10
148.1018530378
20
176.6370998786
30
0.0000000000
10
148.1683614199
20
176.5983856535
30
0.0000000000
10
148.2392982516
20
176.5568029746
30
0.0000000000
10
148.2881354086
20
176.5281481252
30
0.0000000000
10
148.3131636339
20
176.5135286446
30
0.0000000000
11
147.5103665865
21
177.0103289349
31
0.0000000000
11
147.5171134950
21
176.9910032946
31
0.0000000000
11
147.5325058778
21
176.9727957531
31
0.0000000000
11
147.5513264599
21
176.9564002485
31
0.0000000000
11
147.5724560374
21
176.9407026594
31
0.0000000000
11
147.5960702183
21
176.9248308906
31
0.0000000000
11
147.6221321740
21
176.9084732383
31
0.0000000000
11
147.6506065950
21
176.8914383530
31
0.0000000000
11
147.6814723539
21
176.8735792190
31
0.0000000000
11
147.7149425018
21
176.8546438051
31
0.0000000000
11
147.7512107990
21
176.8344100370
31
0.0000000000
11
147.7904667441
21
176.8126630099
31
0.0000000000
11
147.8328936216
21
176.7891884394
31
0.0000000000
11
147.8786892163
21
176.7637632905
31
0.0000000000
11
147.9280776805
21
176.7361590140
31
0.0000000000
11
147.9812835145
21
176.7061505251
31
0.0000000000
11
148.0385461977
21
176.6735130519
31
0.0000000000
11
148.1001913209
21
176.6379996563
31
0.0000000000
11
148.1665840351
21
176.5993767362
31
0.0000000000
11
148.2381330726
21
176.5574795984
31
0.0000000000
11
148.3131636339
21
176.5135286446
31
0.0000000000
0
SPLINE
5
3A1
100
AcDbEntity
8
0
100
AcDbSpline
62
9
6
CONTINUOUS
70
0
71
3
72
11
73
7
74
5
42
0.0000001000
43
0.0000001000
44
0.0000000001
12
-0.8043886765
22
0.1968108435
32
0.0000000000
13
-0.8268332337
23
-0.0460701062
33
0.0000000000
40
0.0000000000
40
0.0000000000
40
0.0000000000
40
0.0000000000
40
0.2216714552
40
0.4606463401
40
0.7193088361
40
1.0000000000
40
1.0000000000
40
1.0000000000
40
1.0000000000
10
147.5103665865
20
177.0103552363
30
0.0000000000
10
147.4509299171
20
177.0248976850
30
0.0000000000
10
147.3264911398
20
177.0514725314
30
0.0000000000
10
147.1298986093
20
177.0804079895
30
0.0000000000
10
146.9154077103
20
177.0959899569
30
0.0000000000
10
146.7663018442
20
177.0943503833
30
0.0000000000
10
146.6889402500
20
177.0900398928
30
0.0000000000
11
147.5103665865
21
177.0103552363
31
0.0000000000
11
147.3308275385
21
177.0486114077
31
0.0000000000
11
147.1350187241
21
177.0772970636
31
0.0000000000
11
146.9213699268
21
177.0926884189
31
0.0000000000
11
146.6889402500
21
177.0900398928
31
0.0000000000
0
SPLINE
5
3A2
100
AcDbEntity
8
0
100
AcDbSpline
62
9
6
CONTINUOUS
70
0
71
3
72
16
73
12
74
10
42
0.0000001000
43
0.0000001000
44
0.0000000001
12
-1.5621624672
22
0.4969092742
32
0.0000000000
13
-1.6334334132
23
-0.1384401869
33
0.0000000000
40
0.0000000000
40
0.0000000000
40
0.0000000000
40
0.0000000000
40
0.0827237017
40
0.1707524507
40
0.2646702004
40
0.3651408617
40
0.4730867317
40
0.5894719173
40
0.7150169106
40
0.8510923826
40
1.0000000000
40
1.0000000000
40
1.0000000000
40
1.0000000000
10
148.3151780976
20
176.5123483221
30
0.0000000000
10
148.2721021436
20
176.5260503803
30
0.0000000000
10
148.1833025324
20
176.5546917505
30
0.0000000000
10
148.0454482614
20
176.5984259738
30
0.0000000000
10
147.8976558179
20
176.6428755986
30
0.0000000000
10
147.7381662243
20
176.6860720273
30
0.0000000000
10
147.5651300827
20
176.7257825931
30
0.0000000000
10
147.3768913652
20
176.7597266181
30
0.0000000000
10
147.1716005904
20
176.7838882930
30
0.0000000000
10
146.9473127737
20
176.7942768253
30
0.0000000000
10
146.7914420812
20
176.7883568866
30
0.0000000000
10
146.7103651886
20
176.7814852871
30
0.0000000000
11
148.3151780976
21
176.5123483221
31
0.0000000000
11
148.1860291867
21
176.5537018796
31
0.0000000000
11
148.0484108140
21
176.5971185219
31
0.0000000000
11
147.9008937897
21
176.6411856700
31
0.0000000000
11
147.7418569424
21
176.6840055177
31
0.0000000000
11
147.5693522612
21
176.7234395761
31
0.0000000000
11
147.3815354087
21
176.7569847970
31
0.0000000000
11
147.1771237444
21
176.7808888927
31
0.0000000000
11
146.9542840199
21
176.7909582098
31
0.0000000000
11
146.7103651886
21
176.7814852871
31
0.0000000000
0
SPLINE
5
3A3
100
AcDbEntity
8
0
100
AcDbSpline
62
7
6
CONTINUOUS
70
0
71
3
72
12
73
8
74
6
42
0.0000001000
43
0.0000001000
44
0.0000000001
12
-1.0006642294
22
0.0000000000
32
0.0000000000
13
0.0000000000
23
-1.0006642294
33
0.0000000000
40
0.0000000000
40
0.0000000000
40
0.0000000000
40
0.0000000000
40
0.0493601833
40
0.1914111537
40
0.4125349936
40
0.6911470999
40
1.0000000000
40
1.0000000000
40
1.0000000000
40
1.0000000000
10
147.5321866642
20
180.0156850962
30
0.0000000000
10
147.5157223409
20
180.0156850962
30
0.0000000000
10
147.5394998187
20
179.9137971845
30
0.0000000000
10
147.5083981659
20
179.8114647408
30
0.0000000000
10
147.5177984991
20
179.5790305176
30
0.0000000000
10
147.5096278956
20
179.3165183273
30
0.0000000000
10
147.5103665865
20
179.1187044459
30
0.0000000000
10
147.5103665865
20
179.0156850962
30
0.0000000000
11
147.5321866642
21
180.0156850962
31
0.0000000000
11
147.5254447488
21
179.9667544101
31
0.0000000000
11
147.5193622614
21
179.8247392816
31
0.0000000000
11
147.5145346573
21
179.6035212344
31
0.0000000000
11
147.5114348152
21
179.3247412993
31
0.0000000000
11
147.5103665865
21
179.0156850962
31
0.0000000000
0
SPLINE
5
3A4
100
AcDbEntity
8
0
100
AcDbSpline
62
9
6
CONTINUOUS
70
0
71
3
72
11
73
7
74
5
42
0.0000001000
43
0.0000001000
44
0.0000000001
12
0.0000000000
22
0.7290255780
32
0.0000000000
13
-0.7290255780
23
0.0000000020
33
0.0000000000
40
0.0000000000
40
0.0000000000
40
0.0000000000
40
0.0000000000
40
0.2332174085
40
0.4765996350
40
0.7336718574
40
1.0000000000
40
1.0000000000
40
1.0000000000
40
1.0000000000
10
191.7603665865
20
153.6247091853
30
0.0000000000
10
191.7603665865
20
153.6813830040
30
0.0000000000
10
191.7328348563
20
153.7986697419
30
0.0000000000
10
191.6189918554
20
153.9422384051
30
0.0000000000
10
191.4533930609
20
154.0361577027
30
0.0000000000
10
191.3250865959
20
154.0577218870
30
0.0000000000
10
191.2603665865
20
154.0577218872
30
0.0000000000
11
191.7603665865
21
153.6247091853
31
0.0000000000
11
191.7223063853
21
153.7904159040
31
0.0000000000
11
191.6139200535
21
153.9308953365
31
0.0000000000
11
191.4517083718
21
154.0247607327
31
0.0000000000
11
191.2603665865
21
154.0577218872
31
0.0000000000
0
SPLINE
5
3A5
100
AcDbEntity
8
0
100
AcDbSpline
62
9
6
CONTINUOUS
70
0
71
3
72
10
73
6
74
4
42
0.0000001000
43
0.0000001000
44
0.0000000001
12
-0.0277017668
22
0.3080944218
32
0.0000000000
13
-0.0171622020
23
0.3088608415
33
0.0000000000
40
0.0000000000
40
0.0000000000
40
0.0000000000
40
0.0000000000
40
0.3049952084
40
0.6438638459
40
1.0000000000
40
1.0000000000
40
1.0000000000
40
1.0000000000
10
146.7103665293
20
176.7814665831
30
0.0000000000
10
146.7075502272
20
176.8127890239
30
0.0000000000
10
146.7021397371
20
176.8789609707
30
0.0000000000
10
146.6949091415
20
176.9818211090
30
0.0000000000
10
146.6905941957
20
177.0533561138
30
0.0000000000
10
146.6885568355
20
177.0900216179
30
0.0000000000
11
146.7103665293
21
176.7814665831
31
0.0000000000
11
146.7025937867
21
176.8754922506
31
0.0000000000
11
146.6952028694
21
176.9800560757
31
0.0000000000
11
146.6885568355
21
177.0900216179
31
0.0000000000
0
SPLINE
5
3A6
100
AcDbEntity
8
0
100
AcDbSpline
62
9
6
CONTINUOUS
70
0
71
3
72
11
73
7
74
5
42
0.0000001000
43
0.0000001000
44
0.0000000001
12
0.0000000000
22
-0.5135515042
32
0.0000000000
13
-0.5135515042
23
0.0000000000
33
0.0000000000
40
0.0000000000
40
0.0000000000
40
0.0000000000
40
0.0000000000
40
0.0933009225
40
0.3097541648
40
0.6272442145
40
1.0000000000
40
1.0000000000
40
1.0000000000
40
1.0000000000
10
191.7603665865
20
153.1156347903
30
0.0000000000
10
191.7603665865
20
153.0996631806
30
0.0000000000
10
191.6940713988
20
153.0755138149
30
0.0000000000
10
191.6017245621
20
153.0581291682
30
0.0000000000
10
191.4405434057
20
153.0425216905
30
0.0000000000
10
191.3241763513
20
153.0395730972
30
0.0000000000
10
191.2603665865
20
153.0395730972
30
0.0000000000
11
191.7603665865
21
153.1156347903
31
0.0000000000
11
191.7223063528
21
153.0865272406
31
0.0000000000
11
191.6139199771
21
153.0618510514
31
0.0000000000
11
191.4517083027
21
153.0453629489
31
0.0000000000
11
191.2603665865
21
153.0395730972
31
0.0000000000
0
SPLINE
5
3A7
100
AcDbEntity
8
0
100
AcDbSpline
62
9
6
CONTINUOUS
70
0
71
3
72
9
73
5
74
3
42
0.0000001000
43
0.0000001000
44
0.0000000001
12
0.0000090352
22
-0.1526792734
32
0.0000000000
13
-0.0232278656
23
-0.1509020439
33
0.0000000000
40
0.0000000000
40
0.0000000000
40
0.0000000000
40
0.0000000000
40
0.4991861816
40
1.0000000000
40
1.0000000000
40
1.0000000000
40
1.0000000000
10
191.2603665865
20
152.6396234031
30
0.0000000000
10
191.2603680900
20
152.6142182752
30
0.0000000000
10
191.2584264999
20
152.5633066626
30
0.0000000000
10
191.2526057090
20
152.5126912931
30
0.0000000000
10
191.2487280970
20
152.4875000169
30
0.0000000000
11
191.2603665865
21
152.6396234031
31
0.0000000000
11
191.2574630143
21
152.5634633481
31
0.0000000000
11
191.2487280970
21
152.4875000169
31
0.0000000000
0
SPLINE
5
3A8
100
AcDbEntity
8
0
100
AcDbSpline
62
9
6
CONTINUOUS
70
0
71
3
72
11
73
7
74
5
42
0.0000001000
43
0.0000001000
44
0.0000000001
12
0.0000000000
22
-0.5135514961
32
0.0000000000
13
-0.5135514961
23
-0.0000000156
33
0.0000000000
40
0.0000000000
40
0.0000000000
40
0.0000000000
40
0.0000000000
40
0.0933011645
40
0.3097548274
40
0.6272449166
40
1.0000000000
40
1.0000000000
40
1.0000000000
40
1.0000000000
10
191.7603665865
20
152.7156850962
30
0.0000000000
10
191.7603665865
20
152.6997134453
30
0.0000000000
10
191.6940712032
20
152.6755640925
30
0.0000000000
10
191.6017242941
20
152.6581794349
30
0.0000000000
10
191.4405431695
20
152.6425719964
30
0.0000000000
10
191.3241762301
20
152.6396234050
30
0.0000000000
10
191.2603665865
20
152.6396234031
30
0.0000000000
11
191.7603665865
21
152.7156850962
31
0.0000000000
11
191.7223062288
21
152.6865775052
31
0.0000000000
11
191.6139196345
21
152.6619013111
31
0.0000000000
11
191.4517079395
21
152.6454132363
31
0.0000000000
11
191.2603665865
21
152.6396234031
31
0.0000000000
0
SPLINE
5
3A9
100
AcDbEntity
8
0
100
AcDbSpline
62
9
6
CONTINUOUS
70
0
71
3
72
13
73
9
74
7
42
0.0000001000
43
0.0000001000
44
0.0000000001
12
-0.1787564667
22
-1.7404444762
32
0.0000000000
13
-1.7495971162
23
-0.0032833399
33
0.0000000000
40
0.0000000000
40
0.0000000000
40
0.0000000000
40
0.0000000000
40
0.1656563475
40
0.3375925055
40
0.5095343655
40
0.6768935285
40
0.8388410744
40
1.0000000000
40
1.0000000000
40
1.0000000000
40
1.0000000000
10
191.2487280970
20
152.4875000169
30
0.0000000000
10
191.2388573825
20
152.3913947919
30
0.0000000000
10
191.2059126830
20
152.1965842778
30
0.0000000000
10
191.1143347337
20
151.9126515841
30
0.0000000000
10
190.9748948972
20
151.6470831882
30
0.0000000000
10
190.7853830426
20
151.4207868426
30
0.0000000000
10
190.5445763409
20
151.2576765037
30
0.0000000000
10
190.3543543170
20
151.2158614760
30
0.0000000000
10
190.2603665865
20
151.2156850962
30
0.0000000000
11
191.2487280970
21
152.4875000169
31
0.0000000000
11
191.1998484391
21
152.2018190996
31
0.0000000000
11
191.1063390463
21
151.9159023518
31
0.0000000000
11
190.9644673634
21
151.6506273606
31
0.0000000000
11
190.7737346751
21
151.4284569551
31
0.0000000000
11
190.5362544050
21
151.2739039331
31
0.0000000000
11
190.2603665865
21
151.2156850962
31
0.0000000000
0
SPLINE
5
3AA
100
AcDbEntity
8
0
100
AcDbSpline
62
9
6
CONTINUOUS
70
0
71
3
72
11
73
7
74
5
42
0.0000001000
43
0.0000001000
44
0.0000000001
12
-0.0764180880
22
-0.4958753085
32
0.0000000000
13
-0.4961524980
23
0.0745972151
33
0.0000000000
40
0.0000000000
40
0.0000000000
40
0.0000000000
40
0.0000000000
40
0.0928698821
40
0.3084264748
40
0.6255894039
40
1.0000000000
40
1.0000000000
40
1.0000000000
40
1.0000000000
10
191.7428873745
20
152.4875033149
30
0.0000000000
10
191.7405217282
20
152.4721526878
30
0.0000000000
10
191.6732945746
20
152.4586158684
30
0.0000000000
10
191.5817299642
20
152.4554462670
30
0.0000000000
10
191.4237048312
20
152.4640261116
30
0.0000000000
10
191.3106496685
20
152.4782004567
30
0.0000000000
10
191.2487280843
20
152.4875104526
30
0.0000000000
11
191.7428873745
21
152.4875033149
31
0.0000000000
11
191.7020386681
21
152.4650862341
31
0.0000000000
11
191.5941735334
21
152.4572279414
31
0.0000000000
11
191.4352380191
21
152.4650901103
31
0.0000000000
11
191.2487280843
21
152.4875104526
31
0.0000000000
0
SPLINE
5
3AB
100
AcDbEntity
8
0
100
AcDbSpline
62
9
6
CONTINUOUS
70
0
71
3
72
13
73
9
74
7
42
0.0000001000
43
0.0000001000
44
0.0000000001
12
-27.0011748440
22
-1.5039181211
32
0.0000000000
13
-27.0430252126
23
0.0001412673
33
0.0000000000
40
0.0000000000
40
0.0000000000
40
0.0000000000
40
0.0000000000
40
0.1313820683
40
0.2750844990
40
0.4326990288
40
0.6057997753
40
0.7950827292
40
1.0000000000
40
1.0000000000
40
1.0000000000
40
1.0000000000
10
146.6889402500
20
177.0900398928
30
0.0000000000
10
145.5064501843
20
177.0241772683
30
0.0000000000
10
143.0293066242
20
176.9091159395
30
0.0000000000
10
139.1311075614
20
176.7737507681
30
0.0000000000
10
134.8558816593
20
176.6646595857
30
0.0000000000
10
130.1691306269
20
176.5817818674
30
0.0000000000
10
125.0555271188
20
176.5281150829
30
0.0000000000
10
121.5020579176
20
176.5156754468
30
0.0000000000
10
119.6548636104
20
176.5156850962
30
0.0000000000
11
146.6889402500
21
177.0900398928
31
0.0000000000
11
143.1400006199
21
176.9208853239
31
0.0000000000
11
139.2562713508
21
176.7837838878
31
0.0000000000
11
134.9953240664
21
176.6735213669
31
0.0000000000
11
130.3149064209
21
176.5897174124
31
0.0000000000
11
125.1964117326
21
176.5353239896
31
0.0000000000
11
119.6548636104
21
176.5156850962
31
0.0000000000
0
SPLINE
5
3AC
100
AcDbEntity
8
0
100
AcDbSpline
62
9
6
CONTINUOUS
70
0
71
3
72
9
73
5
74
3
42
0.0000001000
43
0.0000001000
44
0.0000000001
12
0.0229441042
22
-0.0000005908
32
0.0000000000
13
0.0229437124
23
0.0001340842
33
0.0000000000
40
0.0000000000
40
0.0000000000
40
0.0000000000
40
0.0000000000
40
0.5008155997
40
1.0000000000
40
1.0000000000
40
1.0000000000
40
1.0000000000
10
145.5103665865
20
154.9477359037
30
0.0000000000
10
145.5141968416
20
154.9477358051
30
0.0000000000
10
145.5218448844
20
154.9477462126
30
0.0000000000
10
145.5294928465
20
154.9477822475
30
0.0000000000
10
145.5333105610
20
154.9478045584
30
0.0000000000
11
145.5103665865
21
154.9477359037
31
0.0000000000
11
145.5218573396
21
154.9477526573
31
0.0000000000
11
145.5333105610
21
154.9478045584
31
0.0000000000
0
SPLINE
5
3AD
100
AcDbEntity
8
0
100
AcDbSpline
62
9
6
CONTINUOUS
70
0
71
3
72
12
73
8
74
6
42
0.0000001000
43
0.0000001000
44
0.0000000001
12
0.0000000000
22
-2.0571703974
32
0.0000000000
13
2.0571703974
23
0.0000000052
33
0.0000000000
40
0.0000000000
40
0.0000000000
40
0.0000000000
40
0.0000000000
40
0.0659758950
40
0.2100904482
40
0.4276479181
40
0.6994822923
40
1.0000000000
40
1.0000000000
40
1.0000000000
40
1.0000000000
10
147.5103665865
20
175.2156850962
30
0.0000000000
10
147.5103665865
20
175.1704438768
30
0.0000000000
10
147.6714115839
20
175.0836979585
30
0.0000000000
10
147.9319048020
20
175.0249145065
30
0.0000000000
10
148.3747349786
20
174.9581776929
30
0.0000000000
10
148.9105410733
20
174.9211039364
30
0.0000000000
10
149.3042945424
20
174.9114383267
30
0.0000000000
10
149.5103665865
20
174.9114383272
30
0.0000000000
11
147.5103665865
21
175.2156850962
31
0.0000000000
11
147.6082527691
21
175.1216680412
31
0.0000000000
11
147.8923301217
21
175.0368538498
31
0.0000000000
11
148.3347925188
21
174.9695446822
31
0.0000000000
11
148.8923298212
21
174.9263293601
31
0.0000000000
11
149.5103665865
21
174.9114383272
31
0.0000000000
0
SPLINE
5
3AE
100
AcDbEntity
8
0
100
AcDbSpline
62
9
6
CONTINUOUS
70
0
71
3
72
15
73
11
74
9
42
0.0000001000
43
0.0000001000
44
0.0000000001
12
2.0041836542
22
-0.0759640998
32
0.0000000000
13
0.8421442990
23
1.8202515331
33
0.0000000000
40
0.0000000000
40
0.0000000000
40
0.0000000000
40
0.0000000000
40
0.0976917819
40
0.2059972245
40
0.3225439249
40
0.4461637000
40
0.5763817392
40
0.7136788845
40
0.8593803679
40
1.0000000000
40
1.0000000000
40
1.0000000000
40
1.0000000000
10
145.5333499464
20
154.9478072915
30
0.0000000000
10
145.5986140372
20
154.9453336021
30
0.0000000000
10
145.7366028088
20
154.9471481824
30
0.0000000000
10
145.9510697056
20
154.9738433018
30
0.0000000000
10
146.1775111613
20
155.0314460673
30
0.0000000000
10
146.4074758112
20
155.1256767215
30
0.0000000000
10
146.6321315617
20
155.2617085212
30
0.0000000000
10
146.8418649591
20
155.4438777255
30
0.0000000000
10
147.0183869778
20
155.6672078844
30
0.0000000000
10
147.1123891490
20
155.8349167989
30
0.0000000000
10
147.1518631561
20
155.9202378325
30
0.0000000000
11
145.5333499464
21
154.9478072915
31
0.0000000000
11
145.7292645643
21
154.9504809889
31
0.0000000000
11
145.9448016233
21
154.9774669898
31
0.0000000000
11
146.1712786880
21
155.0353168037
31
0.0000000000
11
146.4005789066
21
155.1296194700
31
0.0000000000
11
146.6238309662
21
155.2651457767
31
0.0000000000
11
146.8315469166
21
155.4459237397
31
0.0000000000
11
147.0139509939
21
155.6742274269
31
0.0000000000
11
147.1518631561
21
155.9202378325
31
0.0000000000
0
SPLINE
5
3AF
100
AcDbEntity
8
0
100
AcDbSpline
62
9
6
CONTINUOUS
70
0
71
3
72
10
73
6
74
4
42
0.0000001000
43
0.0000001000
44
0.0000000001
12
0.2682597392
22
0.0015384203
32
0.0000000000
13
0.0061640459
23
-0.2681933238
33
0.0000000000
40
0.0000000000
40
0.0000000000
40
0.0000000000
40
0.0000000000
40
0.1140037842
40
0.4506137800
40
1.0000000000
40
1.0000000000
40
1.0000000000
40
1.0000000000
10
145.5218588182
20
155.2157181784
30
0.0000000000
10
145.5320530267
20
155.2157766404
30
0.0000000000
10
145.5157833448
20
155.1512240704
30
0.0000000000
10
145.5375369837
20
155.0855577734
30
0.0000000000
10
145.5322211324
20
154.9969211970
30
0.0000000000
10
145.5333499464
20
154.9478072915
30
0.0000000000
11
145.5218588182
21
155.2157181784
31
0.0000000000
11
145.5254894857
21
155.1853513217
31
0.0000000000
11
145.5293590498
21
155.0951338747
31
0.0000000000
11
145.5333499464
21
154.9478072915
31
0.0000000000
0
SPLINE
5
3B0
100
AcDbEntity
8
0
100
AcDbSpline
62
9
6
CONTINUOUS
70
0
71
3
72
10
73
6
74
4
42
0.0000001000
43
0.0000001000
44
0.0000000001
12
0.5900316001
22
0.9614012949
32
0.0000000000
13
0.1015249908
23
1.1252650140
33
0.0000000000
40
0.0000000000
40
0.0000000000
40
0.0000000000
40
0.0000000000
40
0.3913942451
40
0.7962004584
40
1.0000000000
40
1.0000000000
40
1.0000000000
40
1.0000000000
10
147.1519546850
20
155.9201775491
30
0.0000000000
10
147.2289330092
20
156.0456065272
30
0.0000000000
10
147.3612512783
20
156.3164636440
30
0.0000000000
10
147.4622050971
20
156.6806491157
30
0.0000000000
10
147.4929959623
20
156.9080951767
30
0.0000000000
10
147.4998928778
20
156.9845380080
30
0.0000000000
11
147.1519546850
21
155.9201775491
31
0.0000000000
11
147.3464714528
21
156.3165183689
31
0.0000000000
11
147.4689376133
21
156.7564190913
31
0.0000000000
11
147.4998928778
21
156.9845380080
31
0.0000000000
0
SPLINE
5
3B1
100
AcDbEntity
8
0
100
AcDbSpline
62
9
6
CONTINUOUS
70
0
71
3
72
10
73
6
74
4
42
0.0000001000
43
0.0000001000
44
0.0000000001
12
-0.0904174122
22
-0.1299234642
32
0.0000000000
13
0.0543447675
23
-0.1486676200
33
0.0000000000
40
0.0000000000
40
0.0000000000
40
0.0000000000
40
0.0000000000
40
0.2750690994
40
0.5984394385
40
1.0000000000
40
1.0000000000
40
1.0000000000
40
1.0000000000
10
147.1519648010
20
156.0732295823
30
0.0000000000
10
147.1436744556
20
156.0613169389
30
0.0000000000
10
147.1321449932
20
156.0306269604
30
0.0000000000
10
147.1340690660
20
155.9770908469
30
0.0000000000
10
147.1446894397
20
155.9400718134
30
0.0000000000
10
147.1519636782
20
155.9201721290
30
0.0000000000
11
147.1519648010
21
156.0732295823
31
0.0000000000
11
147.1357546867
21
156.0328191840
31
0.0000000000
11
147.1357543134
21
155.9816332088
31
0.0000000000
11
147.1519636782
21
155.9201721290
31
0.0000000000
0
SPLINE
5
3B2
100
AcDbEntity
8
0
100
AcDbSpline
62
9
6
CONTINUOUS
70
0
71
3
72
9
73
5
74
3
42
0.0000001000
43
0.0000001000
44
0.0000000001
12
0.0230868185
22
-0.0001323336
32
0.0000000000
13
0.0230871975
23
0.0000029349
33
0.0000000000
40
0.0000000000
40
0.0000000000
40
0.0000000000
40
0.0000000000
40
0.5022791159
40
1.0000000000
40
1.0000000000
40
1.0000000000
40
1.0000000000
10
181.4872795187
20
154.9478052548
30
0.0000000000
10
181.4911448609
20
154.9477830987
30
0.0000000000
10
181.4988405203
20
154.9477473597
30
0.0000000000
10
181.5065362597
20
154.9477354168
30
0.0000000000
10
181.5103665865
20
154.9477359037
30
0.0000000000
11
181.4872795187
21
154.9478052548
31
0.0000000000
11
181.4988756191
21
154.9477532002
31
0.0000000000
11
181.5103665865
21
154.9477359037
31
0.0000000000
0
SPLINE
5
3B3
100
AcDbEntity
8
0
100
AcDbSpline
62
9
6
CONTINUOUS
70
0
71
3
72
10
73
6
74
4
42
0.0000001000
43
0.0000001000
44
0.0000000001
12
-0.2682621413
22
0.0015449673
32
0.0000000000
13
-0.0061641517
23
-0.2681957617
33
0.0000000000
40
0.0000000000
40
0.0000000000
40
0.0000000000
40
0.0000000000
40
0.1140036690
40
0.4506136834
40
1.0000000000
40
1.0000000000
40
1.0000000000
40
1.0000000000
10
181.4988743528
20
155.2157180958
30
0.0000000000
10
181.4886800634
20
155.2157768064
30
0.0000000000
10
181.5049494097
20
155.1512231251
30
0.0000000000
10
181.4831957794
20
155.0855567750
30
0.0000000000
10
181.4885115148
20
154.9969191660
30
0.0000000000
10
181.4873826813
20
154.9478048054
30
0.0000000000
11
181.4988743528
21
155.2157180958
31
0.0000000000
11
181.4952434524
21
155.1853510178
31
0.0000000000
11
181.4913736951
21
155.0951327522
31
0.0000000000
11
181.4873826813
21
154.9478048054
31
0.0000000000
0
SPLINE
5
3B4
100
AcDbEntity
8
0
100
AcDbSpline
62
9
6
CONTINUOUS
70
0
71
3
72
11
73
7
74
5
42
0.0000001000
43
0.0000001000
44
0.0000000001
12
-0.6443148263
22
0.0000000000
32
0.0000000000
13
-0.1459726550
23
-0.6341952165
33
0.0000000000
40
0.0000000000
40
0.0000000000
40
0.0000000000
40
0.0000000000
40
0.3013432996
40
0.5922138349
40
0.8675945751
40
1.0000000000
40
1.0000000000
40
1.0000000000
40
1.0000000000
10
135.7603665865
20
154.9477359037
30
0.0000000000
10
135.6956466013
20
154.9477359037
30
0.0000000000
10
135.5673401706
20
154.9261717335
30
0.0000000000
10
135.4017413839
20
154.8322524769
30
0.0000000000
10
135.3059285300
20
154.7114218822
30
0.0000000000
10
135.2765506609
20
154.6271591983
30
0.0000000000
10
135.2701081371
20
154.5991689026
30
0.0000000000
11
135.7603665865
21
154.9477359037
31
0.0000000000
11
135.5690248704
21
154.9147747744
31
0.0000000000
11
135.4068131959
21
154.8209094197
31
0.0000000000
11
135.2984268203
21
154.6804299888
31
0.0000000000
11
135.2701081371
21
154.5991689026
31
0.0000000000
0
SPLINE
5
3B5
100
AcDbEntity
8
0
100
AcDbSpline
62
9
6
CONTINUOUS
70
0
71
3
72
8
73
4
74
2
42
0.0000001000
43
0.0000001000
44
0.0000000001
12
-0.0191916324
22
-0.0833802844
32
0.0000000000
13
0.0000000000
23
-0.0847107516
33
0.0000000000
40
0.0000000000
40
0.0000000000
40
0.0000000000
40
0.0000000000
40
1.0000000000
40
1.0000000000
40
1.0000000000
40
1.0000000000
10
135.2701081371
20
154.5991689026
30
0.0000000000
10
135.2637109263
20
154.5713754745
30
0.0000000000
10
135.2603665865
20
154.5429601190
30
0.0000000000
10
135.2603665865
20
154.5147232018
30
0.0000000000
11
135.2701081371
21
154.5991689026
31
0.0000000000
11
135.2603665865
21
154.5147232018
31
0.0000000000
0
SPLINE
5
3B6
100
AcDbEntity
8
0
100
AcDbSpline
62
9
6
CONTINUOUS
70
0
71
3
72
13
73
9
74
7
42
0.0000001000
43
0.0000001000
44
0.0000000001
12
0.8401557405
22
-1.8195803415
32
0.0000000000
13
2.0027468220
23
0.0757591874
33
0.0000000000
40
0.0000000000
40
0.0000000000
40
0.0000000000
40
0.0000000000
40
0.1404132573
40
0.2849349521
40
0.4386150877
40
0.6078693880
40
0.7962910709
40
1.0000000000
40
1.0000000000
40
1.0000000000
40
1.0000000000
10
179.8689243665
20
155.9202366758
30
0.0000000000
10
179.9082473679
20
155.8350722750
30
0.0000000000
10
180.0015620211
20
155.6681751422
30
0.0000000000
10
180.1842043009
20
155.4371839120
30
0.0000000000
10
180.4231800183
20
155.2328171905
30
0.0000000000
10
180.7250927702
20
155.0676155739
30
0.0000000000
10
181.0875386949
20
154.9606971293
30
0.0000000000
10
181.3513902778
20
154.9426890278
30
0.0000000000
10
181.4873827479
20
154.9478333021
30
0.0000000000
11
179.8689243665
21
155.9202366758
31
0.0000000000
11
180.0063687473
21
155.6746709928
31
0.0000000000
11
180.1870319512
21
155.4482722099
31
0.0000000000
11
180.4210095958
21
155.2479723808
31
0.0000000000
11
180.7181981167
21
155.0844289821
31
0.0000000000
11
181.0801349276
21
154.9766942146
31
0.0000000000
11
181.4873827479
21
154.9478333021
31
0.0000000000
0
SPLINE
5
3B7
100
AcDbEntity
8
0
100
AcDbSpline
62
9
6
CONTINUOUS
70
0
71
3
72
11
73
7
74
5
42
0.0000001000
43
0.0000001000
44
0.0000000001
12
-0.7290255776
22
-0.0000000051
32
0.0000000000
13
-0.0000000000
23
-0.7290255776
33
0.0000000000
40
0.0000000000
40
0.0000000000
40
0.0000000000
40
0.0000000000
40
0.2663281950
40
0.5234004365
40
0.7667826444
40
1.0000000000
40
1.0000000000
40
1.0000000000
40
1.0000000000
10
135.7603665865
20
154.0577218872
30
0.0000000000
10
135.6956465645
20
154.0577218868
30
0.0000000000
10
135.5673400816
20
154.0361576948
30
0.0000000000
10
135.4017412832
20
153.9422383756
30
0.0000000000
10
135.2878983060
20
153.7986697107
30
0.0000000000
10
135.2603665865
20
153.6813829911
30
0.0000000000
10
135.2603665865
20
153.6247091853
30
0.0000000000
11
135.7603665865
21
154.0577218872
31
0.0000000000
11
135.5690247649
21
154.0247607191
31
0.0000000000
11
135.4068130798
21
153.9308953012
31
0.0000000000
11
135.2984267709
21
153.7904158681
31
0.0000000000
11
135.2603665865
21
153.6247091853
31
0.0000000000
0
SPLINE
5
3B8
100
AcDbEntity
8
0
100
AcDbSpline
62
9
6
CONTINUOUS
70
0
71
3
72
10
73
6
74
4
42
0.0000001000
43
0.0000001000
44
0.0000000001
12
0.0904852645
22
-0.1298313444
32
0.0000000000
13
-0.0543734047
23
-0.1486179462
33
0.0000000000
40
0.0000000000
40
0.0000000000
40
0.0000000000
40
0.0000000000
40
0.2753109711
40
0.5986694872
40
1.0000000000
40
1.0000000000
40
1.0000000000
40
1.0000000000
10
179.8688254892
20
156.0732432463
30
0.0000000000
10
179.8771293512
20
156.0613285818
30
0.0000000000
10
179.8886945553
20
156.0306475976
30
0.0000000000
10
179.8868126209
20
155.9771186088
30
0.0000000000
10
179.8761982686
20
155.9401183147
30
0.0000000000
10
179.8689243665
20
155.9202366758
30
0.0000000000
11
179.8688254892
21
156.0732432463
31
0.0000000000
11
179.8850822679
21
156.0328212556
31
0.0000000000
11
179.8851176031
21
155.9816490689
31
0.0000000000
11
179.8689243665
21
155.9202366758
31
0.0000000000
0
SPLINE
5
3B9
100
AcDbEntity
8
0
100
AcDbSpline
62
9
6
CONTINUOUS
70
0
71
3
72
11
73
7
74
5
42
0.0000001000
43
0.0000001000
44
0.0000000001
12
-0.5135515042
22
0.0000000000
32
0.0000000000
13
0.0000000000
23
0.5135515042
33
0.0000000000
40
0.0000000000
40
0.0000000000
40
0.0000000000
40
0.0000000000
40
0.3727557855
40
0.6902458352
40
0.9066990775
40
1.0000000000
40
1.0000000000
40
1.0000000000
40
1.0000000000
10
135.7603665865
20
153.0395730972
30
0.0000000000
10
135.6965568218
20
153.0395730972
30
0.0000000000
10
135.5801897674
20
153.0425216905
30
0.0000000000
10
135.4190086110
20
153.0581291682
30
0.0000000000
10
135.3266617743
20
153.0755138149
30
0.0000000000
10
135.2603665865
20
153.0996631806
30
0.0000000000
10
135.2603665865
20
153.1156347903
30
0.0000000000
11
135.7603665865
21
153.0395730972
31
0.0000000000
11
135.5690248704
21
153.0453629489
31
0.0000000000
11
135.4068131959
21
153.0618510514
31
0.0000000000
11
135.2984268203
21
153.0865272406
31
0.0000000000
11
135.2603665865
21
153.1156347903
31
0.0000000000
0
SPLINE
5
3BA
100
AcDbEntity
8
0
100
AcDbSpline
62
9
6
CONTINUOUS
70
0
71
3
72
9
73
5
74
3
42
0.0000001000
43
0.0000001000
44
0.0000000001
12
-0.0000104603
22
-0.1526793086
32
0.0000000000
13
0.0232305303
23
-0.1509016695
33
0.0000000000
40
0.0000000000
40
0.0000000000
40
0.0000000000
40
0.0000000000
40
0.4996058340
40
1.0000000000
40
1.0000000000
40
1.0000000000
40
1.0000000000
10
135.7603665865
20
152.6396234031
30
0.0000000000
10
135.7603648445
20
152.6141969120
30
0.0000000000
10
135.7623077352
20
152.5632852071
30
0.0000000000
10
135.7681302688
20
152.5126701219
30
0.0000000000
10
135.7720050761
20
152.4875000169
30
0.0000000000
11
135.7603665865
21
152.6396234031
31
0.0000000000
11
135.7632745857
21
152.5633993805
31
0.0000000000
11
135.7720050761
21
152.4875000169
31
0.0000000000
0
SPLINE
5
3BB
100
AcDbEntity
8
0
100
AcDbSpline
62
9
6
CONTINUOUS
70
0
71
3
72
11
73
7
74
5
42
0.0000001000
43
0.0000001000
44
0.0000000001
12
-0.5135515030
22
0.0000000033
32
0.0000000000
13
0.0000000000
23
0.5135515030
33
0.0000000000
40
0.0000000000
40
0.0000000000
40
0.0000000000
40
0.0000000000
40
0.3727557006
40
0.6902457552
40
0.9066990485
40
1.0000000000
40
1.0000000000
40
1.0000000000
40
1.0000000000
10
135.7603665865
20
152.6396234031
30
0.0000000000
10
135.6965568364
20
152.6396234035
30
0.0000000000
10
135.5801897960
20
152.6425719968
30
0.0000000000
10
135.4190086434
20
152.6581794698
30
0.0000000000
10
135.3266617983
20
152.6755641179
30
0.0000000000
10
135.2603665865
20
152.6997134815
30
0.0000000000
10
135.2603665865
20
152.7156850961
30
0.0000000000
11
135.7603665865
21
152.6396234031
31
0.0000000000
11
135.5690249144
21
152.6454132529
31
0.0000000000
11
135.4068132375
21
152.6619013521
31
0.0000000000
11
135.2984268354
21
152.6865775418
31
0.0000000000
11
135.2603665865
21
152.7156850961
31
0.0000000000
0
SPLINE
5
3BC
100
AcDbEntity
8
0
100
AcDbSpline
62
9
6
CONTINUOUS
70
0
71
3
72
13
73
9
74
7
42
0.0000001000
43
0.0000001000
44
0.0000000001
12
0.1789506840
22
-1.7407463434
32
0.0000000000
13
1.7499190862
23
-0.0020907250
33
0.0000000000
40
0.0000000000
40
0.0000000000
40
0.0000000000
40
0.0000000000
40
0.1776712892
40
0.3554270934
40
0.5287629420
40
0.6947284833
40
0.8517758350
40
1.0000000000
40
1.0000000000
40
1.0000000000
40
1.0000000000
10
135.7720050761
20
152.4875000169
30
0.0000000000
10
135.7826032090
20
152.3844064679
30
0.0000000000
10
135.8182498705
20
152.1793093926
30
0.0000000000
10
135.9173112538
20
151.8858050284
30
0.0000000000
10
136.0639331138
20
151.6200169387
30
0.0000000000
10
136.2578476181
20
151.4010124121
30
0.0000000000
10
136.4943339388
20
151.2519206151
30
0.0000000000
10
136.6739064881
20
151.2157883948
30
0.0000000000
10
136.7603665865
20
151.2156850962
30
0.0000000000
11
135.7720050761
21
152.4875000169
31
0.0000000000
11
135.8259729716
21
152.1813091146
31
0.0000000000
11
135.9267991973
21
151.8870448448
31
0.0000000000
11
136.0755079407
21
151.6226755693
31
0.0000000000
11
136.2708107993
21
151.4077236417
31
0.0000000000
11
136.5057420949
21
151.2651280123
31
0.0000000000
11
136.7603665865
21
151.2156850962
31
0.0000000000
0
SPLINE
5
3BD
100
AcDbEntity
8
0
100
AcDbSpline
62
9
6
CONTINUOUS
70
0
71
3
72
10
73
6
74
4
42
0.0000001000
43
0.0000001000
44
0.0000000001
12
0.1011911334
22
-1.1262469684
32
0.0000000000
13
0.5905386399
23
-0.9622164890
33
0.0000000000
40
0.0000000000
40
0.0000000000
40
0.0000000000
40
0.0000000000
40
0.2031869481
40
0.6079967439
40
1.0000000000
40
1.0000000000
40
1.0000000000
40
1.0000000000
10
179.5207526522
20
156.9854969987
30
0.0000000000
10
179.5276062247
20
156.9092174373
30
0.0000000000
10
179.5582859827
20
156.6817948282
30
0.0000000000
10
179.6591399904
20
156.3172442804
30
0.0000000000
10
179.7916141318
20
156.0459082144
30
0.0000000000
10
179.8687784883
20
155.9201775488
30
0.0000000000
11
179.5207526522
21
156.9854969987
31
0.0000000000
11
179.5515339017
21
156.7578575303
31
0.0000000000
11
179.6738818146
21
156.3175163593
31
0.0000000000
11
179.8687784883
21
155.9201775488
31
0.0000000000
0
SPLINE
5
3BE
100
AcDbEntity
8
0
100
AcDbSpline
62
9
6
CONTINUOUS
70
0
71
3
72
11
73
7
74
5
42
0.0000001000
43
0.0000001000
44
0.0000000001
12
-0.4960340074
22
-0.0745634583
32
0.0000000000
13
-0.0765054498
23
0.4957381990
33
0.0000000000
40
0.0000000000
40
0.0000000000
40
0.0000000000
40
0.0000000000
40
0.3744043188
40
0.6915616419
40
0.9071192423
40
1.0000000000
40
1.0000000000
40
1.0000000000
40
1.0000000000
10
135.7720050792
20
152.4875080675
30
0.0000000000
10
135.7100993210
20
152.4782024406
30
0.0000000000
10
135.5970723227
20
152.4640356564
30
0.0000000000
10
135.4390902024
20
152.4554632158
30
0.0000000000
10
135.3475411242
20
152.4586376957
30
0.0000000000
10
135.2803351178
20
152.4721737657
30
0.0000000000
10
135.2779664898
20
152.4875219456
30
0.0000000000
11
135.7720050792
21
152.4875080675
31
0.0000000000
11
135.5855429530
21
152.4650997247
31
0.0000000000
11
135.4266486566
21
152.4572456403
31
0.0000000000
11
135.3188096480
21
152.4651070034
31
0.0000000000
11
135.2779664898
21
152.4875219456
31
0.0000000000
0
SPLINE
5
3BF
100
AcDbEntity
8
0
100
AcDbSpline
62
9
6
CONTINUOUS
70
0
71
3
72
15
73
11
74
9
42
0.0000001000
43
0.0000001000
44
0.0000000001
12
-0.9997752700
22
0.5004475710
32
0.0000000000
13
-1.0003442694
23
0.4993091767
33
0.0000000000
40
0.0000000000
40
0.0000000000
40
0.0000000000
40
0.0000000000
40
0.0201324242
40
0.0786384541
40
0.1712797843
40
0.2922590714
40
0.4367643206
40
0.6034474832
40
0.7913434266
40
1.0000000000
40
1.0000000000
40
1.0000000000
40
1.0000000000
10
329.5508949694
20
189.3156850962
30
0.0000000000
10
329.5441856694
20
189.3190435038
30
0.0000000000
10
329.5179770595
20
189.3321582814
30
0.0000000000
10
329.4608817318
20
189.3607006869
30
0.0000000000
10
329.3701626367
20
189.4060345428
30
0.0000000000
10
329.2507903843
20
189.4657280615
30
0.0000000000
10
329.1067331936
20
189.5377531839
30
0.0000000000
10
328.9403787439
20
189.6209476377
30
0.0000000000
10
328.7526189809
20
189.7147908396
30
0.0000000000
10
328.6204719525
20
189.7809570489
30
0.0000000000
10
328.5508958167
20
189.8156850962
30
0.0000000000
11
329.5508949694
21
189.3156850962
31
0.0000000000
11
329.5307658699
21
189.3257579211
31
0.0000000000
11
329.4722600004
21
189.3550111577
31
0.0000000000
11
329.3796115343
21
189.4013173918
31
0.0000000000
11
329.2586315400
21
189.4618054170
31
0.0000000000
11
329.1141270396
21
189.5340592948
31
0.0000000000
11
328.9474462517
21
189.6174053439
31
0.0000000000
11
328.7595503636
21
189.7113531090
31
0.0000000000
11
328.5508958167
21
189.8156850962
31
0.0000000000
0
SPLINE
5
3C0
100
AcDbEntity
8
0
100
AcDbSpline
62
7
6
CONTINUOUS
70
0
71
3
72
13
73
9
74
7
42
0.0000001000
43
0.0000001000
44
0.0000000001
12
0.5000000000
22
-0.5000000000
32
0.0000000000
13
0.5000000000
23
-0.5000000000
33
0.0000000000
40
0.0000000000
40
0.0000000000
40
0.0000000000
40
0.0000000000
40
0.0529067781
40
0.1831006588
40
0.3600373173
40
0.5645616880
40
0.7825093358
40
1.0000000000
40
1.0000000000
40
1.0000000000
40
1.0000000000
10
326.0508949694
20
193.3156850962
30
0.0000000000
10
326.0597127657
20
193.3068672998
30
0.0000000000
10
326.0902295422
20
193.2763505233
30
0.0000000000
10
326.1502357617
20
193.2163443038
30
0.0000000000
10
326.2355115801
20
193.1310684855
30
0.0000000000
10
326.3354130262
20
193.0311670393
30
0.0000000000
10
326.4420734733
20
192.9245065922
30
0.0000000000
10
326.5146465253
20
192.8519335402
30
0.0000000000
10
326.5508949694
20
192.8156850962
30
0.0000000000
11
326.0508949694
21
193.3156850962
31
0.0000000000
11
326.0773483584
21
193.2892317071
31
0.0000000000
11
326.1424452988
21
193.2241347667
31
0.0000000000
11
326.2309136280
21
193.1356664375
31
0.0000000000
11
326.3331758134
21
193.0334042522
31
0.0000000000
11
326.4421496373
21
192.9244304283
31
0.0000000000
11
326.5508949694
21
192.8156850962
31
0.0000000000
0
SPLINE
5
3C1
100
AcDbEntity
8
0
100
AcDbSpline
62
7
6
CONTINUOUS
70
0
71
3
72
13
73
9
74
7
42
0.0000001000
43
0.0000001000
44
0.0000000001
12
-0.5000000000
22
-0.5000000000
32
0.0000000000
13
-0.5000000000
23
-0.5000000000
33
0.0000000000
40
0.0000000000
40
0.0000000000
40
0.0000000000
40
0.0000000000
40
0.0529067781
40
0.1831006588
40
0.3600373173
40
0.5645616880
40
0.7825093358
40
1.0000000000
40
1.0000000000
40
1.0000000000
40
1.0000000000
10
338.0508949694
20
193.3156850962
30
0.0000000000
10
338.0420771730
20
193.3068672998
30
0.0000000000
10
338.0115603966
20
193.2763505233
30
0.0000000000
10
337.9515541770
20
193.2163443038
30
0.0000000000
10
337.8662783587
20
193.1310684855
30
0.0000000000
10
337.7663769125
20
193.0311670393
30
0.0000000000
10
337.6597164654
20
192.9245065922
30
0.0000000000
10
337.5871434134
20
192.8519335402
30
0.0000000000
10
337.5508949694
20
192.8156850962
30
0.0000000000
11
338.0508949694
21
193.3156850962
31
0.0000000000
11
338.0244415803
21
193.2892317071
31
0.0000000000
11
337.9593446400
21
193.2241347667
31
0.0000000000
11
337.8708763107
21
193.1356664375
31
0.0000000000
11
337.7686141254
21
193.0334042522
31
0.0000000000
11
337.6596403015
21
192.9244304283
31
0.0000000000
11
337.5508949694
21
192.8156850962
31
0.0000000000
0
SPLINE
5
3C2
100
AcDbEntity
8
0
100
AcDbSpline
62
9
6
CONTINUOUS
70
0
71
3
72
15
73
11
74
9
42
0.0000001000
43
0.0000001000
44
0.0000000001
12
-1.0003445292
22
-0.4993086531
32
0.0000000000
13
-0.9997754617
23
-0.5004471850
33
0.0000000000
40
0.0000000000
40
0.0000000000
40
0.0000000000
40
0.0000000000
40
0.2086566368
40
0.3965525653
40
0.5632357149
40
0.7077409528
40
0.8287202304
40
0.9213615544
40
0.9798675701
40
1.0000000000
40
1.0000000000
40
1.0000000000
40
1.0000000000
10
335.5508941205
20
189.8156850962
30
0.0000000000
10
335.4813179455
20
189.7809570747
30
0.0000000000
10
335.3491709225
20
189.7147908146
30
0.0000000000
10
335.1614111448
20
189.6209476132
30
0.0000000000
10
334.9950567086
20
189.5377531654
30
0.0000000000
10
334.8509995289
20
189.4657280496
30
0.0000000000
10
334.7316272876
20
189.4060345318
30
0.0000000000
10
334.6409081974
20
189.3607006912
30
0.0000000000
10
334.5838128823
20
189.3321582729
30
0.0000000000
10
334.5576042725
20
189.3190435021
30
0.0000000000
10
334.5508949694
20
189.3156850962
30
0.0000000000
11
335.5508941205
21
189.8156850962
31
0.0000000000
11
335.3422395083
21
189.7113530818
31
0.0000000000
11
335.1543436382
21
189.6174053187
31
0.0000000000
11
334.9876628631
21
189.5340592769
31
0.0000000000
11
334.8431583743
21
189.4618054045
31
0.0000000000
11
334.7221783896
21
189.4013173843
31
0.0000000000
11
334.6295299292
21
189.3550111549
31
0.0000000000
11
334.5710240767
21
189.3257579194
31
0.0000000000
11
334.5508949694
21
189.3156850962
31
0.0000000000
0
SPLINE
5
3C3
100
AcDbEntity
8
0
100
AcDbSpline
62
9
6
CONTINUOUS
70
0
71
3
72
15
73
11
74
9
42
0.0000001000
43
0.0000001000
44
0.0000000001
12
-0.4993090575
22
-1.0003453394
32
0.0000000000
13
-0.4956387434
23
-1.0021765074
33
0.0000000000
40
0.0000000000
40
0.0000000000
40
0.0000000000
40
0.0000000000
40
0.2086212180
40
0.3965255269
40
0.5632176640
40
0.7077371875
40
0.8287435774
40
0.9213957462
40
0.9797756323
40
1.0000000000
40
1.0000000000
40
1.0000000000
40
1.0000000000
10
335.5508949694
20
189.8156850962
30
0.0000000000
10
335.5161728148
20
189.7461206751
30
0.0000000000
10
335.4500118129
20
189.6139821552
30
0.0000000000
10
335.3561727009
20
189.4262276635
30
0.0000000000
10
335.2729773313
20
189.2598603325
30
0.0000000000
10
335.2009714643
20
189.1157723836
30
0.0000000000
10
335.1412666911
20
188.9963839014
30
0.0000000000
10
335.0960288693
20
188.9056534096
30
0.0000000000
10
335.0672806636
20
188.8486707254
30
0.0000000000
10
335.0542362961
20
188.8224412249
30
0.0000000000
10
335.0508949694
20
188.8156850962
30
0.0000000000
11
335.5508949694
21
189.8156850962
31
0.0000000000
11
335.4465814242
21
189.6070653116
31
0.0000000000
11
335.3526312254
21
189.4191599935
31
0.0000000000
11
335.2692894514
21
189.2524656815
31
0.0000000000
11
335.1970468700
21
189.1079375450
31
0.0000000000
11
335.1365676084
21
188.9869191713
31
0.0000000000
11
335.0902401746
21
188.8942676618
31
0.0000000000
11
335.0609587324
21
188.8359336053
31
0.0000000000
11
335.0508949694
21
188.8156850962
31
0.0000000000
0
SPLINE
5
3C4
100
AcDbEntity
8
0
100
AcDbSpline
62
9
6
CONTINUOUS
70
0
71
3
72
15
73
11
74
9
42
0.0000001000
43
0.0000001000
44
0.0000000001
12
-0.4956391926
22
1.0021762836
32
0.0000000000
13
-0.4993095804
23
1.0003450783
33
0.0000000000
40
0.0000000000
40
0.0000000000
40
0.0000000000
40
0.0000000000
40
0.0202243594
40
0.0786042570
40
0.1712564219
40
0.2922628125
40
0.4367823360
40
0.6034744730
40
0.7913787821
40
1.0000000000
40
1.0000000000
40
1.0000000000
40
1.0000000000
10
329.0508949694
20
188.8156850962
30
0.0000000000
10
329.0475536410
20
188.8224412206
30
0.0000000000
10
329.0345092671
20
188.8486707193
30
0.0000000000
10
329.0057610817
20
188.9056534133
30
0.0000000000
10
328.9605232406
20
188.9963838990
30
0.0000000000
10
328.9008184771
20
189.1157723847
30
0.0000000000
10
328.8288126070
20
189.2598603323
30
0.0000000000
10
328.7456172378
20
189.4262276634
30
0.0000000000
10
328.6517781205
20
189.6139821526
30
0.0000000000
10
328.5856171603
20
189.7461206933
30
0.0000000000
10
328.5508949694
20
189.8156850962
30
0.0000000000
11
329.0508949694
21
188.8156850962
31
0.0000000000
11
329.0408312055
21
188.8359335945
31
0.0000000000
11
329.0115497655
21
188.8942676666
31
0.0000000000
11
328.9652223296
21
188.9869191701
31
0.0000000000
11
328.9047430688
21
189.1079375452
31
0.0000000000
11
328.8325004875
21
189.2524656817
31
0.0000000000
11
328.7491587125
21
189.4191599930
31
0.0000000000
11
328.6552085196
21
189.6070653142
31
0.0000000000
11
328.5508949694
21
189.8156850962
31
0.0000000000
0
SPLINE
5
3C5
100
AcDbEntity
8
0
100
AcDbSpline
62
7
6
CONTINUOUS
70
0
71
3
72
8
73
4
74
2
42
0.0000001000
43
0.0000001000
44
0.0000000001
12
-0.2330519039
22
0.0000133533
32
0.0000000000
13
-0.2318623641
23
-0.0271454901
33
0.0000000000
40
0.0000000000
40
0.0000000000
40
0.0000000000
40
0.0000000000
40
1.0000000000
40
1.0000000000
40
1.0000000000
40
1.0000000000
10
320.8672824112
20
155.2157180980
30
0.0000000000
10
320.7895984433
20
155.2157225491
30
0.0000000000
10
320.7117965086
20
155.2111752807
30
0.0000000000
10
320.6345090539
20
155.2021267840
30
0.0000000000
11
320.8672824112
21
155.2157180980
31
0.0000000000
11
320.6345090539
21
155.2021267840
31
0.0000000000
0
SPLINE
5
3C6
100
AcDbEntity
8
0
100
AcDbSpline
62
7
6
CONTINUOUS
70
0
71
3
72
8
73
4
74
2
42
0.0000001000
43
0.0000001000
44
0.0000000001
12
-0.0568023071
22
-0.0066501800
32
0.0000000000
13
-0.0565891464
23
-0.0082688436
33
0.0000000000
40
0.0000000000
40
0.0000000000
40
0.0000000000
40
0.0000000000
40
1.0000000000
40
1.0000000000
40
1.0000000000
40
1.0000000000
10
320.6345090539
20
155.2021267840
30
0.0000000000
10
320.6155749516
20
155.1999100573
30
0.0000000000
10
320.5966717265
20
155.1974231822
30
0.0000000000
10
320.5778086777
20
155.1946669010
30
0.0000000000
11
320.6345090539
21
155.2021267840
31
0.0000000000
11
320.5778086777
21
155.1946669010
31
0.0000000000
0
SPLINE
5
3C7
100
AcDbEntity
8
0
100
AcDbSpline
62
7
6
CONTINUOUS
70
0
71
3
72
10
73
6
74
4
42
0.0000001000
43
0.0000001000
44
0.0000000001
12
-0.4614253391
22
-0.0674237764
32
0.0000000000
13
-0.4333312054
23
-0.1722887003
33
0.0000000000
40
0.0000000000
40
0.0000000000
40
0.0000000000
40
0.0000000000
40
0.1256080139
40
0.8744563836
40
1.0000000000
40
1.0000000000
40
1.0000000000
40
1.0000000000
10
320.5778086777
20
155.1946669010
30
0.0000000000
10
320.5584891042
20
155.1918439121
30
0.0000000000
10
320.4242837272
20
155.1702234307
30
0.0000000000
10
320.2737003700
20
155.1298798959
30
0.0000000000
10
320.1466708616
20
155.0815135055
30
0.0000000000
10
320.1285368727
20
155.0743035900
30
0.0000000000
11
320.5778086777
21
155.1946669010
31
0.0000000000
11
320.5199863812
21
155.1853509192
31
0.0000000000
11
320.1832438339
21
155.0951323697
31
0.0000000000
11
320.1285368727
21
155.0743035900
31
0.0000000000
0
SPLINE
5
3C8
100
AcDbEntity
8
0
100
AcDbSpline
62
7
6
CONTINUOUS
70
0
71
3
72
8
73
4
74
2
42
0.0000001000
43
0.0000001000
44
0.0000000001
12
-0.0536173037
22
-0.0213177714
32
0.0000000000
13
-0.0529812658
23
-0.0228531419
33
0.0000000000
40
0.0000000000
40
0.0000000000
40
0.0000000000
40
0.0000000000
40
1.0000000000
40
1.0000000000
40
1.0000000000
40
1.0000000000
10
320.1285368727
20
155.0743035900
30
0.0000000000
10
320.1106644381
20
155.0671976662
30
0.0000000000
10
320.0928936834
20
155.0598337908
30
0.0000000000
10
320.0752332615
20
155.0522160768
30
0.0000000000
11
320.1285368727
21
155.0743035900
31
0.0000000000
11
320.0752332615
21
155.0522160768
31
0.0000000000
0
SPLINE
5
3C9
100
AcDbEntity
8
0
100
AcDbSpline
62
7
6
CONTINUOUS
70
0
71
3
72
8
73
4
74
2
42
0.0000001000
43
0.0000001000
44
0.0000000001
12
-0.2139108938
22
-0.0922691432
32
0.0000000000
13
-0.2014110033
23
-0.1162843602
33
0.0000000000
40
0.0000000000
40
0.0000000000
40
0.0000000000
40
0.0000000000
40
1.0000000000
40
1.0000000000
40
1.0000000000
40
1.0000000000
10
320.0752332615
20
155.0522160768
30
0.0000000000
10
320.0039296302
20
155.0214596958
30
0.0000000000
10
319.9344245624
20
154.9865654266
30
0.0000000000
10
319.8672875613
20
154.9478039732
30
0.0000000000
11
320.0752332615
21
155.0522160768
31
0.0000000000
11
319.8672875613
21
154.9478039732
31
0.0000000000
0
SPLINE
5
3CA
100
AcDbEntity
8
0
100
AcDbSpline
62
7
6
CONTINUOUS
70
0
71
3
72
10
73
6
74
4
42
0.0000001000
43
0.0000001000
44
0.0000000001
12
0.8714779880
22
0.0000497347
32
0.0000000000
13
0.7910439067
23
-0.3688345794
33
0.0000000000
40
0.0000000000
40
0.0000000000
40
0.0000000000
40
0.0000000000
40
0.4000324048
40
0.8000618625
40
1.0000000000
40
1.0000000000
40
1.0000000000
40
1.0000000000
10
343.2345075296
20
155.2157181784
30
0.0000000000
10
343.3507140080
20
155.2157248103
30
0.0000000000
10
343.5836540391
20
155.1953676429
30
0.0000000000
10
343.8655422569
20
155.1198461613
30
0.0000000000
10
344.0270118942
20
155.0529387734
30
0.0000000000
10
344.0797318427
20
155.0283574071
30
0.0000000000
11
343.2345075296
21
155.2157181784
31
0.0000000000
11
343.5818018789
21
155.1853513217
31
0.0000000000
11
343.9185429256
21
155.0951338747
31
0.0000000000
11
344.0797318427
21
155.0283574071
31
0.0000000000
0
SPLINE
5
3CB
100
AcDbEntity
8
0
100
AcDbSpline
62
7
6
CONTINUOUS
70
0
71
3
72
8
73
4
74
2
42
0.0000001000
43
0.0000001000
44
0.0000000001
12
0.1443855886
22
-0.0673216713
32
0.0000000000
13
0.1383908846
23
-0.0784857900
33
0.0000000000
40
0.0000000000
40
0.0000000000
40
0.0000000000
40
0.0000000000
40
1.0000000000
40
1.0000000000
40
1.0000000000
40
1.0000000000
10
344.0797318427
20
155.0283574071
30
0.0000000000
10
344.1278603723
20
155.0059168500
30
0.0000000000
10
344.1750808906
20
154.9815723015
30
0.0000000000
10
344.2212111855
20
154.9554103715
30
0.0000000000
11
344.0797318427
21
155.0283574071
31
0.0000000000
11
344.2212111855
21
154.9554103715
31
0.0000000000
0
SPLINE
5
3CC
100
AcDbEntity
8
0
100
AcDbSpline
62
9
6
CONTINUOUS
70
0
71
3
72
9
73
5
74
3
42
0.0000001000
43
0.0000001000
44
0.0000000001
12
0.1829814901
22
-0.3521834557
32
0.0000000000
13
0.1829993649
23
-0.3521741677
33
0.0000000000
40
0.0000000000
40
0.0000000000
40
0.0000000000
40
0.0000000000
40
0.8136898132
40
1.0000000000
40
1.0000000000
40
1.0000000000
40
1.0000000000
10
325.2824335594
20
195.7509723317
30
0.0000000000
10
325.3320636176
20
195.6554496349
30
0.0000000000
10
325.3930800509
20
195.5380668949
30
0.0000000000
10
325.4540819584
20
195.4206766069
30
0.0000000000
10
325.4654468403
20
195.3988053952
30
0.0000000000
11
325.2824335594
21
195.7509723317
31
0.0000000000
11
325.4313509006
21
195.4644183579
31
0.0000000000
11
325.4654468403
21
195.3988053952
31
0.0000000000
0
SPLINE
5
3CD
100
AcDbEntity
8
0
100
AcDbSpline
62
9
6
CONTINUOUS
70
0
71
3
72
8
73
4
74
2
42
0.0000001000
43
0.0000001000
44
0.0000000001
12
0.0601107400
22
-0.1156804552
32
0.0000000000
13
0.0601051750
23
-0.1156833469
33
0.0000000000
40
0.0000000000
40
0.0000000000
40
0.0000000000
40
0.0000000000
40
1.0000000000
40
1.0000000000
40
1.0000000000
40
1.0000000000
10
325.4654468403
20
195.3988053952
30
0.0000000000
10
325.4854837536
20
195.3602452435
30
0.0000000000
10
325.5055194397
20
195.3216844541
30
0.0000000000
10
325.5255544981
20
195.2831233385
30
0.0000000000
11
325.4654468403
21
195.3988053952
31
0.0000000000
11
325.5255544981
21
195.2831233385
31
0.0000000000
0
SPLINE
5
3CE
100
AcDbEntity
8
0
100
AcDbSpline
62
9
6
CONTINUOUS
70
0
71
3
72
10
73
6
74
4
42
0.0000001000
43
0.0000001000
44
0.0000000001
12
0.6592820799
22
-1.2689083344
32
0.0000000000
13
0.6593259222
23
-1.2688855537
33
0.0000000000
40
0.0000000000
40
0.0000000000
40
0.0000000000
40
0.0000000000
40
0.1625392183
40
0.5450035335
40
1.0000000000
40
1.0000000000
40
1.0000000000
40
1.0000000000
10
325.5255544981
20
195.2831233385
30
0.0000000000
10
325.5612742294
20
195.2143742156
30
0.0000000000
10
325.6810378932
20
194.9838508970
30
0.0000000000
10
325.9008152331
20
194.5608901020
30
0.0000000000
10
326.0848750473
20
194.2066795758
30
0.0000000000
10
326.1848720356
20
194.0142334280
30
0.0000000000
11
325.5255544981
21
195.2831233385
31
0.0000000000
11
325.6327111033
21
195.0768746246
31
0.0000000000
11
325.8848753342
21
194.5915688906
31
0.0000000000
11
326.1848720356
21
194.0142334280
31
0.0000000000
0
SPLINE
5
3CF
100
AcDbEntity
8
0
100
AcDbSpline
62
9
6
CONTINUOUS
70
0
71
3
72
11
73
7
74
5
42
0.0000001000
43
0.0000001000
44
0.0000000001
12
0.5390646729
22
0.0001020796
32
0.0000000000
13
0.2485297373
23
-0.4783552045
33
0.0000000000
40
0.0000000000
40
0.0000000000
40
0.0000000000
40
0.0000000000
40
0.2033021198
40
0.4329150732
40
0.6981404646
40
1.0000000000
40
1.0000000000
40
1.0000000000
40
1.0000000000
10
324.8497622105
20
196.0287500557
30
0.0000000000
10
324.8862932074
20
196.0287569734
30
0.0000000000
10
324.9643835504
20
196.0190624182
30
0.0000000000
10
325.0822475782
20
195.9720480444
30
0.0000000000
10
325.1971205594
20
195.8834610359
30
0.0000000000
10
325.2574265357
20
195.7991043583
30
0.0000000000
10
325.2824335594
20
195.7509723317
30
0.0000000000
11
324.8497622105
21
196.0287500557
31
0.0000000000
11
324.9585341582
21
196.0153602293
31
0.0000000000
11
325.0736101139
21
195.9697742614
31
0.0000000000
11
325.1871442040
21
195.8828750523
31
0.0000000000
11
325.2824335594
21
195.7509723317
31
0.0000000000
0
SPLINE
5
3D0
100
AcDbEntity
8
0
100
AcDbSpline
62
9
6
CONTINUOUS
70
0
71
3
72
8
73
4
74
2
42
0.0000001000
43
0.0000001000
44
0.0000000001
12
0.0976432312
22
0.0000000000
32
0.0000000000
13
0.0964945610
23
0.0192252245
33
0.0000000000
40
0.0000000000
40
0.0000000000
40
0.0000000000
40
0.0000000000
40
1.0000000000
40
1.0000000000
40
1.0000000000
40
1.0000000000
10
348.0851733334
20
176.0156850962
30
0.0000000000
10
348.1177210772
20
176.0156850962
30
0.0000000000
10
348.1504475196
20
176.0189507014
30
0.0000000000
10
348.1826123733
20
176.0253591096
30
0.0000000000
11
348.0851733334
21
176.0156850962
31
0.0000000000
11
348.1826123733
21
176.0253591096
31
0.0000000000
0
SPLINE
5
3D1
100
AcDbEntity
8
0
100
AcDbSpline
62
9
6
CONTINUOUS
70
0
71
3
72
11
73
7
74
5
42
0.0000001000
43
0.0000001000
44
0.0000000001
12
0.6743196421
22
0.1343489869
32
0.0000000000
13
-0.0000000000
23
0.6823467356
33
0.0000000000
40
0.0000000000
40
0.0000000000
40
0.0000000000
40
0.0000000000
40
0.1425499286
40
0.4282726565
40
0.7140995216
40
1.0000000000
40
1.0000000000
40
1.0000000000
40
1.0000000000
10
348.1826123733
20
176.0253591096
30
0.0000000000
10
348.2146537789
20
176.0317429224
30
0.0000000000
10
348.3092437064
20
176.0602920578
30
0.0000000000
10
348.4475613629
20
176.1530054618
30
0.0000000000
10
348.5587114341
20
176.3191970578
30
0.0000000000
10
348.5846974442
20
176.4506573434
30
0.0000000000
10
348.5846974442
20
176.5156850962
30
0.0000000000
11
348.1826123733
21
176.0253591096
31
0.0000000000
11
348.2763329347
21
176.0537453299
31
0.0000000000
11
348.4383902196
21
176.1621317056
31
0.0000000000
11
348.5466734354
21
176.3243433800
31
0.0000000000
11
348.5846974442
21
176.5156850962
31
0.0000000000
0
SPLINE
5
3D2
100
AcDbEntity
8
0
100
AcDbSpline
62
9
6
CONTINUOUS
70
0
71
3
72
13
73
9
74
7
42
0.0000001000
43
0.0000001000
44
0.0000000001
12
-0.2971520177
22
0.6008945872
32
0.0000000000
13
0.3793262207
23
0.6570120986
33
0.0000000000
40
0.0000000000
40
0.0000000000
40
0.0000000000
40
0.0000000000
40
0.0750170828
40
0.3028351609
40
0.5554124288
40
0.7833497057
40
0.9418135834
40
1.0000000000
40
1.0000000000
40
1.0000000000
40
1.0000000000
10
337.8476942873
20
193.3124529733
30
0.0000000000
10
337.8402637948
20
193.3274787597
30
0.0000000000
10
337.8237568230
20
193.3816396681
30
0.0000000000
10
337.7324524097
20
193.5125022204
30
0.0000000000
10
337.6547142456
20
193.6641698046
30
0.0000000000
10
337.5607943831
20
193.8063093749
30
0.0000000000
10
337.5323102519
20
193.9025320950
30
0.0000000000
10
337.4765504604
20
193.9529420367
30
0.0000000000
10
337.4839076715
20
193.9656850966
30
0.0000000000
11
337.8476942873
21
193.3124529733
31
0.0000000000
11
337.8300437839
21
193.3553666946
31
0.0000000000
11
337.7424260272
21
193.5043464369
31
0.0000000000
11
337.6470663946
21
193.6705514938
31
0.0000000000
11
337.5617317067
21
193.8209545960
31
0.0000000000
11
337.5034807935
21
193.9261184430
31
0.0000000000
11
337.4839076715
21
193.9656850966
31
0.0000000000
0
SPLINE
5
3D3
100
AcDbEntity
8
0
100
AcDbSpline
62
9
6
CONTINUOUS
70
0
71
3
72
12
73
8
74
6
42
0.0000001000
43
0.0000001000
44
0.0000000001
12
0.2335941040
22
0.4045968611
32
0.0000000000
13
0.4457079847
23
-0.1400329169
33
0.0000000000
40
0.0000000000
40
0.0000000000
40
0.0000000000
40
0.0000000000
40
0.1822865935
40
0.3734557624
40
0.5715335375
40
0.7699510258
40
1.0000000000
40
1.0000000000
40
1.0000000000
40
1.0000000000
10
337.4839076715
20
193.9656850966
30
0.0000000000
10
337.4981013627
20
193.9902692911
30
0.0000000000
10
337.5429331907
20
194.0325187021
30
0.0000000000
10
337.6304273342
20
194.0567214203
30
0.0000000000
10
337.7222438921
20
194.0605508490
30
0.0000000000
10
337.8194846138
20
194.0467370201
30
0.0000000000
10
337.8827421516
20
194.0249715697
30
0.0000000000
10
337.9169203732
20
194.0142334268
30
0.0000000000
11
337.4839076715
21
193.9656850966
31
0.0000000000
11
337.5448066898
21
194.0252157692
31
0.0000000000
11
337.6296657615
21
194.0530647928
31
0.0000000000
11
337.7220880923
21
194.0577221120
31
0.0000000000
11
337.8138802827
21
194.0447926585
31
0.0000000000
11
337.9169203732
21
194.0142334268
31
0.0000000000
0
SPLINE
5
3D4
100
AcDbEntity
8
0
100
AcDbSpline
62
9
6
CONTINUOUS
70
0
71
3
72
10
73
6
74
4
42
0.0000001000
43
0.0000001000
44
0.0000000001
12
0.6593259197
22
1.2688855558
32
0.0000000000
13
0.6592821768
23
1.2689082848
33
0.0000000000
40
0.0000000000
40
0.0000000000
40
0.0000000000
40
0.0000000000
40
0.4549964653
40
0.8374607783
40
1.0000000000
40
1.0000000000
40
1.0000000000
40
1.0000000000
10
337.9169179065
20
194.0142334280
30
0.0000000000
10
338.0169148941
20
194.2066795756
30
0.0000000000
10
338.2009747140
20
194.5608900972
30
0.0000000000
10
338.4207520274
20
194.9838509063
30
0.0000000000
10
338.5405157088
20
195.2143742165
30
0.0000000000
10
338.5762354461
20
195.2831233382
30
0.0000000000
11
337.9169179065
21
194.0142334280
31
0.0000000000
11
338.2169146053
21
194.5915688904
31
0.0000000000
11
338.4690788259
21
195.0768746264
31
0.0000000000
11
338.5762354461
21
195.2831233382
31
0.0000000000
0
SPLINE
5
3D5
100
AcDbEntity
8
0
100
AcDbSpline
62
9
6
CONTINUOUS
70
0
71
3
72
8
73
4
74
2
42
0.0000001000
43
0.0000001000
44
0.0000000001
12
0.0601051743
22
0.1156833240
32
0.0000000000
13
0.0601107380
23
0.1156804329
33
0.0000000000
40
0.0000000000
40
0.0000000000
40
0.0000000000
40
0.0000000000
40
1.0000000000
40
1.0000000000
40
1.0000000000
40
1.0000000000
10
338.5762354461
20
195.2831233382
30
0.0000000000
10
338.5962705042
20
195.3216844462
30
0.0000000000
10
338.6163061901
20
195.3602452279
30
0.0000000000
10
338.6363431028
20
195.3988053722
30
0.0000000000
11
338.5762354461
21
195.2831233382
31
0.0000000000
11
338.6363431028
21
195.3988053722
31
0.0000000000
0
SPLINE
5
3D6
100
AcDbEntity
8
0
100
AcDbSpline
62
9
6
CONTINUOUS
70
0
71
3
72
9
73
5
74
3
42
0.0000001000
43
0.0000001000
44
0.0000000001
12
0.1829993964
22
0.3521741721
32
0.0000000000
13
0.1829814200
23
0.3521835128
33
0.0000000000
40
0.0000000000
40
0.0000000000
40
0.0000000000
40
0.0000000000
40
0.1863102426
40
1.0000000000
40
1.0000000000
40
1.0000000000
40
1.0000000000
10
338.6363431028
20
195.3988053722
30
0.0000000000
10
338.6477079901
20
195.4206765907
30
0.0000000000
10
338.7087099073
20
195.5380668806
30
0.0000000000
10
338.7697263436
20
195.6554496260
30
0.0000000000
10
338.8193563794
20
195.7509723317
30
0.0000000000
11
338.6363431028
21
195.3988053722
31
0.0000000000
11
338.6704390580
21
195.4644183556
31
0.0000000000
11
338.8193563794
21
195.7509723317
31
0.0000000000
0
SPLINE
5
3D7
100
AcDbEntity
8
0
100
AcDbSpline
62
9
6
CONTINUOUS
70
0
71
3
72
10
73
6
74
4
42
0.0000001000
43
0.0000001000
44
0.0000000001
12
0.2549579855
22
0.4415180998
32
0.0000000000
13
0.5088550086
23
-0.0317551092
33
0.0000000000
40
0.0000000000
40
0.0000000000
40
0.0000000000
40
0.0000000000
40
0.3263598382
40
0.6587475904
40
1.0000000000
40
1.0000000000
40
1.0000000000
40
1.0000000000
10
338.3863222675
20
195.5287624726
30
0.0000000000
10
338.4140582831
20
195.5767937311
30
0.0000000000
10
338.4899702933
20
195.6635745638
30
0.0000000000
10
338.6448309613
20
195.7420549257
30
0.0000000000
10
338.7614737129
20
195.7545711864
30
0.0000000000
10
338.8193563788
20
195.7509590172
30
0.0000000000
11
338.3863222675
21
195.5287624726
31
0.0000000000
11
338.4956822978
21
195.6541697252
31
0.0000000000
11
338.6464582273
21
195.7315351594
31
0.0000000000
11
338.8193563788
21
195.7509590172
31
0.0000000000
0
SPLINE
5
3D8
100
AcDbEntity
8
0
100
AcDbSpline
62
9
6
CONTINUOUS
70
0
71
3
72
11
73
7
74
5
42
0.0000001000
43
0.0000001000
44
0.0000000001
12
0.2486783183
22
0.4785443347
32
0.0000000000
13
0.5393056707
23
-0.0001854702
33
0.0000000000
40
0.0000000000
40
0.0000000000
40
0.0000000000
40
0.0000000000
40
0.2919422781
40
0.5578512688
40
0.7921221251
40
1.0000000000
40
1.0000000000
40
1.0000000000
40
1.0000000000
10
338.8193563794
20
195.7509723317
30
0.0000000000
10
338.8435562843
20
195.7975414395
30
0.0000000000
10
338.9024359375
20
195.8807328062
30
0.0000000000
10
339.0158007384
20
195.9700164916
30
0.0000000000
10
339.1350666507
20
196.0186846091
30
0.0000000000
10
339.2148782012
20
196.0287630015
30
0.0000000000
10
339.2522481068
20
196.0287501498
30
0.0000000000
11
338.8193563794
21
195.7509723317
31
0.0000000000
11
338.9109234499
21
195.8790517069
31
0.0000000000
11
339.0239087818
21
195.9673653844
31
0.0000000000
11
339.1410102102
21
196.0147962344
31
0.0000000000
11
339.2522481068
21
196.0287501498
31
0.0000000000
0
SPLINE
5
3D9
100
AcDbEntity
8
0
100
AcDbSpline
62
7
6
CONTINUOUS
70
0
71
3
72
14
73
10
74
8
42
0.0000001000
43
0.0000001000
44
0.0000000001
12
-1.0700055839
22
-0.6397581462
32
0.0000000000
13
-1.1375307818
23
-0.3865659610
33
0.0000000000
40
0.0000000000
40
0.0000000000
40
0.0000000000
40
0.0000000000
40
0.1567808514
40
0.3260966081
40
0.4989796822
40
0.6670274938
40
0.8206253589
40
0.9449355802
40
1.0000000000
40
1.0000000000
40
1.0000000000
40
1.0000000000
10
339.0508949694
20
194.0142334280
30
0.0000000000
10
338.9949761739
20
193.9807994857
30
0.0000000000
10
338.8814664201
20
193.9065049350
30
0.0000000000
10
338.7154786912
20
193.7821582623
30
0.0000000000
10
338.5526589407
20
193.6458053491
30
0.0000000000
10
338.4005840457
20
193.5089109657
30
0.0000000000
10
338.2671680240
20
193.3758135223
30
0.0000000000
10
338.1688972920
20
193.2894421859
30
0.0000000000
10
338.1126788941
20
193.2255326204
30
0.0000000000
10
338.0917997366
20
193.2184372770
30
0.0000000000
11
339.0508949694
21
194.0142334280
31
0.0000000000
11
338.8869928683
21
193.9077498006
31
0.0000000000
11
338.7178008817
21
193.7815369809
31
0.0000000000
11
338.5521316642
21
193.6436726313
31
0.0000000000
11
338.3968732526
21
193.5030113128
31
0.0000000000
11
338.2587487880
21
193.3703883551
31
0.0000000000
11
338.1468857103
21
193.2631326306
31
0.0000000000
11
338.0917997366
21
193.2184372770
31
0.0000000000
0
SPLINE
5
3DA
100
AcDbEntity
8
0
100
AcDbSpline
62
7
6
CONTINUOUS
70
0
71
3
72
8
73
4
74
2
42
0.0000001000
43
0.0000001000
44
0.0000000001
12
-0.0155587796
22
-0.0052873247
32
0.0000000000
13
-0.0170516403
23
0.0000000000
33
0.0000000000
40
0.0000000000
40
0.0000000000
40
0.0000000000
40
0.0000000000
40
1.0000000000
40
1.0000000000
40
1.0000000000
40
1.0000000000
10
338.0917997366
20
193.2184372770
30
0.0000000000
10
338.0866134767
20
193.2166748354
30
0.0000000000
10
338.0812037879
20
193.2156850962
30
0.0000000000
10
338.0755199078
20
193.2156850962
30
0.0000000000
11
338.0917997366
21
193.2184372770
31
0.0000000000
11
338.0755199078
21
193.2156850962
31
0.0000000000
0
SPLINE
5
3DB
100
AcDbEntity
8
0
100
AcDbSpline
62
9
6
CONTINUOUS
70
0
71
3
72
14
73
10
74
8
42
0.0000001000
43
0.0000001000
44
0.0000000001
12
0.4281107763
22
0.7950636723
32
0.0000000000
13
0.4275556149
23
0.7953624006
33
0.0000000000
40
0.0000000000
40
0.0000000000
40
0.0000000000
40
0.0000000000
40
0.2268009989
40
0.4406725530
40
0.6312475699
40
0.7894929290
40
0.9078398157
40
0.9813176457
40
1.0000000000
40
1.0000000000
40
1.0000000000
40
1.0000000000
10
347.6542121145
20
175.2156850962
30
0.0000000000
10
347.6865774317
20
175.2757921745
30
0.0000000000
10
347.7494322229
20
175.3925963217
30
0.0000000000
10
347.8395821284
20
175.5598533712
30
0.0000000000
10
347.9199195910
20
175.7089575038
30
0.0000000000
10
347.9866435678
20
175.8327357521
30
0.0000000000
10
348.0366174534
20
175.9255022538
30
0.0000000000
10
348.0666738345
20
175.9812823419
30
0.0000000000
10
348.0798133191
20
176.0057132602
30
0.0000000000
10
348.0824759009
20
176.0106663409
30
0.0000000000
11
347.6542121145
21
175.2156850962
31
0.0000000000
11
347.7512972347
21
175.3960121631
31
0.0000000000
11
347.8429047673
21
175.5660284497
31
0.0000000000
11
347.9245409569
21
175.7175213432
31
0.0000000000
11
347.9923355463
21
175.8433105969
31
0.0000000000
11
348.0430246535
21
175.9373912336
31
0.0000000000
11
348.0744853585
21
175.9958086038
31
0.0000000000
11
348.0824759009
21
176.0106663409
31
0.0000000000
0
SPLINE
5
3DC
100
AcDbEntity
8
0
100
AcDbSpline
62
9
6
CONTINUOUS
70
0
71
3
72
8
73
4
74
2
42
0.0000001000
43
0.0000001000
44
0.0000000001
12
0.0026977842
22
0.0050185660
32
0.0000000000
13
0.0026970728
23
0.0050189488
33
0.0000000000
40
0.0000000000
40
0.0000000000
40
0.0000000000
40
0.0000000000
40
1.0000000000
40
1.0000000000
40
1.0000000000
40
1.0000000000
10
348.0824759009
20
176.0106663409
30
0.0000000000
10
348.0833751623
20
176.0123391963
30
0.0000000000
10
348.0842743092
20
176.0140121132
30
0.0000000000
10
348.0851733334
20
176.0156850962
30
0.0000000000
11
348.0824759009
21
176.0106663409
31
0.0000000000
11
348.0851733334
21
176.0156850962
31
0.0000000000
0
SPLINE
5
3DD
100
AcDbEntity
8
0
100
AcDbSpline
62
9
6
CONTINUOUS
70
0
71
3
72
8
73
4
74
2
42
0.0000001000
43
0.0000001000
44
0.0000000001
12
0.0976430585
22
0.0000000000
32
0.0000000000
13
0.0964943946
23
0.0192251561
33
0.0000000000
40
0.0000000000
40
0.0000000000
40
0.0000000000
40
0.0000000000
40
1.0000000000
40
1.0000000000
40
1.0000000000
40
1.0000000000
10
348.0447714535
20
176.0156850962
30
0.0000000000
10
348.0773191397
20
176.0156850962
30
0.0000000000
10
348.1100455235
20
176.0189506895
30
0.0000000000
10
348.1422103218
20
176.0253590749
30
0.0000000000
11
348.0447714535
21
176.0156850962
31
0.0000000000
11
348.1422103218
21
176.0253590749
31
0.0000000000
0
SPLINE
5
3DE
100
AcDbEntity
8
0
100
AcDbSpline
62
9
6
CONTINUOUS
70
0
71
3
72
11
73
7
74
5
42
0.0000001000
43
0.0000001000
44
0.0000000001
12
0.6743198428
22
0.1343487807
32
0.0000000000
13
-0.0000000001
23
0.6823469083
33
0.0000000000
40
0.0000000000
40
0.0000000000
40
0.0000000000
40
0.0000000000
40
0.1425497254
40
0.4282722925
40
0.7140992613
40
1.0000000000
40
1.0000000000
40
1.0000000000
40
1.0000000000
10
348.1422103218
20
176.0253590749
30
0.0000000000
10
348.1742516912
20
176.0317428688
30
0.0000000000
10
348.2688415718
20
176.0602919425
30
0.0000000000
10
348.4071592719
20
176.1530052445
30
0.0000000000
10
348.5183094990
20
176.3191968616
30
0.0000000000
10
348.5442955643
20
176.4506572678
30
0.0000000000
10
348.5442955643
20
176.5156850962
30
0.0000000000
11
348.1422103218
21
176.0253590749
31
0.0000000000
11
348.2359307847
21
176.0537452179
31
0.0000000000
11
348.3979880895
21
176.1621314552
31
0.0000000000
11
348.5062714670
21
176.3243431661
31
0.0000000000
11
348.5442955643
21
176.5156850962
31
0.0000000000
0
SPLINE
5
3DF
100
AcDbEntity
8
0
100
AcDbSpline
62
9
6
CONTINUOUS
70
0
71
3
72
15
73
11
74
9
42
0.0000001000
43
0.0000001000
44
0.0000000001
12
0.0000000000
22
1.4144473362
32
0.0000000000
13
1.4144473362
23
0.0000000000
33
0.0000000000
40
0.0000000000
40
0.0000000000
40
0.0000000000
40
0.0000000000
40
0.0398829329
40
0.1486888709
40
0.3101042485
40
0.5000101851
40
0.6899024549
40
0.8513721622
40
0.9608052823
40
1.0000000000
40
1.0000000000
40
1.0000000000
40
1.0000000000
10
329.0508949694
20
188.2156850962
30
0.0000000000
10
329.0508949694
20
188.2344891989
30
0.0000000000
10
329.1257800291
20
188.2763735325
30
0.0000000000
10
329.2038232206
20
188.3895378819
30
0.0000000000
10
329.3679133321
20
188.5397201150
30
0.0000000000
10
329.5433341169
20
188.7232456446
30
0.0000000000
10
329.7270868375
20
188.8984251815
30
0.0000000000
10
329.8764779833
20
189.0638801818
30
0.0000000000
10
329.9920813757
20
189.1391952411
30
0.0000000000
10
330.0324153480
20
189.2156850962
30
0.0000000000
10
330.0508949694
20
189.2156850962
30
0.0000000000
11
329.0508949694
21
188.2156850962
31
0.0000000000
11
329.0883724117
21
188.2578489411
31
0.0000000000
11
329.1951811799
21
188.3686513774
31
0.0000000000
11
329.3553432086
21
188.5313633995
31
0.0000000000
11
329.5447971558
21
188.7217828824
31
0.0000000000
11
329.7351674779
21
188.9112588267
31
0.0000000000
11
329.8980252148
21
189.0713823138
31
0.0000000000
11
330.0100940702
21
189.1781517206
31
0.0000000000
11
330.0508949694
21
189.2156850962
31
0.0000000000
0
SPLINE
5
3E0
100
AcDbEntity
8
0
100
AcDbSpline
62
9
6
CONTINUOUS
70
0
71
3
72
9
73
5
74
3
42
0.0000001000
43
0.0000001000
44
0.0000000001
12
0.0420902979
22
-0.0783252785
32
0.0000000000
13
0.0421758320
23
-0.0782792482
33
0.0000000000
40
0.0000000000
40
0.0000000000
40
0.0000000000
40
0.0000000000
40
0.2538046971
40
1.0000000000
40
1.0000000000
40
1.0000000000
40
1.0000000000
10
316.0166166053
20
176.0156850962
30
0.0000000000
10
316.0201775104
20
176.0090586550
30
0.0000000000
10
316.0342151905
20
175.9829543080
30
0.0000000000
10
316.0482748142
20
175.9568617692
30
0.0000000000
10
316.0587652835
20
175.9373912334
30
0.0000000000
11
316.0166166053
21
176.0156850962
31
0.0000000000
11
316.0273045822
21
175.9958086039
31
0.0000000000
11
316.0587652835
21
175.9373912334
31
0.0000000000
0
SPLINE
5
3E1
100
AcDbEntity
8
0
100
AcDbSpline
62
9
6
CONTINUOUS
70
0
71
3
72
12
73
8
74
6
42
0.0000001000
43
0.0000001000
44
0.0000000001
12
0.3888383438
22
-0.7216922995
32
0.0000000000
13
0.3886559803
23
-0.7217904736
33
0.0000000000
40
0.0000000000
40
0.0000000000
40
0.0000000000
40
0.0000000000
40
0.1303609795
40
0.3046707596
40
0.5145921726
40
0.7501750918
40
1.0000000000
40
1.0000000000
40
1.0000000000
40
1.0000000000
10
316.0587652835
20
175.9373912334
30
0.0000000000
10
316.0756617326
20
175.9060310617
30
0.0000000000
10
316.1151463743
20
175.8327357540
30
0.0000000000
10
316.1818703461
20
175.7089575029
30
0.0000000000
10
316.2622078107
20
175.5598533714
30
0.0000000000
10
316.3523577156
20
175.3925963216
30
0.0000000000
10
316.4152125094
20
175.2757921758
30
0.0000000000
10
316.4475778243
20
175.2156850962
30
0.0000000000
11
316.0587652835
21
175.9373912334
31
0.0000000000
11
316.1094543933
21
175.8433105971
31
0.0000000000
11
316.1772489815
21
175.7175213431
31
0.0000000000
11
316.2588851714
21
175.5660284496
31
0.0000000000
11
316.3504927045
21
175.3960121634
31
0.0000000000
11
316.4475778243
21
175.2156850962
31
0.0000000000
0
SPLINE
5
3E2
100
AcDbEntity
8
0
100
AcDbSpline
62
9
6
CONTINUOUS
70
0
71
3
72
15
73
11
74
9
42
0.0000001000
43
0.0000001000
44
0.0000000001
12
1.4144473362
22
0.0000000000
32
0.0000000000
13
0.0000000000
23
-1.4144473362
33
0.0000000000
40
0.0000000000
40
0.0000000000
40
0.0000000000
40
0.0000000000
40
0.0398829329
40
0.1486888709
40
0.3101042485
40
0.5000101851
40
0.6899024549
40
0.8513721622
40
0.9608052823
40
1.0000000000
40
1.0000000000
40
1.0000000000
40
1.0000000000
10
334.0508949694
20
189.2156850962
30
0.0000000000
10
334.0696990721
20
189.2156850962
30
0.0000000000
10
334.1115834057
20
189.1408000365
30
0.0000000000
10
334.2247477551
20
189.0627568449
30
0.0000000000
10
334.3749299882
20
188.8986667335
30
0.0000000000
10
334.5584555178
20
188.7232459486
30
0.0000000000
10
334.7336350547
20
188.5394932280
30
0.0000000000
10
334.8990900550
20
188.3901020822
30
0.0000000000
10
334.9744051144
20
188.2744986898
30
0.0000000000
10
335.0508949694
20
188.2341647175
30
0.0000000000
10
335.0508949694
20
188.2156850962
30
0.0000000000
11
334.0508949694
21
189.2156850962
31
0.0000000000
11
334.0930588143
21
189.1782076538
31
0.0000000000
11
334.2038612506
21
189.0713988856
31
0.0000000000
11
334.3665732727
21
188.9112368570
31
0.0000000000
11
334.5569927556
21
188.7217829097
31
0.0000000000
11
334.7464686999
21
188.5314125876
31
0.0000000000
11
334.9065921870
21
188.3685548507
31
0.0000000000
11
335.0133615938
21
188.2564859953
31
0.0000000000
11
335.0508949694
21
188.2156850962
31
0.0000000000
0
SPLINE
5
3E3
100
AcDbEntity
8
0
100
AcDbSpline
62
9
6
CONTINUOUS
70
0
71
3
72
11
73
7
74
5
42
0.0000001000
43
0.0000001000
44
0.0000000001
12
-0.0171225950
22
0.0959532190
32
0.0000000000
13
-0.0601178729
23
-0.0767205635
33
0.0000000000
40
0.0000000000
40
0.0000000000
40
0.0000000000
40
0.0000000000
40
0.4006507164
40
0.7077485817
40
0.8923963194
40
1.0000000000
40
1.0000000000
40
1.0000000000
40
1.0000000000
10
349.8008949694
20
177.0103552363
30
0.0000000000
10
349.7986082427
20
177.0231698116
30
0.0000000000
10
349.7945393649
20
177.0466611823
30
0.0000000000
10
349.7856891303
20
177.0717370049
30
0.0000000000
10
349.7798457278
20
177.0952013838
30
0.0000000000
10
349.7671870224
20
177.0927916978
30
0.0000000000
10
349.7650307210
20
177.0900398928
30
0.0000000000
11
349.8008949694
21
177.0103552363
31
0.0000000000
11
349.7930561252
21
177.0486114077
31
0.0000000000
11
349.7845069278
21
177.0772970636
31
0.0000000000
11
349.7751788198
21
177.0926884189
31
0.0000000000
11
349.7650307210
21
177.0900398928
31
0.0000000000
0
SPLINE
5
3E4
100
AcDbEntity
8
0
100
AcDbSpline
62
9
6
CONTINUOUS
70
0
71
3
72
16
73
12
74
10
42
0.0000001000
43
0.0000001000
44
0.0000000001
12
-0.0958619906
22
0.3165135519
32
0.0000000000
13
-0.2038129397
23
-0.2604431520
33
0.0000000000
40
0.0000000000
40
0.0000000000
40
0.0000000000
40
0.0000000000
40
0.1306714103
40
0.2681452064
40
0.4083527400
40
0.5459561031
40
0.6750263107
40
0.7888491367
40
0.8786503625
40
0.9402643388
40
1.0000000000
40
1.0000000000
40
1.0000000000
40
1.0000000000
10
349.8008959449
20
176.5123483221
30
0.0000000000
10
349.7967204710
20
176.5261347462
30
0.0000000000
10
349.7881830471
20
176.5544341046
30
0.0000000000
10
349.7748676352
20
176.5974387857
30
0.0000000000
10
349.7607374730
20
176.6409759950
30
0.0000000000
10
349.7456602302
20
176.6832679957
30
0.0000000000
10
349.7298678834
20
176.7220167421
30
0.0000000000
10
349.7134106349
20
176.7552672412
30
0.0000000000
10
349.6977386778
20
176.7789277057
30
0.0000000000
10
349.6769911580
20
176.7955699499
30
0.0000000000
10
349.6629945539
20
176.7866712017
30
0.0000000000
10
349.6589362536
20
176.7814852871
30
0.0000000000
11
349.8008959449
21
176.5123483221
31
0.0000000000
11
349.7883506702
21
176.5537018796
31
0.0000000000
11
349.7748602924
21
176.5971185219
31
0.0000000000
11
349.7604344312
21
176.6411856700
31
0.0000000000
11
349.7450281393
21
176.6840055177
31
0.0000000000
11
349.7286889639
21
176.7234395761
31
0.0000000000
11
349.7116103057
21
176.7569847970
31
0.0000000000
11
349.6939868792
21
176.7808888927
31
0.0000000000
11
349.6762722087
21
176.7909582098
31
0.0000000000
11
349.6589362536
21
176.7814852871
31
0.0000000000
0
SPLINE
5
3E5
100
AcDbEntity
8
0
100
AcDbSpline
62
9
6
CONTINUOUS
70
0
71
3
72
10
73
6
74
4
42
0.0000001000
43
0.0000001000
44
0.0000000001
12
0.2047160248
22
0.2610352835
32
0.0000000000
13
-0.0008057501
23
0.3317339609
33
0.0000000000
40
0.0000000000
40
0.0000000000
40
0.0000000000
40
0.0000000000
40
0.3332332117
40
0.6665453572
40
1.0000000000
40
1.0000000000
40
1.0000000000
40
1.0000000000
10
349.6589294060
20
176.7814665831
30
0.0000000000
10
349.6816687988
20
176.8104617917
30
0.0000000000
10
349.7208175981
20
176.8737710698
30
0.0000000000
10
349.7570359919
20
176.9791286834
30
0.0000000000
10
349.7651035411
20
177.0531488748
30
0.0000000000
10
349.7650139807
20
177.0900216179
30
0.0000000000
11
349.6589294060
21
176.7814665831
31
0.0000000000
11
349.7170619513
21
176.8754922506
31
0.0000000000
11
349.7530121309
21
176.9800560757
31
0.0000000000
11
349.7650139807
21
177.0900216179
31
0.0000000000
0
SPLINE
5
3E6
100
AcDbEntity
8
0
100
AcDbSpline
62
9
6
CONTINUOUS
70
0
71
3
72
9
73
5
74
3
42
0.0000001000
43
0.0000001000
44
0.0000000001
12
-0.2760491077
22
-0.3521557373
32
0.0000000000
13
-0.3677665092
23
-0.2554957455
33
0.0000000000
40
0.0000000000
40
0.0000000000
40
0.0000000000
40
0.0000000000
40
0.5126685677
40
1.0000000000
40
1.0000000000
40
1.0000000000
40
1.0000000000
10
349.7650307210
20
177.0900398928
30
0.0000000000
10
349.7178568208
20
177.0298601670
30
0.0000000000
10
349.6166238103
20
176.9193747886
30
0.0000000000
10
349.5002547817
20
176.8252875904
30
0.0000000000
10
349.4405133885
20
176.7837838878
30
0.0000000000
11
349.7650307210
21
177.0900398928
31
0.0000000000
11
349.6100806704
21
176.9208853239
31
0.0000000000
11
349.4405133885
21
176.7837838878
31
0.0000000000
0
SPLINE
5
3E7
100
AcDbEntity
8
0
100
AcDbSpline
62
9
6
CONTINUOUS
70
0
71
3
72
11
73
7
74
5
42
0.0000001000
43
0.0000001000
44
0.0000000001
12
-0.7478301853
22
-0.5195346121
32
0.0000000000
13
-0.9098735476
23
0.0001088615
33
0.0000000000
40
0.0000000000
40
0.0000000000
40
0.0000000000
40
0.0000000000
40
0.2376793257
40
0.4804250029
40
0.7332102400
40
1.0000000000
40
1.0000000000
40
1.0000000000
40
1.0000000000
10
349.4405133885
20
176.7837838878
30
0.0000000000
10
349.3812654638
20
176.7426230091
30
0.0000000000
10
349.2554806623
20
176.6680678545
30
0.0000000000
10
349.0489784546
20
176.5833868786
30
0.0000000000
10
348.8235008846
20
176.5284937625
30
0.0000000000
10
348.6656124260
20
176.5156754151
30
0.0000000000
10
348.5846974442
20
176.5156850962
30
0.0000000000
11
349.4405133885
21
176.7837838878
31
0.0000000000
11
349.2544764124
21
176.6735213669
31
0.0000000000
11
349.0501249648
21
176.5897174124
31
0.0000000000
11
348.8266466604
21
176.5353239896
31
0.0000000000
11
348.5846974442
21
176.5156850962
31
0.0000000000
0
SPLINE
5
3E8
100
AcDbEntity
8
0
100
AcDbSpline
62
9
6
CONTINUOUS
70
0
71
3
72
12
73
8
74
6
42
0.0000001000
43
0.0000001000
44
0.0000000001
12
-1.5636002845
22
0.0000000000
32
0.0000000000
13
-0.0000000017
23
-1.5636002845
33
0.0000000000
40
0.0000000000
40
0.0000000000
40
0.0000000000
40
0.0000000000
40
0.1999042194
40
0.3998457525
40
0.5998461945
40
0.7999050912
40
1.0000000000
40
1.0000000000
40
1.0000000000
40
1.0000000000
10
316.5565425960
20
180.0156850962
30
0.0000000000
10
316.4523524979
20
180.0156850962
30
0.0000000000
10
316.2424818520
20
179.9825053302
30
0.0000000000
10
315.9596020018
20
179.8381137717
30
0.0000000000
10
315.7348561119
20
179.6131373507
30
0.0000000000
10
315.5906312754
20
179.3300025495
30
0.0000000000
10
315.5574943742
20
179.1199745816
30
0.0000000000
10
315.5574943741
20
179.0156850962
30
0.0000000000
11
316.5565425960
21
180.0156850962
31
0.0000000000
11
316.2478275593
21
179.9667441628
31
0.0000000000
11
315.9693266546
21
179.8247092678
31
0.0000000000
11
315.7483023746
21
179.6034796724
31
0.0000000000
11
315.6063934036
21
179.3247086485
31
0.0000000000
11
315.5574943741
21
179.0156850962
31
0.0000000000
0
SPLINE
5
3E9
100
AcDbEntity
8
0
100
AcDbSpline
62
9
6
CONTINUOUS
70
0
71
3
72
14
73
10
74
8
42
0.0000001000
43
0.0000001000
44
0.0000000001
12
1.7397803564
22
1.8419435595
32
0.0000000000
13
1.7399251525
23
1.8418067640
33
0.0000000000
40
0.0000000000
40
0.0000000000
40
0.0000000000
40
0.0000000000
40
0.0233016274
40
0.0924956792
40
0.2072566921
40
0.3667579433
40
0.5635489000
40
0.7808574327
40
1.0000000000
40
1.0000000000
40
1.0000000000
40
1.0000000000
10
317.5250643582
20
155.0679202131
30
0.0000000000
10
317.5385775961
20
155.0822269740
30
0.0000000000
10
317.5922219966
20
155.1390141054
30
0.0000000000
10
317.7124470797
20
155.2662361720
30
0.0000000000
10
317.9116610169
20
155.4770793695
30
0.0000000000
10
318.1848902772
20
155.7662472257
30
0.0000000000
10
318.5175982815
20
156.1183691195
30
0.0000000000
10
318.8848895783
20
156.5071137261
30
0.0000000000
10
319.1380616708
20
156.7750275286
30
0.0000000000
10
319.2651588925
20
156.9095669496
30
0.0000000000
11
317.5250643582
21
155.0679202131
31
0.0000000000
11
317.5656065805
21
155.1108381256
31
0.0000000000
11
317.6860133484
21
155.2382666908
31
0.0000000000
11
317.8857110489
21
155.4496133946
31
0.0000000000
11
318.1632604408
21
155.7433563348
31
0.0000000000
11
318.5056958062
21
156.1057752884
31
0.0000000000
11
318.8838314933
21
156.5059824473
31
0.0000000000
11
319.2651588925
21
156.9095669496
31
0.0000000000
0
SPLINE
5
3EA
100
AcDbEntity
8
0
100
AcDbSpline
62
9
6
CONTINUOUS
70
0
71
3
72
14
73
10
74
8
42
0.0000001000
43
0.0000001000
44
0.0000000001
12
1.7399248091
22
-1.8418070931
32
0.0000000000
13
1.7397798172
23
-1.8419440734
33
0.0000000000
40
0.0000000000
40
0.0000000000
40
0.0000000000
40
0.0000000000
40
0.2191425751
40
0.4364511148
40
0.6332420757
40
0.7927433270
40
0.9075043372
40
0.9766983797
40
1.0000000000
40
1.0000000000
40
1.0000000000
40
1.0000000000
10
344.8366310463
20
156.9095669496
30
0.0000000000
10
344.9637282473
20
156.7750274998
30
0.0000000000
10
345.2169003879
20
156.5071137248
30
0.0000000000
10
345.5841916794
20
156.1183690901
30
0.0000000000
10
345.9168996919
20
155.7662471900
30
0.0000000000
10
346.1901289612
20
155.4770793398
30
0.0000000000
10
346.3893428752
20
155.2662361336
30
0.0000000000
10
346.5095679688
20
155.1390140987
30
0.0000000000
10
346.5632123502
20
155.0822269682
30
0.0000000000
10
346.5767255797
20
155.0679202077
30
0.0000000000
11
344.8366310463
21
156.9095669496
31
0.0000000000
11
345.2179584607
21
156.5059824336
31
0.0000000000
11
345.5960941591
21
156.1057752598
31
0.0000000000
11
345.9385295323
21
155.7433562981
31
0.0000000000
11
346.2160789256
21
155.4496133581
31
0.0000000000
11
346.4157766190
21
155.2382666564
31
0.0000000000
11
346.5361833777
21
155.1108381145
31
0.0000000000
11
346.5767255797
21
155.0679202077
31
0.0000000000
0
SPLINE
5
3EB
100
AcDbEntity
8
0
100
AcDbSpline
62
9
6
CONTINUOUS
70
0
71
3
72
16
73
12
74
10
42
0.0000001000
43
0.0000001000
44
0.0000000001
12
0.7305493711
22
5.0000527813
32
0.0000000000
13
0.7903616187
23
4.9910472859
33
0.0000000000
40
0.0000000000
40
0.0000000000
40
0.0000000000
40
0.0000000000
40
0.1938664267
40
0.3855493811
40
0.5617334367
40
0.7113424313
40
0.8282374459
40
0.9118787917
40
0.9649575765
40
0.9923092624
40
1.0000000000
40
1.0000000000
40
1.0000000000
40
1.0000000000
10
324.1188614299
20
191.0287501095
30
0.0000000000
10
324.1660710952
20
191.3518642314
30
0.0000000000
10
324.2599653000
20
191.9944523508
30
0.0000000000
10
324.3967494086
20
192.9306856996
30
0.0000000000
10
324.5227838731
20
193.7931517615
30
0.0000000000
10
324.6305552235
20
194.5309775868
30
0.0000000000
10
324.7159056911
20
195.1145466506
30
0.0000000000
10
324.7774762606
20
195.5372714675
30
0.0000000000
10
324.8177992514
20
195.8106718481
30
0.0000000000
10
324.8387112782
20
195.9576244363
30
0.0000000000
10
324.8477360559
20
196.0159551107
30
0.0000000000
10
324.8497622105
20
196.0287500557
30
0.0000000000
11
324.1188614299
21
191.0287501095
31
0.0000000000
11
324.2604941294
21
191.9980919342
31
0.0000000000
11
324.4005286960
21
192.9565167208
31
0.0000000000
11
324.5292460509
21
193.8374453915
31
0.0000000000
11
324.6385453692
21
194.5854978866
31
0.0000000000
11
324.7239443564
21
195.1699789237
31
0.0000000000
11
324.7850491143
21
195.5881899763
31
0.0000000000
11
324.8238259060
21
195.8535866846
31
0.0000000000
11
324.8438088757
21
195.9903463803
31
0.0000000000
11
324.8497622105
21
196.0287500557
31
0.0000000000
0
SPLINE
5
3EC
100
AcDbEntity
8
0
100
AcDbSpline
62
9
6
CONTINUOUS
70
0
71
3
72
8
73
4
74
2
42
0.0000001000
43
0.0000001000
44
0.0000000001
12
-0.0976429580
22
0.0000000000
32
0.0000000000
13
-0.0964942978
23
0.0192251164
33
0.0000000000
40
0.0000000000
40
0.0000000000
40
0.0000000000
40
0.0000000000
40
1.0000000000
40
1.0000000000
40
1.0000000000
40
1.0000000000
10
316.0166166053
20
176.0156850962
30
0.0000000000
10
315.9840689526
20
176.0156850962
30
0.0000000000
10
315.9513426028
20
176.0189506826
30
0.0000000000
10
315.9191778368
20
176.0253590548
30
0.0000000000
11
316.0166166053
21
176.0156850962
31
0.0000000000
11
315.9191778368
21
176.0253590548
31
0.0000000000
0
SPLINE
5
3ED
100
AcDbEntity
8
0
100
AcDbSpline
62
9
6
CONTINUOUS
70
0
71
3
72
11
73
7
74
5
42
0.0000001000
43
0.0000001000
44
0.0000000001
12
-0.6743199585
22
0.1343486609
32
0.0000000000
13
-0.0000000015
23
0.6823470085
33
0.0000000000
40
0.0000000000
40
0.0000000000
40
0.0000000000
40
0.0000000000
40
0.1425495548
40
0.4282717664
40
0.7140986968
40
1.0000000000
40
1.0000000000
40
1.0000000000
40
1.0000000000
10
315.9191778368
20
176.0253590548
30
0.0000000000
10
315.8871365002
20
176.0317428354
30
0.0000000000
10
315.7925467160
20
176.0602918487
30
0.0000000000
10
315.6542290544
20
176.1530049981
30
0.0000000000
10
315.5430786470
20
176.3191965761
30
0.0000000000
10
315.5170924946
20
176.4506571298
30
0.0000000000
10
315.5170924945
20
176.5156850962
30
0.0000000000
11
315.9191778368
21
176.0253590548
31
0.0000000000
11
315.8254574649
21
176.0537451389
31
0.0000000000
11
315.6634002696
21
176.1621311550
31
0.0000000000
11
315.5551167535
21
176.3243427763
31
0.0000000000
11
315.5170924945
21
176.5156850962
31
0.0000000000
0
SPLINE
5
3EE
100
AcDbEntity
8
0
100
AcDbSpline
62
9
6
CONTINUOUS
70
0
71
3
72
8
73
4
74
2
42
0.0000001000
43
0.0000001000
44
0.0000000001
12
-0.0976432312
22
0.0000000000
32
0.0000000000
13
-0.0964945610
23
0.0192252245
33
0.0000000000
40
0.0000000000
40
0.0000000000
40
0.0000000000
40
0.0000000000
40
1.0000000000
40
1.0000000000
40
1.0000000000
40
1.0000000000
10
316.0570184852
20
176.0156850962
30
0.0000000000
10
316.0244707415
20
176.0156850962
30
0.0000000000
10
315.9917442991
20
176.0189507014
30
0.0000000000
10
315.9595794454
20
176.0253591096
30
0.0000000000
11
316.0570184852
21
176.0156850962
31
0.0000000000
11
315.9595794454
21
176.0253591096
31
0.0000000000
0
SPLINE
5
3EF
100
AcDbEntity
8
0
100
AcDbSpline
62
9
6
CONTINUOUS
70
0
71
3
72
11
73
7
74
5
42
0.0000001000
43
0.0000001000
44
0.0000000001
12
-0.6743196421
22
0.1343489869
32
0.0000000000
13
0.0000000000
23
0.6823467356
33
0.0000000000
40
0.0000000000
40
0.0000000000
40
0.0000000000
40
0.0000000000
40
0.1425499286
40
0.4282726565
40
0.7140995216
40
1.0000000000
40
1.0000000000
40
1.0000000000
40
1.0000000000
10
315.9595794454
20
176.0253591096
30
0.0000000000
10
315.9275380398
20
176.0317429224
30
0.0000000000
10
315.8329481123
20
176.0602920578
30
0.0000000000
10
315.6946304558
20
176.1530054618
30
0.0000000000
10
315.5834803846
20
176.3191970578
30
0.0000000000
10
315.5574943744
20
176.4506573434
30
0.0000000000
10
315.5574943744
20
176.5156850962
30
0.0000000000
11
315.9595794454
21
176.0253591096
31
0.0000000000
11
315.8658588840
21
176.0537453299
31
0.0000000000
11
315.7038015991
21
176.1621317056
31
0.0000000000
11
315.5955183833
21
176.3243433800
31
0.0000000000
11
315.5574943744
21
176.5156850962
31
0.0000000000
0
SPLINE
5
3F0
100
AcDbEntity
8
0
100
AcDbSpline
62
9
6
CONTINUOUS
70
0
71
3
72
18
73
14
74
12
42
0.0000001000
43
0.0000001000
44
0.0000000001
12
0.2091045285
22
-1.3585739369
32
0.0000000000
13
1.1905196828
23
0.6871031442
33
0.0000000000
40
0.0000000000
40
0.0000000000
40
0.0000000000
40
0.0000000000
40
0.0836603010
40
0.1718326406
40
0.2649952952
40
0.3628695627
40
0.4644426055
40
0.5683283693
40
0.6722105463
40
0.7713617494
40
0.8604630611
40
0.9353987971
40
1.0000000000
40
1.0000000000
40
1.0000000000
40
1.0000000000
10
317.5250635539
20
155.0679254385
30
0.0000000000
10
317.5308948032
20
155.0300392036
30
0.0000000000
10
317.5474058227
20
154.9528505638
30
0.0000000000
10
317.5860406778
20
154.8375144851
30
0.0000000000
10
317.6384245766
20
154.7206032202
30
0.0000000000
10
317.7033124793
20
154.6031443936
30
0.0000000000
10
317.7782156669
20
154.4859767903
30
0.0000000000
10
317.8615358930
20
154.3712036339
30
0.0000000000
10
317.9506593988
20
154.2623634475
30
0.0000000000
10
318.0429711798
20
154.1649977207
30
0.0000000000
10
318.1358714677
20
154.0880685233
30
0.0000000000
10
318.2297305437
20
154.0367120916
30
0.0000000000
10
318.2999958581
20
154.0429273751
30
0.0000000000
10
318.3256321926
20
154.0577232716
30
0.0000000000
11
317.5250635539
21
155.0679254385
31
0.0000000000
11
317.5489969122
21
154.9554464329
31
0.0000000000
11
317.5871060928
21
154.8403945278
31
0.0000000000
11
317.6390916904
21
154.7233622889
31
0.0000000000
11
317.7037015528
21
154.6053568233
31
0.0000000000
11
317.7787700795
21
154.4876355143
31
0.0000000000
11
317.8626294207
21
154.3720543391
31
0.0000000000
11
317.9533943604
21
154.2618195224
31
0.0000000000
11
318.0480785438
21
154.1637889474
31
0.0000000000
11
318.1436561159
21
154.0872034605
31
0.0000000000
11
318.2377174943
21
154.0452225658
31
0.0000000000
11
318.3256321926
21
154.0577232716
31
0.0000000000
0
SPLINE
5
3F1
100
AcDbEntity
8
0
100
AcDbSpline
62
9
6
CONTINUOUS
70
0
71
3
72
18
73
14
74
12
42
0.0000001000
43
0.0000001000
44
0.0000000001
12
1.1905295472
22
-0.6870836117
32
0.0000000000
13
0.2091043430
23
1.3585727313
33
0.0000000000
40
0.0000000000
40
0.0000000000
40
0.0000000000
40
0.0000000000
40
0.0646043217
40
0.1396221601
40
0.2286823459
40
0.3277197136
40
0.4315147142
40
0.5353624223
40
0.6369189832
40
0.7347842555
40
0.8279661766
40
0.9162023367
40
1.0000000000
40
1.0000000000
40
1.0000000000
40
1.0000000000
10
345.7761578117
20
154.0577250524
30
0.0000000000
10
345.8017955963
20
154.0429288622
30
0.0000000000
10
345.8721031105
20
154.0367090066
30
0.0000000000
10
345.9659694887
20
154.0881075647
30
0.0000000000
10
346.0588357886
20
154.1650197007
30
0.0000000000
10
346.1510732232
20
154.2623031946
30
0.0000000000
10
346.2401349147
20
154.3710517741
30
0.0000000000
10
346.3234280879
20
154.4857641551
30
0.0000000000
10
346.3983292512
20
154.6028982281
30
0.0000000000
10
346.4632346097
20
154.7203437941
30
0.0000000000
10
346.5156569012
20
154.8372748883
30
0.0000000000
10
346.5543468123
20
154.9526992075
30
0.0000000000
10
346.5708855641
20
155.0299770171
30
0.0000000000
10
346.5767263826
20
155.0679254239
30
0.0000000000
11
345.7761578117
21
154.0577250524
31
0.0000000000
11
345.8640766115
21
154.0452232982
31
0.0000000000
11
345.9582328070
21
154.0872684216
31
0.0000000000
11
346.0537561975
21
154.1638309472
31
0.0000000000
11
346.1483322624
21
154.2617482372
31
0.0000000000
11
346.2390288757
21
154.3718839247
31
0.0000000000
11
346.3228689746
21
154.4874142753
31
0.0000000000
11
346.3979397501
21
154.6051071321
31
0.0000000000
11
346.4625631065
21
154.7230909749
31
0.0000000000
11
346.5145835882
21
154.8401365694
31
0.0000000000
11
346.5527430610
21
154.9552641132
31
0.0000000000
11
346.5767263826
21
155.0679254239
31
0.0000000000
0
SPLINE
5
3F2
100
AcDbEntity
8
0
100
AcDbSpline
62
9
6
CONTINUOUS
70
0
71
3
72
15
73
11
74
9
42
0.0000001000
43
0.0000001000
44
0.0000000001
12
0.4667974247
22
-0.8554788890
32
0.0000000000
13
-0.9362441360
23
-0.2705381361
33
0.0000000000
40
0.0000000000
40
0.0000000000
40
0.0000000000
40
0.0000000000
40
0.2277475702
40
0.4520533033
40
0.6399366314
40
0.7846349543
40
0.8881364967
40
0.9546383912
40
0.9896886283
40
1.0000000000
40
1.0000000000
40
1.0000000000
40
1.0000000000
10
320.4076210772
20
156.0732275887
30
0.0000000000
10
320.4430584036
20
156.0082831759
30
0.0000000000
10
320.5165901058
20
155.8811914005
30
0.0000000000
10
320.6222965071
20
155.7019752713
30
0.0000000000
10
320.7107292912
20
155.5447639673
30
0.0000000000
10
320.7782416460
20
155.4186327598
30
0.0000000000
10
320.8217993128
20
155.3296262786
30
0.0000000000
10
320.8535654162
20
155.2641031050
30
0.0000000000
10
320.8608876049
20
155.2378312238
30
0.0000000000
10
320.8705003983
20
155.2166479874
30
0.0000000000
10
320.8672824112
20
155.2157181143
30
0.0000000000
11
320.4076210772
21
156.0732275887
31
0.0000000000
11
320.5174392258
21
155.8803488653
31
0.0000000000
11
320.6275335699
21
155.6915003485
31
0.0000000000
11
320.7171642413
21
155.5318368198
31
0.0000000000
11
320.7832355672
21
155.4072577542
31
0.0000000000
11
320.8279605599
21
155.3168482799
31
0.0000000000
11
320.8545418998
21
155.2577409460
31
0.0000000000
11
320.8664734229
21
155.2257344251
31
0.0000000000
11
320.8672824112
21
155.2157181143
31
0.0000000000
0
SPLINE
5
3F3
100
AcDbEntity
8
0
100
AcDbSpline
62
9
6
CONTINUOUS
70
0
71
3
72
15
73
11
74
9
42
0.0000001000
43
0.0000001000
44
0.0000000001
12
-0.3756168861
22
-0.9342263059
32
0.0000000000
13
0.8720303661
23
0.5034181924
33
0.0000000000
40
0.0000000000
40
0.0000000000
40
0.0000000000
40
0.0000000000
40
0.2662305046
40
0.4953165764
40
0.6730139725
40
0.8051644766
40
0.8973984419
40
0.9555209547
40
0.9861550152
40
1.0000000000
40
1.0000000000
40
1.0000000000
40
1.0000000000
10
319.8363433961
20
155.9202462686
30
0.0000000000
10
319.8030098384
20
155.8373397550
30
0.0000000000
10
319.7702931461
20
155.6722721375
30
0.0000000000
10
319.7521548131
20
155.4468976371
30
0.0000000000
10
319.7655904868
20
155.2658293480
30
0.0000000000
10
319.7871090557
20
155.1327508524
30
0.0000000000
10
319.8090051485
20
155.0398920361
30
0.0000000000
10
319.8318877730
20
154.9840394891
30
0.0000000000
10
319.8458912314
20
154.9517336589
30
0.0000000000
10
319.8632675128
20
154.9454840365
30
0.0000000000
10
319.8672919285
20
154.9478073089
30
0.0000000000
11
319.8363433961
21
155.9202462686
31
0.0000000000
11
319.7734349698
21
155.6596621660
31
0.0000000000
11
319.7574631739
21
155.4295468308
31
0.0000000000
11
319.7696393347
21
155.2510364111
31
0.0000000000
11
319.7911123197
21
155.1197168250
31
0.0000000000
11
319.8144170780
21
155.0298171075
31
0.0000000000
11
319.8357458062
21
154.9753179592
31
0.0000000000
11
319.8535454766
21
154.9501260821
31
0.0000000000
11
319.8672919285
21
154.9478073089
31
0.0000000000
0
SPLINE
5
3F4
100
AcDbEntity
8
0
100
AcDbSpline
62
9
6
CONTINUOUS
70
0
71
3
72
10
73
6
74
4
42
0.0000001000
43
0.0000001000
44
0.0000000001
12
-0.5825946419
22
-0.1052294507
32
0.0000000000
13
-0.5572291136
23
-0.1999636693
33
0.0000000000
40
0.0000000000
40
0.0000000000
40
0.0000000000
40
0.0000000000
40
0.3329552577
40
0.6670394323
40
1.0000000000
40
1.0000000000
40
1.0000000000
40
1.0000000000
10
320.4076347962
20
156.0732402993
30
0.0000000000
10
320.3429754798
20
156.0615613997
30
0.0000000000
10
320.2140649714
20
156.0345264075
30
0.0000000000
10
320.0233575819
20
155.9834480284
30
0.0000000000
10
319.8981885034
20
155.9424396076
30
0.0000000000
10
319.8363433961
20
155.9202462686
30
0.0000000000
11
320.4076347962
21
156.0732402993
31
0.0000000000
11
320.2147069949
21
156.0328190363
31
0.0000000000
11
320.0236553432
21
155.9816505749
31
0.0000000000
11
319.8363433961
21
155.9202462686
31
0.0000000000
0
SPLINE
5
3F5
100
AcDbEntity
8
0
100
AcDbSpline
62
9
6
CONTINUOUS
70
0
71
3
72
10
73
6
74
4
42
0.0000001000
43
0.0000001000
44
0.0000000001
12
0.6157741414
22
-1.1405618926
32
0.0000000000
13
0.6124895407
23
-1.1423291061
33
0.0000000000
40
0.0000000000
40
0.0000000000
40
0.0000000000
40
0.0000000000
40
0.3550509105
40
0.6940059706
40
1.0000000000
40
1.0000000000
40
1.0000000000
40
1.0000000000
10
319.7953710755
20
157.2156850962
30
0.0000000000
10
319.8682481320
20
157.0806992500
30
0.0000000000
10
320.0092595675
20
156.8160730721
30
0.0000000000
10
320.2136446944
20
156.4354161016
30
0.0000000000
10
320.3451483631
20
156.1897428841
30
0.0000000000
10
320.4076210772
20
156.0732275887
30
0.0000000000
11
319.7953710755
21
157.2156850962
31
0.0000000000
11
320.0127480372
21
156.8100529318
31
0.0000000000
11
320.2202946182
21
156.4228226178
31
0.0000000000
11
320.4076210772
21
156.0732275887
31
0.0000000000
0
SPLINE
5
3F6
100
AcDbEntity
8
0
100
AcDbSpline
62
9
6
CONTINUOUS
70
0
71
3
72
10
73
6
74
4
42
0.0000001000
43
0.0000001000
44
0.0000000001
12
0.0370046060
22
-1.2956282103
32
0.0000000000
13
0.0408439130
23
-1.2955128618
33
0.0000000000
40
0.0000000000
40
0.0000000000
40
0.0000000000
40
0.0000000000
40
0.3550542436
40
0.6940134755
40
1.0000000000
40
1.0000000000
40
1.0000000000
40
1.0000000000
10
319.7953710755
20
157.2156850962
30
0.0000000000
10
319.7997506230
20
157.0623456647
30
0.0000000000
10
319.8099451860
20
156.7626670824
30
0.0000000000
10
319.8232755027
20
156.3308208691
30
0.0000000000
10
319.8322172343
20
156.0523140405
30
0.0000000000
10
319.8363831299
20
155.9201775478
30
0.0000000000
11
319.7953710755
21
157.2156850962
31
0.0000000000
11
319.8099347612
21
156.7557097120
31
0.0000000000
11
319.8238101682
21
156.3165846455
31
0.0000000000
11
319.8363831299
21
155.9201775478
31
0.0000000000
0
SPLINE
5
3F7
100
AcDbEntity
8
0
100
AcDbSpline
62
9
6
CONTINUOUS
70
0
71
3
72
15
73
11
74
9
42
0.0000001000
43
0.0000001000
44
0.0000000001
12
-0.9362309581
22
0.2705438155
32
0.0000000000
13
0.4626774354
23
0.8577015529
33
0.0000000000
40
0.0000000000
40
0.0000000000
40
0.0000000000
40
0.0000000000
40
0.0109032275
40
0.0481273687
40
0.1184174723
40
0.2266353975
40
0.3755454267
40
0.5648782807
40
0.7867977043
40
1.0000000000
40
1.0000000000
40
1.0000000000
40
1.0000000000
10
343.2345075296
20
155.2157181143
30
0.0000000000
10
343.2311048832
20
155.2167013812
30
0.0000000000
10
343.2415984860
20
155.2391495592
30
0.0000000000
10
343.2492441394
20
155.2668875885
30
0.0000000000
10
343.2829892026
20
155.3357517706
30
0.0000000000
10
343.3284795678
20
155.4282363570
30
0.0000000000
10
343.3979031732
20
155.5572094859
30
0.0000000000
10
343.4872304695
20
155.7151339583
30
0.0000000000
10
343.5902205960
20
155.8900942806
30
0.0000000000
10
343.6612875514
20
156.0122729300
30
0.0000000000
10
343.6941688486
20
156.0732275767
30
0.0000000000
11
343.2345075296
21
155.2157181143
31
0.0000000000
11
343.2354804260
21
155.2262990792
31
0.0000000000
11
343.2482930597
21
155.2602373551
31
0.0000000000
11
343.2765725607
21
155.3226277536
31
0.0000000000
11
343.3235802292
21
155.4170342737
31
0.0000000000
11
343.3918777255
21
155.5450763861
31
0.0000000000
11
343.4825100310
21
155.7057948229
31
0.0000000000
11
343.5914770311
21
155.8926057936
31
0.0000000000
11
343.6941688486
21
156.0732275767
31
0.0000000000
0
SPLINE
5
3F8
100
AcDbEntity
8
0
100
AcDbSpline
62
9
6
CONTINUOUS
70
0
71
3
72
10
73
6
74
4
42
0.0000001000
43
0.0000001000
44
0.0000000001
12
0.0943998349
22
-0.0544975243
32
0.0000000000
13
0.0341195033
23
0.1031108490
33
0.0000000000
40
0.0000000000
40
0.0000000000
40
0.0000000000
40
0.0000000000
40
0.1323896630
40
0.4322423145
40
1.0000000000
40
1.0000000000
40
1.0000000000
40
1.0000000000
10
344.2344980589
20
154.9478072915
30
0.0000000000
10
344.2386639130
20
154.9454023219
30
0.0000000000
10
344.2568682185
20
154.9525225222
30
0.0000000000
10
344.2709567918
20
154.9866783766
30
0.0000000000
10
344.2826460318
20
155.0158028114
30
0.0000000000
10
344.2891032352
20
155.0353168037
30
0.0000000000
11
344.2344980589
21
154.9478072915
31
0.0000000000
11
344.2486788669
21
154.9504809889
31
0.0000000000
11
344.2671185906
21
154.9774669898
31
0.0000000000
11
344.2891032352
21
155.0353168037
31
0.0000000000
0
SPLINE
5
3F9
100
AcDbEntity
8
0
100
AcDbSpline
62
9
6
CONTINUOUS
70
0
71
3
72
9
73
5
74
3
42
0.0000001000
43
0.0000001000
44
0.0000000001
12
0.0502344872
22
0.1518111383
32
0.0000000000
13
0.0252015039
23
0.1584837545
33
0.0000000000
40
0.0000000000
40
0.0000000000
40
0.0000000000
40
0.0000000000
40
0.6057868210
40
1.0000000000
40
1.0000000000
40
1.0000000000
40
1.0000000000
10
344.2891032352
20
155.0353168037
30
0.0000000000
10
344.2992470320
20
155.0659718660
30
0.0000000000
10
344.3111353733
20
155.1184298639
30
0.0000000000
10
344.3205335345
20
155.1711354965
30
0.0000000000
10
344.3238451228
20
155.1919609581
30
0.0000000000
11
344.2891032352
21
155.0353168037
31
0.0000000000
11
344.3127367925
21
155.1296194700
31
0.0000000000
11
344.3238451228
21
155.1919609581
31
0.0000000000
0
SPLINE
5
3FA
100
AcDbEntity
8
0
100
AcDbSpline
62
9
6
CONTINUOUS
70
0
71
3
72
11
73
7
74
5
42
0.0000001000
43
0.0000001000
44
0.0000000001
12
0.1158193451
22
0.7283487807
32
0.0000000000
13
-0.2756912257
23
0.6840766174
33
0.0000000000
40
0.0000000000
40
0.0000000000
40
0.0000000000
40
0.0000000000
40
0.1001883111
40
0.3456930958
40
0.6560877157
40
1.0000000000
40
1.0000000000
40
1.0000000000
40
1.0000000000
10
344.3238451228
20
155.1919609581
30
0.0000000000
10
344.3277130377
20
155.2162849695
30
0.0000000000
10
344.3392077560
20
155.3004402650
30
0.0000000000
10
344.3486733274
20
155.4619938377
30
0.0000000000
10
344.3315157738
20
155.6827998538
30
0.0000000000
10
344.2970241816
20
155.8418170485
30
0.0000000000
10
344.2654196485
20
155.9202378325
30
0.0000000000
11
344.3238451228
21
155.1919609581
31
0.0000000000
11
344.3338292256
21
155.2651457767
31
0.0000000000
11
344.3441054697
21
155.4459237397
31
0.0000000000
11
344.3272004971
21
155.6742274269
31
0.0000000000
11
344.2654196485
21
155.9202378325
31
0.0000000000
0
SPLINE
5
3FB
100
AcDbEntity
8
0
100
AcDbSpline
62
9
6
CONTINUOUS
70
0
71
3
72
12
73
8
74
6
42
0.0000001000
43
0.0000001000
44
0.0000000001
12
1.5636002844
22
0.0000000000
32
0.0000000000
13
-0.0000000023
23
-1.5636002844
33
0.0000000000
40
0.0000000000
40
0.0000000000
40
0.0000000000
40
0.0000000000
40
0.1999094280
40
0.3998534605
40
0.5998534717
40
0.7999094462
40
1.0000000000
40
1.0000000000
40
1.0000000000
40
1.0000000000
10
347.5452473427
20
180.0156850962
30
0.0000000000
10
347.6494401555
20
180.0156850962
30
0.0000000000
10
347.8593149324
20
179.9825037925
30
0.0000000000
10
348.1421968343
20
179.8381075134
30
0.0000000000
10
348.3669397150
20
179.6131287590
30
0.0000000000
10
348.5111600131
20
179.3299963921
30
0.0000000000
10
348.5442955644
20
179.1199723118
30
0.0000000000
10
348.5442955643
20
179.0156850962
30
0.0000000000
11
347.5452473427
21
180.0156850962
31
0.0000000000
11
347.8539702210
21
179.9667416126
31
0.0000000000
11
348.1324731531
21
179.8247020910
31
0.0000000000
11
348.3534943318
21
179.6034703493
31
0.0000000000
11
348.4953986640
21
179.3247020912
31
0.0000000000
11
348.5442955643
21
179.0156850962
31
0.0000000000
0
SPLINE
5
3FC
100
AcDbEntity
8
0
100
AcDbSpline
62
9
6
CONTINUOUS
70
0
71
3
72
10
73
6
74
4
42
0.0000001000
43
0.0000001000
44
0.0000000001
12
0.6121827718
22
1.1424935632
32
0.0000000000
13
0.6183473031
23
1.1391689518
33
0.0000000000
40
0.0000000000
40
0.0000000000
40
0.0000000000
40
0.0000000000
40
0.3059430350
40
0.6454988618
40
1.0000000000
40
1.0000000000
40
1.0000000000
40
1.0000000000
10
343.6941688486
20
156.0732275767
30
0.0000000000
10
343.7565998670
20
156.1897402261
30
0.0000000000
10
343.8882436808
20
156.4356080170
30
0.0000000000
10
344.0926421188
20
156.8162569392
30
0.0000000000
10
344.2333505890
20
157.0810728661
30
0.0000000000
10
344.3064188632
20
157.2156850962
30
0.0000000000
11
343.6941688486
21
156.0732275767
31
0.0000000000
11
343.8814549496
21
156.4227692511
31
0.0000000000
11
344.0893107070
21
156.8107173505
31
0.0000000000
11
344.3064188632
21
157.2156850962
31
0.0000000000
0
SPLINE
5
3FD
100
AcDbEntity
8
0
100
AcDbSpline
62
9
6
CONTINUOUS
70
0
71
3
72
10
73
6
74
4
42
0.0000001000
43
0.0000001000
44
0.0000000001
12
0.0410369269
22
1.2955067686
32
0.0000000000
13
0.0340802138
23
1.2957084379
33
0.0000000000
40
0.0000000000
40
0.0000000000
40
0.0000000000
40
0.0000000000
40
0.3059355513
40
0.6454951815
40
1.0000000000
40
1.0000000000
40
1.0000000000
40
1.0000000000
10
344.2654068088
20
155.9201775491
30
0.0000000000
10
344.2695916938
20
156.0522914083
30
0.0000000000
10
344.2785286562
20
156.3310360500
30
0.0000000000
10
344.2918374812
20
156.7628821289
30
0.0000000000
10
344.3023916632
20
157.0625734680
30
0.0000000000
10
344.3064188632
20
157.2156850962
30
0.0000000000
11
344.2654068088
21
155.9201775491
31
0.0000000000
11
344.2779853631
21
156.3165183689
31
0.0000000000
11
344.2919538015
21
156.7564190913
31
0.0000000000
11
344.3064188632
21
157.2156850962
31
0.0000000000
0
SPLINE
5
3FE
100
AcDbEntity
8
0
100
AcDbSpline
62
9
6
CONTINUOUS
70
0
71
3
72
10
73
6
74
4
42
0.0000001000
43
0.0000001000
44
0.0000000001
12
0.5825583966
22
-0.1051629979
32
0.0000000000
13
0.5570923637
23
-0.2002039957
33
0.0000000000
40
0.0000000000
40
0.0000000000
40
0.0000000000
40
0.0000000000
40
0.3329586535
40
0.6670413792
40
1.0000000000
40
1.0000000000
40
1.0000000000
40
1.0000000000
10
343.6941825720
20
156.0732295823
30
0.0000000000
10
343.7588385251
20
156.0615579390
30
0.0000000000
10
343.8877408190
20
156.0345316157
30
0.0000000000
10
344.0784281904
20
155.9834373571
30
0.0000000000
10
344.2035741112
20
155.9423920111
30
0.0000000000
10
344.2654036796
20
155.9201721290
30
0.0000000000
11
343.6941825720
21
156.0732295823
31
0.0000000000
11
343.8870985524
21
156.0328191840
31
0.0000000000
11
344.0781282038
21
155.9816332088
31
0.0000000000
11
344.2654036796
21
155.9201721290
31
0.0000000000
0
SPLINE
5
3FF
100
AcDbEntity
8
0
100
AcDbSpline
62
9
6
CONTINUOUS
70
0
71
3
72
11
73
7
74
5
42
0.0000001000
43
0.0000001000
44
0.0000000001
12
-0.9100533196
22
-0.0001079352
32
0.0000000000
13
-0.7479147285
23
0.5197270539
33
0.0000000000
40
0.0000000000
40
0.0000000000
40
0.0000000000
40
0.0000000000
40
0.2670889029
40
0.5198503727
40
0.7624547833
40
1.0000000000
40
1.0000000000
40
1.0000000000
40
1.0000000000
10
315.5170924945
20
176.5156850962
30
0.0000000000
10
315.4360707803
20
176.5156754867
30
0.0000000000
10
315.2780664799
20
176.5285206293
30
0.0000000000
10
315.0525169071
20
176.5834841909
30
0.0000000000
10
314.8460759507
20
176.6681890224
30
0.0000000000
10
314.7203494869
20
176.7427341358
30
0.0000000000
10
314.6611282981
20
176.7838870277
30
0.0000000000
11
315.5170924945
21
176.5156850962
31
0.0000000000
11
315.2748262626
21
176.5353761425
31
0.0000000000
11
315.0513368993
21
176.5898248038
31
0.0000000000
11
314.8470809552
21
176.6736378137
31
0.0000000000
11
314.6611282981
21
176.7838870277
31
0.0000000000
0
SPLINE
5
400
100
AcDbEntity
8
0
100
AcDbSpline
62
9
6
CONTINUOUS
70
0
71
3
72
9
73
5
74
3
42
0.0000001000
43
0.0000001000
44
0.0000000001
12
-0.3675808333
22
0.2554324662
32
0.0000000000
13
-0.2759332123
23
0.3520075696
33
0.0000000000
40
0.0000000000
40
0.0000000000
40
0.0000000000
40
0.0000000000
40
0.4873455644
40
1.0000000000
40
1.0000000000
40
1.0000000000
40
1.0000000000
10
314.6611282981
20
176.7838870277
30
0.0000000000
10
314.6014153352
20
176.8253816542
30
0.0000000000
10
314.4851044399
20
176.9194400734
30
0.0000000000
10
314.3839173850
20
177.0298812815
30
0.0000000000
10
314.3367645900
20
177.0900340288
30
0.0000000000
11
314.6611282981
21
176.7838870277
31
0.0000000000
11
314.4916401357
21
176.9209505667
31
0.0000000000
11
314.3367645900
21
177.0900340288
31
0.0000000000
0
SPLINE
5
401
100
AcDbEntity
8
0
100
AcDbSpline
62
9
6
CONTINUOUS
70
0
71
3
72
11
73
7
74
5
42
0.0000001000
43
0.0000001000
44
0.0000000001
12
-0.0765465486
22
-0.4958189628
32
0.0000000000
13
-0.4961188374
23
0.0745782619
33
0.0000000000
40
0.0000000000
40
0.0000000000
40
0.0000000000
40
0.0000000000
40
0.0928714179
40
0.3084300298
40
0.6255912680
40
1.0000000000
40
1.0000000000
40
1.0000000000
40
1.0000000000
10
346.1795086442
20
152.4875080675
30
0.0000000000
10
346.1771389820
20
152.4721589308
30
0.0000000000
10
346.1099159867
20
152.4586367697
30
0.0000000000
10
346.0183571478
20
152.4554622513
30
0.0000000000
10
345.8603440336
20
152.4640444648
30
0.0000000000
10
345.7472972438
20
152.4782143614
30
0.0000000000
10
345.6853801689
20
152.4875219456
30
0.0000000000
11
346.1795086442
21
152.4875080675
31
0.0000000000
11
346.1386580893
21
152.4650997247
31
0.0000000000
11
346.0307994355
21
152.4572456403
31
0.0000000000
11
345.8718761956
21
152.4651070034
31
0.0000000000
11
345.6853801689
21
152.4875219456
31
0.0000000000
0
SPLINE
5
402
100
AcDbEntity
8
0
100
AcDbSpline
62
9
6
CONTINUOUS
70
0
71
3
72
13
73
9
74
7
42
0.0000001000
43
0.0000001000
44
0.0000000001
12
-0.1792965465
22
-1.7406932705
32
0.0000000000
13
-1.7499016952
23
-0.0020907037
33
0.0000000000
40
0.0000000000
40
0.0000000000
40
0.0000000000
40
0.0000000000
40
0.1776732225
40
0.3554322011
40
0.5287690425
40
0.6947291323
40
0.8517753835
40
1.0000000000
40
1.0000000000
40
1.0000000000
40
1.0000000000
10
345.6853801706
20
152.4875000169
30
0.0000000000
10
345.6747614389
20
152.3844084893
30
0.0000000000
10
345.6391764053
20
152.1792990546
30
0.0000000000
10
345.5400146340
20
151.8858233933
30
0.0000000000
10
345.3934134158
20
151.6200380834
30
0.0000000000
10
345.1995316682
20
151.4010089298
30
0.0000000000
10
344.9630477992
20
151.2519210955
30
0.0000000000
10
344.7834781627
20
151.2157883941
30
0.0000000000
10
344.6970186601
20
151.2156850962
30
0.0000000000
11
345.6853801706
21
152.4875000169
31
0.0000000000
11
345.6314211591
21
152.1813072512
31
0.0000000000
11
345.5305456668
21
151.8870572625
31
0.0000000000
11
345.3818388012
21
151.6226883958
31
0.0000000000
11
345.1865658018
21
151.4077261294
31
0.0000000000
11
344.9516412679
21
151.2651283355
31
0.0000000000
11
344.6970186601
21
151.2156850962
31
0.0000000000
0
SPLINE
5
403
100
AcDbEntity
8
0
100
AcDbSpline
62
9
6
CONTINUOUS
70
0
71
3
72
17
73
13
74
11
42
0.0000001000
43
0.0000001000
44
0.0000000001
12
0.7309700499
22
-4.9999403217
32
0.0000000000
13
0.7305432682
23
-5.0000026916
33
0.0000000000
40
0.0000000000
40
0.0000000000
40
0.0000000000
40
0.0000000000
40
0.0061147627
40
0.0276448505
40
0.0691058453
40
0.1343205760
40
0.2259026113
40
0.3446863907
40
0.4886045291
40
0.6518012975
40
0.8255200888
40
1.0000000000
40
1.0000000000
40
1.0000000000
40
1.0000000000
10
339.2523676601
20
196.0287502323
30
0.0000000000
10
339.2538575629
20
196.0185590829
30
0.0000000000
10
339.2605922353
20
195.9724847096
30
0.0000000000
10
339.2774174575
20
195.8573077934
30
0.0000000000
10
339.3086405336
20
195.6436317775
30
0.0000000000
10
339.3569215020
20
195.3132023407
30
0.0000000000
10
339.4240333986
20
194.8539017775
30
0.0000000000
10
339.5103062244
20
194.2634281423
30
0.0000000000
10
339.6140177267
20
193.5535964747
30
0.0000000000
10
339.7311110651
20
192.7522070429
30
0.0000000000
10
339.8556418046
20
191.8998805897
30
0.0000000000
10
339.9404401340
20
191.3195501180
30
0.0000000000
10
339.9829285089
20
191.0287501095
30
0.0000000000
11
339.2523676601
21
196.0287502323
31
0.0000000000
11
339.2568366520
21
195.9981766793
31
0.0000000000
11
339.2725653764
21
195.8905261916
31
0.0000000000
11
339.3028553793
21
195.6832212452
31
0.0000000000
11
339.3505004501
21
195.3571478378
31
0.0000000000
11
339.4174083457
21
194.8992378907
31
0.0000000000
11
339.5041856180
21
194.3053187592
31
0.0000000000
11
339.6093237764
21
193.5857276406
31
0.0000000000
11
339.7285479462
21
192.7697436323
31
0.0000000000
11
339.8554584293
21
191.9011494111
31
0.0000000000
11
339.9829285089
21
191.0287501095
31
0.0000000000
0
SPLINE
5
404
100
AcDbEntity
8
0
100
AcDbSpline
62
9
6
CONTINUOUS
70
0
71
3
72
9
73
5
74
3
42
0.0000001000
43
0.0000001000
44
0.0000000001
12
-0.0234075045
22
-0.2281857486
32
0.0000000000
13
-0.0234090355
23
-0.2281855916
33
0.0000000000
40
0.0000000000
40
0.0000000000
40
0.0000000000
40
0.0000000000
40
0.5014720906
40
1.0000000000
40
1.0000000000
40
1.0000000000
40
1.0000000000
10
345.7087941992
20
152.7156850962
30
0.0000000000
10
345.7048814624
20
152.6775421680
30
0.0000000000
10
345.6970754769
20
152.6014806093
30
0.0000000000
10
345.6892701898
20
152.5254189788
30
0.0000000000
10
345.6853801706
20
152.4875000169
30
0.0000000000
11
345.7087941992
21
152.7156850962
31
0.0000000000
11
345.6970526703
21
152.6012566522
31
0.0000000000
11
345.6853801706
21
152.4875000169
31
0.0000000000
0
SPLINE
5
405
100
AcDbEntity
8
0
100
AcDbSpline
62
7
6
CONTINUOUS
70
0
71
3
72
8
73
4
74
2
42
0.0000001000
43
0.0000001000
44
0.0000000001
12
-0.0856991616
22
0.0000000000
32
0.0000000000
13
-0.0634767015
23
0.0673423278
33
0.0000000000
40
0.0000000000
40
0.0000000000
40
0.0000000000
40
0.0000000000
40
1.0000000000
40
1.0000000000
40
1.0000000000
40
1.0000000000
10
326.0262700309
20
193.2156850962
30
0.0000000000
10
325.9977036437
20
193.2156850962
30
0.0000000000
10
325.9760631289
20
193.2406851880
30
0.0000000000
10
325.9549042284
20
193.2631326306
30
0.0000000000
11
326.0262700309
21
193.2156850962
31
0.0000000000
11
325.9549042284
21
193.2631326306
31
0.0000000000
0
SPLINE
5
406
100
AcDbEntity
8
0
100
AcDbSpline
62
7
6
CONTINUOUS
70
0
71
3
72
13
73
9
74
7
42
0.0000001000
43
0.0000001000
44
0.0000000001
12
-0.8725569309
22
0.9256942070
32
0.0000000000
13
-1.0110863473
23
0.6045302351
33
0.0000000000
40
0.0000000000
40
0.0000000000
40
0.0000000000
40
0.0000000000
40
0.1315541756
40
0.2941026798
40
0.4719431751
40
0.6549006991
40
0.8340830268
40
1.0000000000
40
1.0000000000
40
1.0000000000
40
1.0000000000
10
325.9549042284
20
193.2631326306
30
0.0000000000
10
325.9166413925
20
193.3037256101
30
0.0000000000
10
325.8346219147
20
193.3758135223
30
0.0000000000
10
325.7012058930
20
193.5089109657
30
0.0000000000
10
325.5491309981
20
193.6458053491
30
0.0000000000
10
325.3863112476
20
193.7821582623
30
0.0000000000
10
325.2203235187
20
193.9065049350
30
0.0000000000
10
325.1068137648
20
193.9807994857
30
0.0000000000
10
325.0508949694
20
194.0142334280
30
0.0000000000
11
325.9549042284
21
193.2631326306
31
0.0000000000
11
325.8430411507
21
193.3703883551
31
0.0000000000
11
325.7049166862
21
193.5030113128
31
0.0000000000
11
325.5496582746
21
193.6436726313
31
0.0000000000
11
325.3839890570
21
193.7815369809
31
0.0000000000
11
325.2147970705
21
193.9077498006
31
0.0000000000
11
325.0508949694
21
194.0142334280
31
0.0000000000
0
SPLINE
5
407
100
AcDbEntity
8
0
100
AcDbSpline
62
9
6
CONTINUOUS
70
0
71
3
72
14
73
10
74
8
42
0.0000001000
43
0.0000001000
44
0.0000000001
12
-0.2033786325
22
0.2596497698
32
0.0000000000
13
-0.0957227301
23
-0.3156232407
33
0.0000000000
40
0.0000000000
40
0.0000000000
40
0.0000000000
40
0.0000000000
40
0.0709539803
40
0.1617084692
40
0.2963921702
40
0.4603927059
40
0.6399366165
40
0.8230055539
40
1.0000000000
40
1.0000000000
40
1.0000000000
40
1.0000000000
10
314.4428487402
20
176.7814816281
30
0.0000000000
10
314.4380385657
20
176.7876226896
30
0.0000000000
10
314.4166185329
20
176.7958069515
30
0.0000000000
10
314.3945977438
20
176.7650650418
30
0.0000000000
10
314.3747609322
20
176.7295067957
30
0.0000000000
10
314.3547175832
20
176.6799419537
30
0.0000000000
10
314.3357780538
20
176.6254985745
30
0.0000000000
10
314.3179606523
20
176.5688297619
30
0.0000000000
10
314.3065405913
20
176.5309448667
30
0.0000000000
10
314.3008931275
20
176.5123236798
30
0.0000000000
11
314.4428487402
21
176.7814816281
31
0.0000000000
11
314.4210521640
21
176.7900000204
31
0.0000000000
11
314.3987149415
21
176.7700749413
31
0.0000000000
11
314.3768023626
21
176.7314344032
31
0.0000000000
11
314.3558346179
21
176.6815731647
31
0.0000000000
11
314.3361666896
21
176.6257176862
31
0.0000000000
11
314.3178813025
21
176.5681733347
31
0.0000000000
11
314.3008931275
21
176.5123236798
31
0.0000000000
0
SPLINE
5
408
100
AcDbEntity
8
0
100
AcDbSpline
62
9
6
CONTINUOUS
70
0
71
3
72
10
73
6
74
4
42
0.0000001000
43
0.0000001000
44
0.0000000001
12
-0.2047047992
22
0.2610361095
32
0.0000000000
13
0.0008246053
23
0.3317276372
33
0.0000000000
40
0.0000000000
40
0.0000000000
40
0.0000000000
40
0.0000000000
40
0.3332343602
40
0.6665464627
40
1.0000000000
40
1.0000000000
40
1.0000000000
40
1.0000000000
10
314.4428487402
20
176.7814816281
30
0.0000000000
10
314.4201105159
20
176.8104770284
30
0.0000000000
10
314.3809643457
20
176.8737864841
30
0.0000000000
10
314.3447509284
20
176.9791436660
30
0.0000000000
10
314.3366873757
20
177.0531628149
30
0.0000000000
10
314.3367790316
20
177.0900347329
30
0.0000000000
11
314.4428487402
21
176.7814816281
31
0.0000000000
11
314.3847200976
21
176.8755076971
31
0.0000000000
11
314.3487749222
21
176.9800710150
31
0.0000000000
11
314.3367790316
21
177.0900347329
31
0.0000000000
0
SPLINE
5
409
100
AcDbEntity
8
0
100
AcDbSpline
62
9
6
CONTINUOUS
70
0
71
3
72
13
73
9
74
7
42
0.0000001000
43
0.0000001000
44
0.0000000001
12
-1.7499016509
22
0.0020243385
32
0.0000000000
13
-0.1792904384
23
1.7406937768
33
0.0000000000
40
0.0000000000
40
0.0000000000
40
0.0000000000
40
0.0000000000
40
0.1482243082
40
0.3052707876
40
0.4712309442
40
0.6445677753
40
0.8223267658
40
1.0000000000
40
1.0000000000
40
1.0000000000
40
1.0000000000
10
319.4047712786
20
151.2156850962
30
0.0000000000
10
319.3183119580
20
151.2157851149
30
0.0000000000
10
319.1387425009
20
151.2519231103
30
0.0000000000
10
318.9022584357
20
151.4010083484
30
0.0000000000
10
318.7083763382
20
151.6200380895
30
0.0000000000
10
318.5617754157
20
151.8858234306
30
0.0000000000
10
318.4626137037
20
152.1792990735
30
0.0000000000
10
318.4270281388
20
152.3844084525
30
0.0000000000
10
318.4164097681
20
152.4875000169
30
0.0000000000
11
319.4047712786
21
151.2156850962
31
0.0000000000
11
319.1501492575
21
151.2651284317
31
0.0000000000
11
318.9152242380
21
151.4077261581
31
0.0000000000
11
318.7199510202
21
151.6226883567
31
0.0000000000
11
318.5712443434
21
151.8870572844
31
0.0000000000
11
318.4703688076
21
152.1813072574
31
0.0000000000
11
318.4164097681
21
152.4875000169
31
0.0000000000
0
SPLINE
5
40A
100
AcDbEntity
8
0
100
AcDbSpline
62
9
6
CONTINUOUS
70
0
71
3
72
10
73
6
74
4
42
0.0000001000
43
0.0000001000
44
0.0000000001
12
-0.0590800017
22
0.0752365109
32
0.0000000000
13
-0.0168075243
23
-0.0941726410
33
0.0000000000
40
0.0000000000
40
0.0000000000
40
0.0000000000
40
0.0000000000
40
0.1390743946
40
0.4742689763
40
1.0000000000
40
1.0000000000
40
1.0000000000
40
1.0000000000
10
314.3367645900
20
177.0900340288
30
0.0000000000
10
314.3340257515
20
177.0935218529
30
0.0000000000
10
314.3129499359
20
177.0882465918
30
0.0000000000
10
314.3129226556
20
177.0515768116
30
0.0000000000
10
314.3038403817
20
177.0269738628
30
0.0000000000
10
314.3008949694
20
177.0104707031
30
0.0000000000
11
314.3367645900
21
177.0900340288
31
0.0000000000
11
314.3234764127
21
177.0893861688
31
0.0000000000
11
314.3115546566
21
177.0596198502
31
0.0000000000
11
314.3008949694
21
177.0104707031
31
0.0000000000
0
SPLINE
5
40B
100
AcDbEntity
8
0
100
AcDbSpline
62
9
6
CONTINUOUS
70
0
71
3
72
9
73
5
74
3
42
0.0000001000
43
0.0000001000
44
0.0000000001
12
-0.0234078103
22
0.2281857173
32
0.0000000000
13
-0.0234071163
23
0.2281857884
33
0.0000000000
40
0.0000000000
40
0.0000000000
40
0.0000000000
40
0.0000000000
40
0.4985184319
40
1.0000000000
40
1.0000000000
40
1.0000000000
40
1.0000000000
10
318.4164097681
20
152.4875000169
30
0.0000000000
10
318.4125200265
20
152.5254182789
30
0.0000000000
10
318.4047144384
20
152.6014798784
30
0.0000000000
10
318.3969084854
20
152.6775414405
30
0.0000000000
10
318.3929957396
20
152.7156850962
30
0.0000000000
11
318.4164097681
21
152.4875000169
31
0.0000000000
11
318.4047374767
21
152.6012544882
31
0.0000000000
11
318.3929957396
21
152.7156850962
31
0.0000000000
0
SPLINE
5
40C
100
AcDbEntity
8
0
100
AcDbSpline
62
9
6
CONTINUOUS
70
0
71
3
72
11
73
7
74
5
42
0.0000001000
43
0.0000001000
44
0.0000000001
12
0.0763258072
22
-0.4959136463
32
0.0000000000
13
0.4961759787
23
0.0746014182
33
0.0000000000
40
0.0000000000
40
0.0000000000
40
0.0000000000
40
0.0000000000
40
0.0928664183
40
0.3084218763
40
0.6255869779
40
1.0000000000
40
1.0000000000
40
1.0000000000
40
1.0000000000
10
317.9222290129
20
152.4875000169
30
0.0000000000
10
317.9245917143
20
152.4721487755
30
0.0000000000
10
317.9918227188
20
152.4586046164
30
0.0000000000
10
318.0833895215
20
152.4554366892
30
0.0000000000
10
318.2414237796
20
152.4640139473
30
0.0000000000
10
318.3544848522
20
152.4781893516
30
0.0000000000
10
318.4164097681
20
152.4874999324
30
0.0000000000
11
317.9222290129
21
152.4875000169
31
0.0000000000
11
317.9630759804
21
152.4650787776
31
0.0000000000
11
318.0709454884
21
152.4572176111
31
0.0000000000
11
318.2298897173
21
152.4650787431
31
0.0000000000
11
318.4164097681
21
152.4874999324
31
0.0000000000
0
SPLINE
5
40D
100
AcDbEntity
8
0
100
AcDbSpline
62
9
6
CONTINUOUS
70
0
71
3
72
13
73
9
74
7
42
0.0000001000
43
0.0000001000
44
0.0000000001
12
-0.3779484690
22
0.6574898695
32
0.0000000000
13
-0.2942583437
23
-0.6005551942
33
0.0000000000
40
0.0000000000
40
0.0000000000
40
0.0000000000
40
0.0000000000
40
0.0580678846
40
0.2167699817
40
0.4447280033
40
0.6974908973
40
0.9254254778
40
1.0000000000
40
1.0000000000
40
1.0000000000
40
1.0000000000
10
326.6178822674
20
193.9656850962
30
0.0000000000
10
326.6105667114
20
193.9784114448
30
0.0000000000
10
326.5882166937
20
193.8695121729
30
0.0000000000
10
326.5310560636
20
193.8240491702
30
0.0000000000
10
326.4505498408
20
193.6579865555
30
0.0000000000
10
326.3677976916
20
193.5143859667
30
0.0000000000
10
326.2777587756
20
193.3818311897
30
0.0000000000
10
326.2614415968
20
193.3275737788
30
0.0000000000
10
326.2541268717
20
193.3126450732
30
0.0000000000
11
326.6178822674
21
193.9656850962
31
0.0000000000
11
326.5981970773
21
193.9262923421
31
0.0000000000
11
326.5401284706
21
193.8208709665
31
0.0000000000
11
326.4546599292
21
193.6705975739
31
0.0000000000
11
326.3588670727
21
193.5045591296
31
0.0000000000
11
326.2714760219
21
193.3554161713
31
0.0000000000
11
326.2541268717
21
193.3126450732
31
0.0000000000
0
SPLINE
5
40E
100
AcDbEntity
8
0
100
AcDbSpline
62
9
6
CONTINUOUS
70
0
71
3
72
11
73
7
74
5
42
0.0000001000
43
0.0000001000
44
0.0000000001
12
-0.2333222815
22
0.4041260540
32
0.0000000000
13
-0.4372986616
23
-0.1628712226
33
0.0000000000
40
0.0000000000
40
0.0000000000
40
0.0000000000
40
0.0000000000
40
0.1888464301
40
0.4135949965
40
0.6865115055
40
1.0000000000
40
1.0000000000
40
1.0000000000
40
1.0000000000
10
326.6178822674
20
193.9656850962
30
0.0000000000
10
326.6031949075
20
193.9911243504
30
0.0000000000
10
326.5523739748
20
194.0365750176
30
0.0000000000
10
326.4462636253
20
194.0627724506
30
0.0000000000
10
326.3191081944
20
194.0559164676
30
0.0000000000
10
326.2305655988
20
194.0312528448
30
0.0000000000
10
326.1848695658
20
194.0142334267
30
0.0000000000
11
326.6178822674
21
193.9656850962
31
0.0000000000
11
326.5540530924
21
194.0264444921
31
0.0000000000
11
326.4534859754
21
194.0562032981
31
0.0000000000
11
326.3262006575
21
194.0519907409
31
0.0000000000
11
326.1848695658
21
194.0142334267
31
0.0000000000
0
SPLINE
5
40F
100
AcDbEntity
8
0
100
AcDbSpline
62
9
6
CONTINUOUS
70
0
71
3
72
10
73
6
74
4
42
0.0000001000
43
0.0000001000
44
0.0000000001
12
-0.2549196128
22
0.4415337616
32
0.0000000000
13
-0.5088505602
23
-0.0317360834
33
0.0000000000
40
0.0000000000
40
0.0000000000
40
0.0000000000
40
0.0000000000
40
0.3263635754
40
0.6587506979
40
1.0000000000
40
1.0000000000
40
1.0000000000
40
1.0000000000
10
325.7154462615
20
195.5287501091
30
0.0000000000
10
325.6877141027
20
195.5767836215
30
0.0000000000
10
325.6118095928
20
195.6635701840
30
0.0000000000
10
325.4569557698
20
195.7420606145
30
0.0000000000
10
325.3403151923
20
195.7545823019
30
0.0000000000
10
325.2824335595
20
195.7509723298
30
0.0000000000
11
325.7154462615
21
195.5287501091
31
0.0000000000
11
325.6060960747
21
195.6541660375
31
0.0000000000
11
325.4553273033
21
195.7315406230
31
0.0000000000
11
325.2824335595
21
195.7509723298
31
0.0000000000
0
SPLINE
5
410
100
AcDbEntity
8
0
100
AcDbSpline
62
7
6
CONTINUOUS
70
0
71
3
72
12
73
8
74
6
42
0.0000001000
43
0.0000001000
44
0.0000000001
12
0.4175537143
22
-0.5699803152
32
0.0000000000
13
0.6803519680
23
-0.1884648853
33
0.0000000000
40
0.0000000000
40
0.0000000000
40
0.0000000000
40
0.0000000000
40
0.1655660699
40
0.3548125526
40
0.5535729551
40
0.7666917650
40
1.0000000000
40
1.0000000000
40
1.0000000000
40
1.0000000000
10
116.8474304978
20
91.1046887916
30
0.0000000000
10
116.8704747403
20
91.0732323247
30
0.0000000000
10
116.9246610958
20
91.0096449351
30
0.0000000000
10
117.0205031993
20
90.9211611234
30
0.0000000000
10
117.1350436230
20
90.8379004956
30
0.0000000000
10
117.2682155809
20
90.7644566402
30
0.0000000000
10
117.3669490834
20
90.7275744563
30
0.0000000000
10
117.4198596557
20
90.7129176530
30
0.0000000000
11
116.8474304978
21
91.1046887916
31
0.0000000000
11
116.9226219171
21
91.0153854984
31
0.0000000000
11
117.0204629768
21
90.9246509822
31
0.0000000000
11
117.1338294242
21
90.8422559196
31
0.0000000000
11
117.2655495617
21
90.7699308963
31
0.0000000000
11
117.4198596557
21
90.7129176530
31
0.0000000000
0
SPLINE
5
411
100
AcDbEntity
8
0
100
AcDbSpline
62
7
6
CONTINUOUS
70
0
71
3
72
9
73
5
74
3
42
0.0000001000
43
0.0000001000
44
0.0000000001
12
0.2268354487
22
-0.0628358833
32
0.0000000000
13
0.2359475287
23
0.0000565825
33
0.0000000000
40
0.0000000000
40
0.0000000000
40
0.0000000000
40
0.0000000000
40
0.7783102737
40
1.0000000000
40
1.0000000000
40
1.0000000000
40
1.0000000000
10
117.4198596557
20
90.7129176530
30
0.0000000000
10
117.4787091091
20
90.6966157152
30
0.0000000000
10
117.5564050710
20
90.6830109469
30
0.0000000000
10
117.6350517204
20
90.6805199771
30
0.0000000000
10
117.6524874348
20
90.6805241584
30
0.0000000000
11
117.4198596557
21
90.7129176530
31
0.0000000000
11
117.6002281349
21
90.6821706244
31
0.0000000000
11
117.6524874348
21
90.6805241584
31
0.0000000000
0
SPLINE
5
412
100
AcDbEntity
8
0
100
AcDbSpline
62
7
6
CONTINUOUS
70
0
71
3
72
9
73
5
74
3
42
0.0000001000
43
0.0000001000
44
0.0000000001
12
-0.1865768982
22
0.2548403977
32
0.0000000000
13
-0.0000503273
23
0.3145450403
33
0.0000000000
40
0.0000000000
40
0.0000000000
40
0.0000000000
40
0.0000000000
40
0.4550569417
40
1.0000000000
40
1.0000000000
40
1.0000000000
40
1.0000000000
10
116.8472313285
20
91.1046825260
30
0.0000000000
10
116.8189302909
20
91.1433381567
30
0.0000000000
10
116.7689245473
20
91.2372564044
30
0.0000000000
10
116.7506142519
20
91.3429879772
30
0.0000000000
10
116.7506051100
20
91.4001243559
30
0.0000000000
11
116.8472313285
21
91.1046825260
31
0.0000000000
11
116.7799827620
21
91.2312607236
31
0.0000000000
11
116.7506051100
21
91.4001243559
31
0.0000000000
0
SPLINE
5
413
100
AcDbEntity
8
0
100
AcDbSpline
62
7
6
CONTINUOUS
70
0
71
3
72
8
73
4
74
2
42
0.0000001000
43
0.0000001000
44
0.0000000001
12
-0.0506869422
22
0.0000136678
32
0.0000000000
13
-0.0505659445
23
-0.0030276430
33
0.0000000000
40
0.0000000000
40
0.0000000000
40
0.0000000000
40
0.0000000000
40
1.0000000000
40
1.0000000000
40
1.0000000000
40
1.0000000000
10
117.6524874344
20
80.3876737161
30
0.0000000000
10
117.6355917870
20
80.3876782720
30
0.0000000000
10
117.6186970056
20
80.3871742593
30
0.0000000000
10
117.6018416908
20
80.3861650450
30
0.0000000000
11
117.6524874344
21
80.3876737161
31
0.0000000000
11
117.6018416908
21
80.3861650450
31
0.0000000000
0
SPLINE
5
414
100
AcDbEntity
8
0
100
AcDbSpline
62
7
6
CONTINUOUS
70
0
71
3
72
8
73
4
74
2
42
0.0000001000
43
0.0000001000
44
0.0000000001
12
-0.1829476480
22
-0.0109540160
32
0.0000000000
13
-0.1765927950
23
-0.0480376019
33
0.0000000000
40
0.0000000000
40
0.0000000000
40
0.0000000000
40
0.0000000000
40
1.0000000000
40
1.0000000000
40
1.0000000000
40
1.0000000000
10
117.6018416908
20
80.3861650450
30
0.0000000000
10
117.5408591415
20
80.3825137063
30
0.0000000000
10
117.4803932065
20
80.3722493124
30
0.0000000000
10
117.4215289415
20
80.3562367784
30
0.0000000000
11
117.6018416908
21
80.3861650450
31
0.0000000000
11
117.4215289415
21
80.3562367784
31
0.0000000000
0
SPLINE
5
415
100
AcDbEntity
8
0
100
AcDbSpline
62
7
6
CONTINUOUS
70
0
71
3
72
12
73
8
74
6
42
0.0000001000
43
0.0000001000
44
0.0000000001
12
-0.6833596003
22
-0.1858906897
32
0.0000000000
13
-0.4188200185
23
-0.5716262366
33
0.0000000000
40
0.0000000000
40
0.0000000000
40
0.0000000000
40
0.0000000000
40
0.2320740518
40
0.4448594627
40
0.6438670432
40
0.8327403583
40
1.0000000000
40
1.0000000000
40
1.0000000000
40
1.0000000000
10
117.4215289415
20
80.3562367784
30
0.0000000000
10
117.3686655978
20
80.3418566433
30
0.0000000000
10
117.2698087422
20
80.3054050933
30
0.0000000000
10
117.1363260331
20
80.2321571033
30
0.0000000000
10
117.0214973690
20
80.1487064332
30
0.0000000000
10
116.9251691088
20
80.0596096907
30
0.0000000000
10
116.8706697601
20
79.9955226280
30
0.0000000000
10
116.8473191981
20
79.9636526281
30
0.0000000000
11
117.4215289415
21
80.3562367784
31
0.0000000000
11
117.2673270959
21
80.2999718211
31
0.0000000000
11
117.1352449068
21
80.2278224671
31
0.0000000000
11
117.0213619695
21
80.1450967309
31
0.0000000000
11
116.9234710948
21
80.0541916959
31
0.0000000000
11
116.8473191981
21
79.9636526281
31
0.0000000000
0
SPLINE
5
416
100
AcDbEntity
8
0
100
AcDbSpline
62
7
6
CONTINUOUS
70
0
71
3
72
8
73
4
74
2
42
0.0000001000
43
0.0000001000
44
0.0000000001
12
0.0000000000
22
0.0937252259
32
0.0000000000
13
0.0176703600
23
0.0927071345
33
0.0000000000
40
0.0000000000
40
0.0000000000
40
0.0000000000
40
0.0000000000
40
1.0000000000
40
1.0000000000
40
1.0000000000
40
1.0000000000
10
116.7506047693
20
79.6680735483
30
0.0000000000
10
116.7506047693
20
79.6993152902
30
0.0000000000
10
116.7536029910
20
79.7307142020
30
0.0000000000
10
116.7594931110
20
79.7616165801
30
0.0000000000
11
116.7506047693
21
79.6680735483
31
0.0000000000
11
116.7594931110
21
79.7616165801
31
0.0000000000
0
SPLINE
5
417
100
AcDbEntity
8
0
100
AcDbSpline
62
7
6
CONTINUOUS
70
0
71
3
72
9
73
5
74
3
42
0.0000001000
43
0.0000001000
44
0.0000000001
12
0.0415091302
22
0.2177766903
32
0.0000000000
13
0.1306305284
23
0.1786434971
33
0.0000000000
40
0.0000000000
40
0.0000000000
40
0.0000000000
40
0.0000000000
40
0.4160903731
40
1.0000000000
40
1.0000000000
40
1.0000000000
40
1.0000000000
10
116.7594931110
20
79.7616165801
30
0.0000000000
10
116.7652502941
20
79.7918215083
30
0.0000000000
10
116.7857266567
20
79.8632736652
30
0.0000000000
10
116.8215875866
20
79.9284600131
30
0.0000000000
10
116.8470130609
20
79.9632305657
30
0.0000000000
11
116.7594931110
21
79.7616165801
31
0.0000000000
11
116.7849538774
21
79.8501978105
31
0.0000000000
11
116.8470130609
21
79.9632305657
31
0.0000000000
0
SPLINE
5
418
100
AcDbEntity
8
0
100
AcDbSpline
62
7
6
CONTINUOUS
70
0
71
3
72
12
73
8
74
6
42
0.0000001000
43
0.0000001000
44
0.0000000001
12
-0.4175537143
22
0.5699803152
32
0.0000000000
13
-0.6803519680
23
0.1884648853
33
0.0000000000
40
0.0000000000
40
0.0000000000
40
0.0000000000
40
0.0000000000
40
0.1655660699
40
0.3548125526
40
0.5535729551
40
0.7666917650
40
1.0000000000
40
1.0000000000
40
1.0000000000
40
1.0000000000
10
210.1733026753
20
79.9635091125
30
0.0000000000
10
210.1502584328
20
79.9949655794
30
0.0000000000
10
210.0960720773
20
80.0585529691
30
0.0000000000
10
210.0002299738
20
80.1470367808
30
0.0000000000
10
209.8856895500
20
80.2302974085
30
0.0000000000
10
209.7525175921
20
80.3037412639
30
0.0000000000
10
209.6537840896
20
80.3406234479
30
0.0000000000
10
209.6008735173
20
80.3552802511
30
0.0000000000
11
210.1733026753
21
79.9635091125
31
0.0000000000
11
210.0981112560
21
80.0528124058
31
0.0000000000
11
210.0002701963
21
80.1435469220
31
0.0000000000
11
209.8869037489
21
80.2259419846
31
0.0000000000
11
209.7551836114
21
80.2982670079
31
0.0000000000
11
209.6008735173
21
80.3552802511
31
0.0000000000
0
SPLINE
5
419
100
AcDbEntity
8
0
100
AcDbSpline
62
7
6
CONTINUOUS
70
0
71
3
72
9
73
5
74
3
42
0.0000001000
43
0.0000001000
44
0.0000000001
12
-0.2268354487
22
0.0628358833
32
0.0000000000
13
-0.2359475287
23
-0.0000565825
33
0.0000000000
40
0.0000000000
40
0.0000000000
40
0.0000000000
40
0.0000000000
40
0.7783102737
40
1.0000000000
40
1.0000000000
40
1.0000000000
40
1.0000000000
10
209.6008735173
20
80.3552802511
30
0.0000000000
10
209.5420240639
20
80.3715821890
30
0.0000000000
10
209.4643281021
20
80.3851869572
30
0.0000000000
10
209.3856814527
20
80.3876779270
30
0.0000000000
10
209.3682457383
20
80.3876737458
30
0.0000000000
11
209.6008735173
21
80.3552802511
31
0.0000000000
11
209.4205050382
21
80.3860272797
31
0.0000000000
11
209.3682457383
21
80.3876737458
31
0.0000000000
0
SPLINE
5
41A
100
AcDbEntity
8
0
100
AcDbSpline
62
7
6
CONTINUOUS
70
0
71
3
72
9
73
5
74
3
42
0.0000001000
43
0.0000001000
44
0.0000000001
12
0.1865768982
22
-0.2548403977
32
0.0000000000
13
0.0000503273
23
-0.3145450403
33
0.0000000000
40
0.0000000000
40
0.0000000000
40
0.0000000000
40
0.0000000000
40
0.4550569417
40
1.0000000000
40
1.0000000000
40
1.0000000000
40
1.0000000000
10
210.1735018446
20
79.9635153781
30
0.0000000000
10
210.2018028822
20
79.9248597474
30
0.0000000000
10
210.2518086258
20
79.8309414997
30
0.0000000000
10
210.2701189212
20
79.7252099270
30
0.0000000000
10
210.2701280630
20
79.6680735482
30
0.0000000000
11
210.1735018446
21
79.9635153781
31
0.0000000000
11
210.2407504111
21
79.8369371805
31
0.0000000000
11
210.2701280630
21
79.6680735482
31
0.0000000000
0
SPLINE
5
41B
100
AcDbEntity
8
0
100
AcDbSpline
62
7
6
CONTINUOUS
70
0
71
3
72
8
73
4
74
2
42
0.0000001000
43
0.0000001000
44
0.0000000001
12
0.0506869422
22
-0.0000136678
32
0.0000000000
13
0.0505659445
23
0.0030276430
33
0.0000000000
40
0.0000000000
40
0.0000000000
40
0.0000000000
40
0.0000000000
40
1.0000000000
40
1.0000000000
40
1.0000000000
40
1.0000000000
10
209.3682457387
20
90.6805241881
30
0.0000000000
10
209.3851413861
20
90.6805196321
30
0.0000000000
10
209.4020361675
20
90.6810236448
30
0.0000000000
10
209.4188914823
20
90.6820328591
30
0.0000000000
11
209.3682457387
21
90.6805241881
31
0.0000000000
11
209.4188914823
21
90.6820328591
31
0.0000000000
0
SPLINE
5
41C
100
AcDbEntity
8
0
100
AcDbSpline
62
7
6
CONTINUOUS
70
0
71
3
72
8
73
4
74
2
42
0.0000001000
43
0.0000001000
44
0.0000000001
12
0.1829476480
22
0.0109540160
32
0.0000000000
13
0.1765927950
23
0.0480376019
33
0.0000000000
40
0.0000000000
40
0.0000000000
40
0.0000000000
40
0.0000000000
40
1.0000000000
40
1.0000000000
40
1.0000000000
40
1.0000000000
10
209.4188914823
20
90.6820328591
30
0.0000000000
10
209.4798740316
20
90.6856841978
30
0.0000000000
10
209.5403399666
20
90.6959485917
30
0.0000000000
10
209.5992042316
20
90.7119611257
30
0.0000000000
11
209.4188914823
21
90.6820328591
31
0.0000000000
11
209.5992042316
21
90.7119611257
31
0.0000000000
0
SPLINE
5
41D
100
AcDbEntity
8
0
100
AcDbSpline
62
7
6
CONTINUOUS
70
0
71
3
72
12
73
8
74
6
42
0.0000001000
43
0.0000001000
44
0.0000000001
12
0.6833596003
22
0.1858906897
32
0.0000000000
13
0.4188200185
23
0.5716262366
33
0.0000000000
40
0.0000000000
40
0.0000000000
40
0.0000000000
40
0.0000000000
40
0.2320740518
40
0.4448594627
40
0.6438670432
40
0.8327403583
40
1.0000000000
40
1.0000000000
40
1.0000000000
40
1.0000000000
10
209.5992042316
20
90.7119611257
30
0.0000000000
10
209.6520675753
20
90.7263412609
30
0.0000000000
10
209.7509244309
20
90.7627928108
30
0.0000000000
10
209.8844071400
20
90.8360408008
30
0.0000000000
10
209.9992358041
20
90.9194914709
30
0.0000000000
10
210.0955640643
20
91.0085882134
30
0.0000000000
10
210.1500634129
20
91.0726752761
30
0.0000000000
10
210.1734139750
20
91.1045452760
30
0.0000000000
11
209.5992042316
21
90.7119611257
31
0.0000000000
11
209.7534060772
21
90.7682260830
31
0.0000000000
11
209.8854882663
21
90.8403754370
31
0.0000000000
11
209.9993712036
21
90.9231011732
31
0.0000000000
11
210.0972620782
21
91.0140062082
31
0.0000000000
11
210.1734139750
21
91.1045452760
31
0.0000000000
0
SPLINE
5
41E
100
AcDbEntity
8
0
100
AcDbSpline
62
7
6
CONTINUOUS
70
0
71
3
72
8
73
4
74
2
42
0.0000001000
43
0.0000001000
44
0.0000000001
12
0.0000000000
22
-0.0937252259
32
0.0000000000
13
-0.0176703600
23
-0.0927071345
33
0.0000000000
40
0.0000000000
40
0.0000000000
40
0.0000000000
40
0.0000000000
40
1.0000000000
40
1.0000000000
40
1.0000000000
40
1.0000000000
10
210.2701284038
20
91.4001243558
30
0.0000000000
10
210.2701284038
20
91.3688826139
30
0.0000000000
10
210.2671301821
20
91.3374837022
30
0.0000000000
10
210.2612400621
20
91.3065813240
30
0.0000000000
11
210.2701284038
21
91.4001243558
31
0.0000000000
11
210.2612400621
21
91.3065813240
31
0.0000000000
0
SPLINE
5
41F
100
AcDbEntity
8
0
100
AcDbSpline
62
7
6
CONTINUOUS
70
0
71
3
72
9
73
5
74
3
42
0.0000001000
43
0.0000001000
44
0.0000000001
12
-0.0415091302
22
-0.2177766903
32
0.0000000000
13
-0.1306305284
23
-0.1786434971
33
0.0000000000
40
0.0000000000
40
0.0000000000
40
0.0000000000
40
0.0000000000
40
0.4160903731
40
1.0000000000
40
1.0000000000
40
1.0000000000
40
1.0000000000
10
210.2612400621
20
91.3065813240
30
0.0000000000
10
210.2554828790
20
91.2763763959
30
0.0000000000
10
210.2350065164
20
91.2049242390
30
0.0000000000
10
210.1991455865
20
91.1397378910
30
0.0000000000
10
210.1737201122
20
91.1049673384
30
0.0000000000
11
210.2612400621
21
91.3065813240
31
0.0000000000
11
210.2357792957
21
91.2180000936
31
0.0000000000
11
210.1737201122
21
91.1049673384
31
0.0000000000
0
SPLINE
5
420
100
AcDbEntity
8
0
100
AcDbSpline
62
7
6
CONTINUOUS
70
0
71
3
72
9
73
5
74
3
42
0.0000001000
43
0.0000001000
44
0.0000000001
12
-0.0019420454
22
-0.0001304181
32
0.0000000000
13
-0.0004052638
23
-0.0268113597
33
0.0000000000
40
0.0000000000
40
0.0000000000
40
0.0000000000
40
0.0000000000
40
0.2547122945
40
1.0000000000
40
1.0000000000
40
1.0000000000
40
1.0000000000
10
121.7434265580
20
80.3876887911
30
0.0000000000
10
121.7432616704
20
80.3876777181
30
0.0000000000
10
121.7426098871
20
80.3731959390
30
0.0000000000
10
121.7426545508
20
80.3675545969
30
0.0000000000
10
121.7425538714
20
80.3608938713
30
0.0000000000
11
121.7434265580
21
80.3876887911
31
0.0000000000
11
121.7429748203
21
80.3808738967
31
0.0000000000
11
121.7425538714
21
80.3608938713
31
0.0000000000
0
SPLINE
5
421
100
AcDbEntity
8
0
100
AcDbSpline
62
9
6
CONTINUOUS
70
0
71
3
72
10
73
6
74
4
42
0.0000001000
43
0.0000001000
44
0.0000000001
12
-0.4352046372
22
0.0322749828
32
0.0000000000
13
-0.2532250567
23
0.3543544178
33
0.0000000000
40
0.0000000000
40
0.0000000000
40
0.0000000000
40
0.0000000000
40
0.4298731624
40
0.7967164284
40
1.0000000000
40
1.0000000000
40
1.0000000000
40
1.0000000000
10
117.2506047720
20
90.9671116540
30
0.0000000000
10
117.1882438408
20
90.9717363703
30
0.0000000000
10
117.0709217037
20
90.9760704289
30
0.0000000000
10
116.9340284797
20
91.0262784130
30
0.0000000000
10
116.8637546594
20
91.0799627773
30
0.0000000000
10
116.8465958281
20
91.1039742545
30
0.0000000000
11
117.2506047720
21
90.9671116540
31
0.0000000000
11
117.0640439053
21
90.9867968441
31
0.0000000000
11
116.9148562874
21
91.0448654508
31
0.0000000000
11
116.8465958281
21
91.1039742545
31
0.0000000000
0
SPLINE
5
422
100
AcDbEntity
8
0
100
AcDbSpline
62
9
6
CONTINUOUS
70
0
71
3
72
11
73
7
74
5
42
0.0000001000
43
0.0000001000
44
0.0000000001
12
-0.5819227399
22
0.1879584696
32
0.0000000000
13
-0.1633727364
23
0.5892977265
33
0.0000000000
40
0.0000000000
40
0.0000000000
40
0.0000000000
40
0.0000000000
40
0.2381322957
40
0.4915305250
40
0.7494672121
40
1.0000000000
40
1.0000000000
40
1.0000000000
40
1.0000000000
10
117.2506047720
20
90.9671116540
30
0.0000000000
10
117.2044132394
20
90.9820313146
30
0.0000000000
10
117.1135225797
20
91.0275502407
30
0.0000000000
10
116.9968257658
20
91.1281660756
30
0.0000000000
10
116.9042266625
20
91.2544185604
30
0.0000000000
10
116.8631635310
20
91.3509115548
30
0.0000000000
10
116.8495201220
20
91.4001243556
30
0.0000000000
11
117.2506047720
21
90.9671116540
31
0.0000000000
11
117.1197150396
21
91.0309408290
31
0.0000000000
11
117.0018225783
21
91.1315079460
31
0.0000000000
11
116.9086632015
21
91.2587932639
31
0.0000000000
11
116.8495201220
21
91.4001243556
31
0.0000000000
0
SPLINE
5
423
100
AcDbEntity
8
0
100
AcDbSpline
62
9
6
CONTINUOUS
70
0
71
3
72
11
73
7
74
5
42
0.0000001000
43
0.0000001000
44
0.0000000001
12
-2.2863837808
22
-0.4593965977
32
0.0000000000
13
-1.8427883044
23
-1.4292401100
33
0.0000000000
40
0.0000000000
40
0.0000000000
40
0.0000000000
40
0.0000000000
40
0.2645485255
40
0.5214915762
40
0.7676120245
40
1.0000000000
40
1.0000000000
40
1.0000000000
40
1.0000000000
10
119.3813466408
20
91.8695476602
30
0.0000000000
10
119.1797268215
20
91.8290367626
30
0.0000000000
10
118.7855313603
20
91.7315762706
30
0.0000000000
10
118.2220051936
20
91.5321834634
30
0.0000000000
10
117.7061882376
20
91.2827595230
30
0.0000000000
10
117.3938417156
20
91.0779931963
30
0.0000000000
10
117.2510944344
20
90.9672804577
30
0.0000000000
11
119.3813466408
21
91.8695476602
31
0.0000000000
11
118.7827041324
21
91.7203755909
31
0.0000000000
11
118.2183603202
21
91.5189538688
31
0.0000000000
11
117.7027105309
21
91.2668631212
31
0.0000000000
11
117.2510944344
21
90.9672804577
31
0.0000000000
0
SPLINE
5
424
100
AcDbEntity
8
0
100
AcDbSpline
62
9
6
CONTINUOUS
70
0
71
3
72
10
73
6
74
4
42
0.0000001000
43
0.0000001000
44
0.0000000001
12
-0.2922937443
22
0.3636932979
32
0.0000000000
13
-0.0823096329
23
0.4592750507
33
0.0000000000
40
0.0000000000
40
0.0000000000
40
0.0000000000
40
0.0000000000
40
0.2733138716
40
0.6189292207
40
1.0000000000
40
1.0000000000
40
1.0000000000
40
1.0000000000
10
119.3813466397
20
91.8695476599
30
0.0000000000
10
119.3547173280
20
91.9026818010
30
0.0000000000
10
119.3075033745
20
91.9878087828
30
0.0000000000
10
119.2536891721
20
92.1339096690
30
0.0000000000
10
119.2274663567
20
92.2442215948
30
0.0000000000
10
119.2170110914
20
92.3025603620
30
0.0000000000
11
119.3813466397
21
91.8695476599
31
0.0000000000
11
119.3157306313
21
91.9788978467
31
0.0000000000
11
119.2585113600
21
92.1296666182
31
0.0000000000
11
119.2170110914
21
92.3025603620
31
0.0000000000
0
SPLINE
5
425
100
AcDbEntity
8
0
100
AcDbSpline
62
9
6
CONTINUOUS
70
0
71
3
72
11
73
7
74
5
42
0.0000001000
43
0.0000001000
44
0.0000000001
12
-2.5105062335
22
-0.4539240222
32
0.0000000000
13
-2.0919496902
23
-1.4602859514
33
0.0000000000
40
0.0000000000
40
0.0000000000
40
0.0000000000
40
0.0000000000
40
0.2668129587
40
0.5250064799
40
0.7704995634
40
1.0000000000
40
1.0000000000
40
1.0000000000
40
1.0000000000
10
119.2170110912
20
92.3025603620
30
0.0000000000
10
118.9937325592
20
92.2621894249
30
0.0000000000
10
118.5573086567
20
92.1651630931
30
0.0000000000
10
117.9319277631
20
91.9663585095
30
0.0000000000
10
117.3590408365
20
91.7173598895
30
0.0000000000
10
117.0095545786
20
91.5118339736
30
0.0000000000
10
116.8495201229
20
91.4001218859
30
0.0000000000
11
119.2170110912
21
92.3025603620
31
0.0000000000
11
118.5528035451
21
92.1536430208
31
0.0000000000
11
117.9256284533
21
91.9522828181
31
0.0000000000
11
117.3523297662
21
91.7001185872
31
0.0000000000
11
116.8495201229
21
91.4001218859
31
0.0000000000
0
SPLINE
5
426
100
AcDbEntity
8
0
100
AcDbSpline
62
9
6
CONTINUOUS
70
0
71
3
72
11
73
7
74
5
42
0.0000001000
43
0.0000001000
44
0.0000000001
12
-1.6279905893
22
-0.4875908057
32
0.0000000000
13
-1.6723286607
23
-0.3023491414
33
0.0000000000
40
0.0000000000
40
0.0000000000
40
0.0000000000
40
0.0000000000
40
0.2240787097
40
0.4690041579
40
0.7325527112
40
1.0000000000
40
1.0000000000
40
1.0000000000
40
1.0000000000
10
120.8596332667
20
92.7352317109
30
0.0000000000
10
120.7380339231
20
92.6988121380
30
0.0000000000
10
120.4835331929
20
92.6225532390
30
0.0000000000
10
120.0849550500
20
92.5069788703
30
0.0000000000
10
119.6600795241
20
92.3942090884
30
0.0000000000
10
119.3660976800
20
92.3295145148
30
0.0000000000
10
119.2170110912
20
92.3025603620
30
0.0000000000
11
120.8596332667
21
92.7352317109
31
0.0000000000
11
120.4946897996
21
92.6264597633
31
0.0000000000
11
120.0946771389
21
92.5113838075
31
0.0000000000
11
119.6614207833
21
92.3978497174
31
0.0000000000
11
119.2170110912
21
92.3025603620
31
0.0000000000
0
SPLINE
5
427
100
AcDbEntity
8
0
100
AcDbSpline
62
9
6
CONTINUOUS
70
0
71
3
72
11
73
7
74
5
42
0.0000001000
43
0.0000001000
44
0.0000000001
12
-1.4291578938
22
-0.9507741338
32
0.0000000000
13
-1.5926556368
23
-0.6402435174
33
0.0000000000
40
0.0000000000
40
0.0000000000
40
0.0000000000
40
0.0000000000
40
0.2304693414
40
0.4791561209
40
0.7416891356
40
1.0000000000
40
1.0000000000
40
1.0000000000
40
1.0000000000
10
120.8604347628
20
92.7355953049
30
0.0000000000
10
120.7506424033
20
92.6625538754
30
0.0000000000
10
120.5226180764
20
92.5103476648
30
0.0000000000
10
120.1657909213
20
92.2805047303
30
0.0000000000
10
119.7866243325
20
92.0564875963
30
0.0000000000
10
119.5184800589
20
91.9246749456
30
0.0000000000
10
119.3813466408
20
91.8695476602
30
0.0000000000
11
120.8604347628
21
92.7355953049
31
0.0000000000
11
120.5307096053
21
92.5169951353
31
0.0000000000
11
120.1710461605
21
92.2870677702
31
0.0000000000
11
119.7816191906
21
92.0602915029
31
0.0000000000
11
119.3813466408
21
91.8695476602
31
0.0000000000
0
SPLINE
5
428
100
AcDbEntity
8
0
100
AcDbSpline
62
9
6
CONTINUOUS
70
0
71
3
72
12
73
8
74
6
42
0.0000001000
43
0.0000001000
44
0.0000000001
12
-0.5742370869
22
-0.2116759709
32
0.0000000000
13
-0.1393649164
23
-0.5959298354
33
0.0000000000
40
0.0000000000
40
0.0000000000
40
0.0000000000
40
0.0000000000
40
0.2277656580
40
0.4499590654
40
0.6461592470
40
0.8199526826
40
1.0000000000
40
1.0000000000
40
1.0000000000
40
1.0000000000
10
117.2506047715
20
80.1010862499
30
0.0000000000
10
117.2070076089
20
80.0850154110
30
0.0000000000
10
117.1233174020
20
80.0453583254
30
0.0000000000
10
117.0195880395
20
79.9621802380
30
0.0000000000
10
116.9423077474
20
79.8683544057
30
0.0000000000
10
116.8859520609
20
79.7711694459
30
0.0000000000
10
116.8578842151
20
79.7038387377
30
0.0000000000
10
116.8495201220
20
79.6680735483
30
0.0000000000
11
117.2506047715
21
80.1010862499
31
0.0000000000
11
117.1252166952
21
80.0401872316
31
0.0000000000
11
117.0189590735
21
79.9553281599
31
0.0000000000
11
116.9423012465
21
79.8629058291
31
0.0000000000
11
116.8885675445
21
79.7711136387
31
0.0000000000
11
116.8495201220
21
79.6680735483
31
0.0000000000
0
SPLINE
5
429
100
AcDbEntity
8
0
100
AcDbSpline
62
9
6
CONTINUOUS
70
0
71
3
72
11
73
7
74
5
42
0.0000001000
43
0.0000001000
44
0.0000000001
12
2.0919497146
22
-1.4602859150
32
0.0000000000
13
2.5105063087
23
-0.4539236017
33
0.0000000000
40
0.0000000000
40
0.0000000000
40
0.0000000000
40
0.0000000000
40
0.2295004361
40
0.4749935191
40
0.7331870412
40
1.0000000000
40
1.0000000000
40
1.0000000000
40
1.0000000000
10
116.8495201229
20
79.6680760150
30
0.0000000000
10
117.0095545802
20
79.5563639302
30
0.0000000000
10
117.3590408335
20
79.3508380078
30
0.0000000000
10
117.9319277717
20
79.1018394159
30
0.0000000000
10
118.5573086482
20
78.9030347862
30
0.0000000000
10
118.9937325525
20
78.8060084418
30
0.0000000000
10
119.2170110912
20
78.7656375421
30
0.0000000000
11
116.8495201229
21
79.6680760150
31
0.0000000000
11
117.3523297660
21
79.3680793161
31
0.0000000000
11
117.9256284560
21
79.1159150955
31
0.0000000000
11
118.5528035408
21
78.9145548634
31
0.0000000000
11
119.2170110912
21
78.7656375421
31
0.0000000000
0
SPLINE
5
42A
100
AcDbEntity
8
0
100
AcDbSpline
62
9
6
CONTINUOUS
70
0
71
3
72
11
73
7
74
5
42
0.0000001000
43
0.0000001000
44
0.0000000001
12
1.8428115972
22
-1.4292580909
32
0.0000000000
13
2.2864127003
23
-0.4594020432
33
0.0000000000
40
0.0000000000
40
0.0000000000
40
0.0000000000
40
0.0000000000
40
0.2323976608
40
0.4785150075
40
0.7354548068
40
1.0000000000
40
1.0000000000
40
1.0000000000
40
1.0000000000
10
117.2510699097
20
80.1009337055
30
0.0000000000
10
117.3938249445
20
79.9902149598
30
0.0000000000
10
117.7061795345
20
79.7854429200
30
0.0000000000
10
118.2220051608
20
79.5360143870
30
0.0000000000
10
118.7855313631
20
79.3366216323
30
0.0000000000
10
119.1797268109
20
79.2391611114
30
0.0000000000
10
119.3813466408
20
79.1986502440
30
0.0000000000
11
117.2510699097
21
80.1009337055
31
0.0000000000
11
117.7027105307
21
79.8013347820
31
0.0000000000
11
118.2183603338
21
79.5492440419
31
0.0000000000
11
118.7827041150
21
79.3478222990
31
0.0000000000
11
119.3813466408
21
79.1986502440
31
0.0000000000
0
SPLINE
5
42B
100
AcDbEntity
8
0
100
AcDbSpline
62
9
6
CONTINUOUS
70
0
71
3
72
11
73
7
74
5
42
0.0000001000
43
0.0000001000
44
0.0000000001
12
1.5926180246
22
-0.6403856298
32
0.0000000000
13
1.4291116700
23
-0.9508763126
33
0.0000000000
40
0.0000000000
40
0.0000000000
40
0.0000000000
40
0.0000000000
40
0.2490820014
40
0.5113434688
40
0.7647601827
40
1.0000000000
40
1.0000000000
40
1.0000000000
40
1.0000000000
10
119.3813466408
20
79.1986502440
30
0.0000000000
10
119.5135774691
20
79.1454807325
30
0.0000000000
10
119.7771268753
20
79.0167670089
30
0.0000000000
10
120.1543995447
20
78.7948504685
30
0.0000000000
10
120.5158230392
20
78.5623822689
30
0.0000000000
10
120.7483765986
20
78.4071636187
30
0.0000000000
10
120.8604379214
20
78.3326022953
30
0.0000000000
11
119.3813466408
21
79.1986502440
31
0.0000000000
11
119.7676545908
21
79.0154179655
31
0.0000000000
11
120.1571606045
21
78.7896962499
31
0.0000000000
11
120.5238614135
21
78.5556951757
31
0.0000000000
11
120.8604379214
21
78.3326022953
31
0.0000000000
0
SPLINE
5
42C
100
AcDbEntity
8
0
100
AcDbSpline
62
9
6
CONTINUOUS
70
0
71
3
72
10
73
6
74
4
42
0.0000001000
43
0.0000001000
44
0.0000000001
12
-0.2922725811
22
-0.3637326116
32
0.0000000000
13
-0.0823116450
23
-0.4592923552
33
0.0000000000
40
0.0000000000
40
0.0000000000
40
0.0000000000
40
0.0000000000
40
0.2733187861
40
0.6189344245
40
1.0000000000
40
1.0000000000
40
1.0000000000
40
1.0000000000
10
119.3813466402
20
79.1986716539
30
0.0000000000
10
119.3547187779
20
79.1655333353
30
0.0000000000
10
119.3075070423
20
79.0804005675
30
0.0000000000
10
119.2536939821
20
78.9342930838
30
0.0000000000
10
119.2274711028
20
78.8239777111
30
0.0000000000
10
119.2170157246
20
78.7656375426
30
0.0000000000
11
119.3813466402
21
79.1986716539
31
0.0000000000
11
119.3157333434
21
79.0893116237
31
0.0000000000
11
119.2585156161
21
78.9385356941
31
0.0000000000
11
119.2170157246
21
78.7656375426
31
0.0000000000
0
SPLINE
5
42D
100
AcDbEntity
8
0
100
AcDbSpline
62
9
6
CONTINUOUS
70
0
71
3
72
11
73
7
74
5
42
0.0000001000
43
0.0000001000
44
0.0000000001
12
1.6734961457
22
-0.3026328994
32
0.0000000000
13
1.6291327857
23
-0.4879573632
33
0.0000000000
40
0.0000000000
40
0.0000000000
40
0.0000000000
40
0.0000000000
40
0.2579602628
40
0.5212348307
40
0.7707103765
40
1.0000000000
40
1.0000000000
40
1.0000000000
40
1.0000000000
10
119.2170110912
20
78.7656375421
30
0.0000000000
10
119.3609095931
20
78.7396151213
30
0.0000000000
10
119.6497617882
20
78.6764445693
30
0.0000000000
10
120.0722126972
20
78.5648185288
30
0.0000000000
10
120.4762835953
20
78.4478221880
30
0.0000000000
10
120.7362644394
20
78.3699207609
30
0.0000000000
10
120.8607788538
20
78.3326262409
30
0.0000000000
11
119.2170110912
21
78.7656375421
31
0.0000000000
11
119.6460460298
21
78.6740704715
31
0.0000000000
11
120.0792909398
21
78.5610851396
31
0.0000000000
11
120.4870784400
21
78.4439837112
31
0.0000000000
11
120.8607788538
21
78.3326262409
31
0.0000000000
0
SPLINE
5
42E
100
AcDbEntity
8
0
100
AcDbSpline
62
7
6
CONTINUOUS
70
0
71
3
72
10
73
6
74
4
42
0.0000001000
43
0.0000001000
44
0.0000000001
12
-0.1737171215
22
0.3903320679
32
0.0000000000
13
-0.0007565986
23
0.4281760280
33
0.0000000000
40
0.0000000000
40
0.0000000000
40
0.0000000000
40
0.0000000000
40
0.4089723593
40
0.8129000995
40
1.0000000000
40
1.0000000000
40
1.0000000000
40
1.0000000000
10
116.8495201229
20
78.5340989521
30
0.0000000000
10
116.8258382892
20
78.5873106276
30
0.0000000000
10
116.7849242461
20
78.6960261418
30
0.0000000000
10
116.7554666002
20
78.8360834225
30
0.0000000000
10
116.7506469667
20
78.9204482383
30
0.0000000000
10
116.7505997802
20
78.9471521357
30
0.0000000000
11
116.8495201229
21
78.5340989521
31
0.0000000000
11
116.7889651378
21
78.6980010532
31
0.0000000000
11
116.7549602099
21
78.8671930397
31
0.0000000000
11
116.7505997802
21
78.9471521357
31
0.0000000000
0
SPLINE
5
42F
100
AcDbEntity
8
0
100
AcDbSpline
62
9
6
CONTINUOUS
70
0
71
3
72
10
73
6
74
4
42
0.0000001000
43
0.0000001000
44
0.0000000001
12
0.4352046372
22
-0.0322749828
32
0.0000000000
13
0.2532250567
23
-0.3543544178
33
0.0000000000
40
0.0000000000
40
0.0000000000
40
0.0000000000
40
0.0000000000
40
0.4298731624
40
0.7967164284
40
1.0000000000
40
1.0000000000
40
1.0000000000
40
1.0000000000
10
209.7701284010
20
80.1010862501
30
0.0000000000
10
209.8324893323
20
80.0964615338
30
0.0000000000
10
209.9498114694
20
80.0921274752
30
0.0000000000
10
210.0867046934
20
80.0419194911
30
0.0000000000
10
210.1569785137
20
79.9882351268
30
0.0000000000
10
210.1741373450
20
79.9642236496
30
0.0000000000
11
209.7701284010
21
80.1010862501
31
0.0000000000
11
209.9566892678
21
80.0814010600
31
0.0000000000
11
210.1058768857
21
80.0233324533
31
0.0000000000
11
210.1741373450
21
79.9642236496
31
0.0000000000
0
SPLINE
5
430
100
AcDbEntity
8
0
100
AcDbSpline
62
9
6
CONTINUOUS
70
0
71
3
72
11
73
7
74
5
42
0.0000001000
43
0.0000001000
44
0.0000000001
12
0.5819227399
22
-0.1879584696
32
0.0000000000
13
0.1633727364
23
-0.5892977265
33
0.0000000000
40
0.0000000000
40
0.0000000000
40
0.0000000000
40
0.0000000000
40
0.2381322957
40
0.4915305250
40
0.7494672121
40
1.0000000000
40
1.0000000000
40
1.0000000000
40
1.0000000000
10
209.7701284010
20
80.1010862501
30
0.0000000000
10
209.8163199337
20
80.0861665895
30
0.0000000000
10
209.9072105934
20
80.0406476634
30
0.0000000000
10
210.0239074073
20
79.9400318285
30
0.0000000000
10
210.1165065105
20
79.8137793437
30
0.0000000000
10
210.1575696421
20
79.7172863493
30
0.0000000000
10
210.1712130511
20
79.6680735485
30
0.0000000000
11
209.7701284010
21
80.1010862501
31
0.0000000000
11
209.9010181335
21
80.0372570751
31
0.0000000000
11
210.0189105948
21
79.9366899581
31
0.0000000000
11
210.1120699715
21
79.8094046402
31
0.0000000000
11
210.1712130511
21
79.6680735485
31
0.0000000000
0
SPLINE
5
431
100
AcDbEntity
8
0
100
AcDbSpline
62
9
6
CONTINUOUS
70
0
71
3
72
11
73
7
74
5
42
0.0000001000
43
0.0000001000
44
0.0000000001
12
2.2863837811
22
0.4593965965
32
0.0000000000
13
1.8427883045
23
1.4292401100
33
0.0000000000
40
0.0000000000
40
0.0000000000
40
0.0000000000
40
0.0000000000
40
0.2645485248
40
0.5214915753
40
0.7676120239
40
1.0000000000
40
1.0000000000
40
1.0000000000
40
1.0000000000
10
207.6393865323
20
79.1986502440
30
0.0000000000
10
207.8410063511
20
79.2391611413
30
0.0000000000
10
208.2352018116
20
79.3366216333
30
0.0000000000
10
208.7987279779
20
79.5360144401
30
0.0000000000
10
209.3145449345
20
79.7854383805
30
0.0000000000
10
209.6268914571
20
79.9902047075
30
0.0000000000
10
209.7696387386
20
80.1009174464
30
0.0000000000
11
207.6393865323
21
79.1986502440
31
0.0000000000
11
208.2380290392
21
79.3478223128
31
0.0000000000
11
208.8023728509
21
79.5492440344
31
0.0000000000
11
209.3180226410
21
79.8013347822
31
0.0000000000
11
209.7696387386
21
80.1009174464
31
0.0000000000
0
SPLINE
5
432
100
AcDbEntity
8
0
100
AcDbSpline
62
9
6
CONTINUOUS
70
0
71
3
72
10
73
6
74
4
42
0.0000001000
43
0.0000001000
44
0.0000000001
12
0.2922936850
22
-0.3636933409
32
0.0000000000
13
0.0823096844
23
-0.4592750378
33
0.0000000000
40
0.0000000000
40
0.0000000000
40
0.0000000000
40
0.0000000000
40
0.2733136846
40
0.6189290111
40
1.0000000000
40
1.0000000000
40
1.0000000000
40
1.0000000000
10
207.6393865322
20
79.1986502439
30
0.0000000000
10
207.6660158202
20
79.1655161216
30
0.0000000000
10
207.7132297567
20
79.0803891713
30
0.0000000000
10
207.7670439704
20
78.9342882902
30
0.0000000000
10
207.7932668038
20
78.8239763397
30
0.0000000000
10
207.8037220814
20
78.7656375421
30
0.0000000000
11
207.6393865322
21
79.1986502439
31
0.0000000000
11
207.7050024919
21
79.0893001309
31
0.0000000000
11
207.7622217715
21
78.9385313752
31
0.0000000000
11
207.8037220814
21
78.7656375421
31
0.0000000000
0
SPLINE
5
433
100
AcDbEntity
8
0
100
AcDbSpline
62
9
6
CONTINUOUS
70
0
71
3
72
11
73
7
74
5
42
0.0000001000
43
0.0000001000
44
0.0000000001
12
2.5105062336
22
0.4539240212
32
0.0000000000
13
2.0919496902
23
1.4602859514
33
0.0000000000
40
0.0000000000
40
0.0000000000
40
0.0000000000
40
0.0000000000
40
0.2668129585
40
0.5250064794
40
0.7704995632
40
1.0000000000
40
1.0000000000
40
1.0000000000
40
1.0000000000
10
207.8037220818
20
78.7656375421
30
0.0000000000
10
208.0270006137
20
78.8060084791
30
0.0000000000
10
208.4634245158
20
78.9030348110
30
0.0000000000
10
209.0888054093
20
79.1018393943
30
0.0000000000
10
209.6616923361
20
79.3508380144
30
0.0000000000
10
210.0111785942
20
79.5563639303
30
0.0000000000
10
210.1712130502
20
79.6680760183
30
0.0000000000
11
207.8037220818
21
78.7656375421
31
0.0000000000
11
208.4679296274
21
78.9145548831
31
0.0000000000
11
209.0951047187
21
79.1159150856
31
0.0000000000
11
209.6684034063
21
79.3680793166
31
0.0000000000
11
210.1712130502
21
79.6680760183
31
0.0000000000
0
SPLINE
5
434
100
AcDbEntity
8
0
100
AcDbSpline
62
9
6
CONTINUOUS
70
0
71
3
72
11
73
7
74
5
42
0.0000001000
43
0.0000001000
44
0.0000000001
12
1.6279864598
22
0.4876222911
32
0.0000000000
13
1.6723210370
23
0.3024198428
33
0.0000000000
40
0.0000000000
40
0.0000000000
40
0.0000000000
40
0.0000000000
40
0.2289699571
40
0.4786293889
40
0.7419388395
40
1.0000000000
40
1.0000000000
40
1.0000000000
40
1.0000000000
10
206.1610992399
20
78.3329661996
30
0.0000000000
10
206.2853525698
20
78.3701831513
30
0.0000000000
10
206.5450771866
20
78.4480077311
30
0.0000000000
10
206.9488115622
20
78.5648988245
30
0.0000000000
10
207.3711432402
20
78.6764837545
30
0.0000000000
10
207.6598683793
20
78.7396232702
30
0.0000000000
10
207.8037220818
20
78.7656375421
30
0.0000000000
11
206.1610992399
21
78.3329661996
31
0.0000000000
11
206.5340165663
21
78.4440904144
31
0.0000000000
11
206.9418198068
21
78.5611897963
31
0.0000000000
11
207.3748199984
21
78.6741024485
31
0.0000000000
11
207.8037220818
21
78.7656375421
31
0.0000000000
0
SPLINE
5
435
100
AcDbEntity
8
0
100
AcDbSpline
62
9
6
CONTINUOUS
70
0
71
3
72
11
73
7
74
5
42
0.0000001000
43
0.0000001000
44
0.0000000001
12
1.4291208329
22
0.9508580561
32
0.0000000000
13
1.5926160126
23
0.6403839740
33
0.0000000000
40
0.0000000000
40
0.0000000000
40
0.0000000000
40
0.0000000000
40
0.2354646367
40
0.4888872932
40
0.7509953089
40
1.0000000000
40
1.0000000000
40
1.0000000000
40
1.0000000000
10
206.1602984103
20
78.3326023642
30
0.0000000000
10
206.2724675495
20
78.4072335131
30
0.0000000000
10
206.5051286216
20
78.5625281943
30
0.0000000000
10
206.8665944749
20
78.7950114562
30
0.0000000000
10
207.2437644903
20
79.0168473984
30
0.0000000000
10
207.5071969129
20
79.1454973727
30
0.0000000000
10
207.6393865323
20
79.1986502440
30
0.0000000000
11
206.1602984103
21
78.3326023642
31
0.0000000000
11
206.4971966902
21
78.5559072379
31
0.0000000000
11
206.8639110626
21
78.7899048494
31
0.0000000000
11
207.2531962807
21
79.0154809277
31
0.0000000000
11
207.6393865323
21
79.1986502440
31
0.0000000000
0
SPLINE
5
436
100
AcDbEntity
8
0
100
AcDbSpline
62
9
6
CONTINUOUS
70
0
71
3
72
12
73
8
74
6
42
0.0000001000
43
0.0000001000
44
0.0000000001
12
0.5742370869
22
0.2116759709
32
0.0000000000
13
0.1393649164
23
0.5959298354
33
0.0000000000
40
0.0000000000
40
0.0000000000
40
0.0000000000
40
0.0000000000
40
0.2277656580
40
0.4499590654
40
0.6461592470
40
0.8199526826
40
1.0000000000
40
1.0000000000
40
1.0000000000
40
1.0000000000
10
209.7701284016
20
90.9671116542
30
0.0000000000
10
209.8137255642
20
90.9831824932
30
0.0000000000
10
209.8974157711
20
91.0228395787
30
0.0000000000
10
210.0011451335
20
91.1060176662
30
0.0000000000
10
210.0784254257
20
91.1998434985
30
0.0000000000
10
210.1347811122
20
91.2970284582
30
0.0000000000
10
210.1628489580
20
91.3643591664
30
0.0000000000
10
210.1712130511
20
91.4001243558
30
0.0000000000
11
209.7701284016
21
90.9671116542
31
0.0000000000
11
209.8955164778
21
91.0280106725
31
0.0000000000
11
210.0017740995
21
91.1128697442
31
0.0000000000
11
210.0784319266
21
91.2052920750
31
0.0000000000
11
210.1321656286
21
91.2970842654
31
0.0000000000
11
210.1712130511
21
91.4001243558
31
0.0000000000
0
SPLINE
5
437
100
AcDbEntity
8
0
100
AcDbSpline
62
9
6
CONTINUOUS
70
0
71
3
72
11
73
7
74
5
42
0.0000001000
43
0.0000001000
44
0.0000000001
12
-2.0919497146
22
1.4602859151
32
0.0000000000
13
-2.5105063088
23
0.4539236009
33
0.0000000000
40
0.0000000000
40
0.0000000000
40
0.0000000000
40
0.0000000000
40
0.2295004363
40
0.4749935195
40
0.7331870415
40
1.0000000000
40
1.0000000000
40
1.0000000000
40
1.0000000000
10
210.1712130502
20
91.4001218892
30
0.0000000000
10
210.0111785927
20
91.5118339740
30
0.0000000000
10
209.6616923390
20
91.7173598966
30
0.0000000000
10
209.0888054006
20
91.9663584885
30
0.0000000000
10
208.4634245243
20
92.1651631179
30
0.0000000000
10
208.0270006204
20
92.2621894624
30
0.0000000000
10
207.8037220818
20
92.3025603620
30
0.0000000000
11
210.1712130502
21
91.4001218892
31
0.0000000000
11
209.6684034065
21
91.7001185883
31
0.0000000000
11
209.0951047161
21
91.9522828090
31
0.0000000000
11
208.4679296317
21
92.1536430409
31
0.0000000000
11
207.8037220818
21
92.3025603620
31
0.0000000000
0
SPLINE
5
438
100
AcDbEntity
8
0
100
AcDbSpline
62
9
6
CONTINUOUS
70
0
71
3
72
11
73
7
74
5
42
0.0000001000
43
0.0000001000
44
0.0000000001
12
-1.8428115973
22
1.4292580909
32
0.0000000000
13
-2.2864127004
23
0.4594020429
33
0.0000000000
40
0.0000000000
40
0.0000000000
40
0.0000000000
40
0.0000000000
40
0.2323976614
40
0.4785150084
40
0.7354548074
40
1.0000000000
40
1.0000000000
40
1.0000000000
40
1.0000000000
10
209.7696632634
20
90.9672641986
30
0.0000000000
10
209.6269082282
20
91.0779829446
30
0.0000000000
10
209.3145536376
20
91.2827549847
30
0.0000000000
10
208.7987280107
20
91.5321835178
30
0.0000000000
10
208.2352018088
20
91.7315762721
30
0.0000000000
10
207.8410063617
20
91.8290367929
30
0.0000000000
10
207.6393865323
20
91.8695476602
30
0.0000000000
11
209.7696632634
21
90.9672641986
31
0.0000000000
11
209.3180226412
21
91.2668631228
31
0.0000000000
11
208.8023728373
21
91.5189538630
31
0.0000000000
11
208.2380290566
21
91.7203756055
31
0.0000000000
11
207.6393865323
21
91.8695476602
31
0.0000000000
0
SPLINE
5
439
100
AcDbEntity
8
0
100
AcDbSpline
62
9
6
CONTINUOUS
70
0
71
3
72
11
73
7
74
5
42
0.0000001000
43
0.0000001000
44
0.0000000001
12
-1.5926580033
22
0.6402442859
32
0.0000000000
13
-1.4291504306
23
0.9507898337
33
0.0000000000
40
0.0000000000
40
0.0000000000
40
0.0000000000
40
0.0000000000
40
0.2583855157
40
0.5210725102
40
0.7697430701
40
1.0000000000
40
1.0000000000
40
1.0000000000
40
1.0000000000
10
207.6393865323
20
91.8695476602
30
0.0000000000
10
207.5022132792
20
91.9246909435
30
0.0000000000
10
207.2339532751
20
92.0565671460
30
0.0000000000
10
206.8546899337
20
92.2806608052
30
0.0000000000
10
206.4979036290
20
92.5104891435
30
0.0000000000
10
206.2699858486
20
92.6626200580
30
0.0000000000
10
206.1602952517
20
92.7355953740
30
0.0000000000
11
207.6393865323
21
91.8695476602
31
0.0000000000
11
207.2390004656
21
92.0603526530
31
0.0000000000
11
206.8493519049
21
92.2872749257
31
0.0000000000
11
206.4897166005
21
92.5171957654
31
0.0000000000
11
206.1602952517
21
92.7355953740
31
0.0000000000
0
SPLINE
5
43A
100
AcDbEntity
8
0
100
AcDbSpline
62
9
6
CONTINUOUS
70
0
71
3
72
10
73
6
74
4
42
0.0000001000
43
0.0000001000
44
0.0000000001
12
0.2922709449
22
0.3637359762
32
0.0000000000
13
0.0823117430
23
0.4592939609
33
0.0000000000
40
0.0000000000
40
0.0000000000
40
0.0000000000
40
0.0000000000
40
0.2733192004
40
0.6189348871
40
1.0000000000
40
1.0000000000
40
1.0000000000
40
1.0000000000
10
207.6393865342
20
91.8695243221
30
0.0000000000
10
207.6660142879
20
91.9026629975
30
0.0000000000
10
207.7132258567
20
91.9877962793
30
0.0000000000
10
207.7670388335
20
92.1339043614
30
0.0000000000
10
207.7932617132
20
92.2442200597
30
0.0000000000
10
207.8037170911
20
92.3025603614
30
0.0000000000
11
207.6393865342
21
91.8695243221
31
0.0000000000
11
207.7049996302
21
91.9788852076
31
0.0000000000
11
207.7622172446
21
92.1296617948
31
0.0000000000
11
207.8037170911
21
92.3025603614
31
0.0000000000
0
SPLINE
5
43B
100
AcDbEntity
8
0
100
AcDbSpline
62
9
6
CONTINUOUS
70
0
71
3
72
11
73
7
74
5
42
0.0000001000
43
0.0000001000
44
0.0000000001
12
-1.6735038069
22
0.3025613288
32
0.0000000000
13
-1.6291376121
23
0.4879231395
33
0.0000000000
40
0.0000000000
40
0.0000000000
40
0.0000000000
40
0.0000000000
40
0.2673367682
40
0.5308509748
40
0.7755860253
40
1.0000000000
40
1.0000000000
40
1.0000000000
40
1.0000000000
10
207.8037220818
20
92.3025603620
30
0.0000000000
10
207.6545923821
20
92.3295222847
30
0.0000000000
10
207.3604848414
20
92.3942478463
30
0.0000000000
10
206.9354967334
20
92.5070567166
30
0.0000000000
10
206.5365803457
20
92.6227364677
30
0.0000000000
10
206.2818222038
20
92.6990727923
30
0.0000000000
10
206.1599551215
20
92.7355717160
30
0.0000000000
11
207.8037220818
21
92.3025603620
31
0.0000000000
11
207.3591846293
21
92.3978807003
31
0.0000000000
11
206.9256824202
21
92.5114876988
31
0.0000000000
11
206.5257014943
21
92.6265606825
31
0.0000000000
11
206.1599551215
21
92.7355717160
31
0.0000000000
0
SPLINE
5
43C
100
AcDbEntity
8
0
100
AcDbSpline
62
7
6
CONTINUOUS
70
0
71
3
72
10
73
6
74
4
42
0.0000001000
43
0.0000001000
44
0.0000000001
12
0.1737171215
22
-0.3903320679
32
0.0000000000
13
0.0007565986
23
-0.4281760280
33
0.0000000000
40
0.0000000000
40
0.0000000000
40
0.0000000000
40
0.0000000000
40
0.4089723593
40
0.8129000995
40
1.0000000000
40
1.0000000000
40
1.0000000000
40
1.0000000000
10
210.1712130502
20
92.5340989521
30
0.0000000000
10
210.1948948838
20
92.4808872765
30
0.0000000000
10
210.2358089270
20
92.3721717623
30
0.0000000000
10
210.2652665729
20
92.2321144817
30
0.0000000000
10
210.2700862063
20
92.1477496658
30
0.0000000000
10
210.2701333929
20
92.1210457684
30
0.0000000000
11
210.1712130502
21
92.5340989521
31
0.0000000000
11
210.2317680352
21
92.3701968509
31
0.0000000000
11
210.2657729632
21
92.2010048644
31
0.0000000000
11
210.2701333929
21
92.1210457684
31
0.0000000000
0
SPLINE
5
43D
100
AcDbEntity
8
0
100
AcDbSpline
62
7
6
CONTINUOUS
70
0
71
3
72
9
73
5
74
3
42
0.0000001000
43
0.0000001000
44
0.0000000001
12
0.0019420454
22
0.0001304181
32
0.0000000000
13
0.0004052638
23
0.0268113597
33
0.0000000000
40
0.0000000000
40
0.0000000000
40
0.0000000000
40
0.0000000000
40
0.2547122945
40
1.0000000000
40
1.0000000000
40
1.0000000000
40
1.0000000000
10
205.2773066151
20
90.6805091130
30
0.0000000000
10
205.2774715027
20
90.6805201860
30
0.0000000000
10
205.2781232859
20
90.6950019651
30
0.0000000000
10
205.2780786223
20
90.7006433072
30
0.0000000000
10
205.2781793017
20
90.7073040328
30
0.0000000000
11
205.2773066151
21
90.6805091130
31
0.0000000000
11
205.2777583528
21
90.6873240074
31
0.0000000000
11
205.2781793017
21
90.7073040328
31
0.0000000000
0
SPLINE
5
43E
100
AcDbEntity
8
0
100
AcDbSpline
62
7
6
CONTINUOUS
70
0
71
3
72
10
73
6
74
4
42
0.0000001000
43
0.0000001000
44
0.0000000001
12
-0.0007565986
22
-0.4281760280
32
0.0000000000
13
-0.1737171215
23
-0.3903320679
33
0.0000000000
40
0.0000000000
40
0.0000000000
40
0.0000000000
40
0.0000000000
40
0.1870999005
40
0.5910276407
40
1.0000000000
40
1.0000000000
40
1.0000000000
40
1.0000000000
10
210.2701333929
20
78.9471521357
30
0.0000000000
10
210.2700862063
20
78.9204482383
30
0.0000000000
10
210.2652665729
20
78.8360834225
30
0.0000000000
10
210.2358089270
20
78.6960261418
30
0.0000000000
10
210.1948948838
20
78.5873106276
30
0.0000000000
10
210.1712130502
20
78.5340989521
30
0.0000000000
11
210.2701333929
21
78.9471521357
31
0.0000000000
11
210.2657729632
21
78.8671930397
31
0.0000000000
11
210.2317680352
21
78.6980010532
31
0.0000000000
11
210.1712130502
21
78.5340989521
31
0.0000000000
0
SPLINE
5
43F
100
AcDbEntity
8
0
100
AcDbSpline
62
9
6
CONTINUOUS
70
0
71
3
72
10
73
6
74
4
42
0.0000001000
43
0.0000001000
44
0.0000000001
12
-0.2542987907
22
-0.3534391430
32
0.0000000000
13
-0.4356533915
23
0.0078800656
33
0.0000000000
40
0.0000000000
40
0.0000000000
40
0.0000000000
40
0.0000000000
40
0.2018287896
40
0.5696066192
40
1.0000000000
40
1.0000000000
40
1.0000000000
40
1.0000000000
10
210.1737801939
20
91.1033693918
30
0.0000000000
10
210.1566719216
20
91.0795913270
30
0.0000000000
10
210.0863929221
20
91.0260295613
30
0.0000000000
10
209.9498250208
20
90.9781618333
30
0.0000000000
10
209.8326291803
20
90.9659811449
30
0.0000000000
10
209.7701284016
20
90.9671116542
30
0.0000000000
11
210.1737801939
21
91.1033693918
31
0.0000000000
11
210.1059249845
21
91.0449356894
31
0.0000000000
11
209.9566371718
21
90.9866847762
31
0.0000000000
11
209.7701284016
21
90.9671116542
31
0.0000000000
0
SPLINE
5
440
100
AcDbEntity
8
0
100
AcDbSpline
62
7
6
CONTINUOUS
70
0
71
3
72
12
73
8
74
6
42
0.0000001000
43
0.0000001000
44
0.0000000001
12
0.0218200776
22
1.0000000000
32
0.0000000000
13
0.0218200776
23
1.0000000000
33
0.0000000000
40
0.0000000000
40
0.0000000000
40
0.0000000000
40
0.0000000000
40
0.3089776046
40
0.5877340598
40
0.8089800211
40
0.9510437757
40
1.0000000000
40
1.0000000000
40
1.0000000000
40
1.0000000000
10
179.4885465089
20
102.2840989521
30
0.0000000000
10
179.4907938140
20
102.3870914869
30
0.0000000000
10
179.4950686150
20
102.5830028402
30
0.0000000000
10
179.5009526172
20
102.8526628472
30
0.0000000000
10
179.5056225951
20
103.0666849042
30
0.0000000000
10
179.5086211534
20
103.2041068843
30
0.0000000000
10
179.5100105103
20
103.2677802106
30
0.0000000000
10
179.5103665865
20
103.2840989521
30
0.0000000000
11
179.4885465089
21
102.2840989521
31
0.0000000000
11
179.4952884242
21
102.5930765566
31
0.0000000000
11
179.5013709117
21
102.8718330118
31
0.0000000000
11
179.5061985158
21
103.0930789732
31
0.0000000000
11
179.5092983579
21
103.2351427278
31
0.0000000000
11
179.5103665865
21
103.2840989521
31
0.0000000000
0
SPLINE
5
441
100
AcDbEntity
8
0
100
AcDbSpline
62
9
6
CONTINUOUS
70
0
71
3
72
12
73
8
74
6
42
0.0000001000
43
0.0000001000
44
0.0000000001
12
1.5516427153
22
-0.0000000105
32
0.0000000000
13
0.0000000072
23
-1.5516427153
33
0.0000000000
40
0.0000000000
40
0.0000000000
40
0.0000000000
40
0.0000000000
40
0.2015499777
40
0.4025102717
40
0.6025126217
40
0.8015533949
40
1.0000000000
40
1.0000000000
40
1.0000000000
40
1.0000000000
10
210.1603665865
20
96.2693609241
30
0.0000000000
10
210.2646111048
20
96.2693609234
30
0.0000000000
10
210.4742236678
20
96.2368469731
30
0.0000000000
10
210.7571934905
20
96.0951530074
30
0.0000000000
10
210.9823463463
20
95.8740420415
30
0.0000000000
10
211.1270652074
20
95.5953468740
30
0.0000000000
10
211.1603665861
20
95.3882729995
30
0.0000000000
10
211.1603665865
20
95.2856335898
30
0.0000000000
11
210.1603665865
21
96.2693609241
31
0.0000000000
11
210.4693722300
21
96.2212175079
31
0.0000000000
11
210.7481357038
21
96.0814972509
31
0.0000000000
11
210.9693708489
21
95.8638712452
31
0.0000000000
11
211.1114183638
21
95.5896363979
31
0.0000000000
11
211.1603665865
21
95.2856335898
31
0.0000000000
0
SPLINE
5
442
100
AcDbEntity
8
0
100
AcDbSpline
62
9
6
CONTINUOUS
70
0
71
3
72
12
73
8
74
6
42
0.0000001000
43
0.0000001000
44
0.0000000001
12
1.5516427265
22
0.0000000000
32
0.0000000000
13
0.0000000000
23
-1.5516427265
33
0.0000000000
40
0.0000000000
40
0.0000000000
40
0.0000000000
40
0.0000000000
40
0.2015575643
40
0.4025228957
40
0.6025262600
40
0.8015630079
40
1.0000000000
40
1.0000000000
40
1.0000000000
40
1.0000000000
10
210.1603665865
20
94.4498598290
30
0.0000000000
10
210.2646150294
20
94.4498598290
30
0.0000000000
10
210.4742342840
20
94.4173435952
30
0.0000000000
10
210.7572085001
20
94.2756418334
30
0.0000000000
10
210.9823575652
20
94.0545253880
30
0.0000000000
10
211.1270680335
20
93.7758335401
30
0.0000000000
10
211.1603665865
20
93.5687669300
30
0.0000000000
10
211.1603665865
20
93.4661324916
30
0.0000000000
11
210.1603665865
21
94.4498598290
31
0.0000000000
11
210.4693835809
21
94.4017127861
31
0.0000000000
11
210.7481518388
21
94.2619846255
31
0.0000000000
11
210.9693835809
21
94.0443529130
31
0.0000000000
11
211.1114231028
21
93.7701209569
31
0.0000000000
11
211.1603665865
21
93.4661324916
31
0.0000000000
0
SPLINE
5
443
100
AcDbEntity
8
0
100
AcDbSpline
62
9
6
CONTINUOUS
70
0
71
3
72
16
73
12
74
10
42
0.0000001000
43
0.0000001000
44
0.0000000001
12
4.1559334123
22
-0.0001328846
32
0.0000000000
13
0.0031656170
23
4.1559322087
33
0.0000000000
40
0.0000000000
40
0.0000000000
40
0.0000000000
40
0.0000000000
40
0.1159552194
40
0.2495487834
40
0.3924287072
40
0.5375513851
40
0.6762887999
40
0.7990174275
40
0.8959379917
40
0.9614224865
40
1.0000000000
40
1.0000000000
40
1.0000000000
40
1.0000000000
10
206.1721481392
20
93.7191961766
30
0.0000000000
10
206.3327821961
20
93.7191910404
30
0.0000000000
10
206.6784918312
20
93.7234767256
30
0.0000000000
10
207.2218470780
20
93.7426840257
30
0.0000000000
10
207.8047680369
20
93.7804092803
30
0.0000000000
10
208.3931715672
20
93.8390891862
30
0.0000000000
10
208.9507016272
20
93.9210819580
30
0.0000000000
10
209.4371575815
20
94.0218379788
30
0.0000000000
10
209.8143350453
20
94.1453892543
30
0.0000000000
10
210.0647074355
20
94.2649118429
30
0.0000000000
10
210.1603258793
20
94.3964179854
30
0.0000000000
10
210.1603665865
20
94.4498598290
30
0.0000000000
11
206.1721481392
21
93.7191961766
31
0.0000000000
11
206.6540167234
21
93.7248856185
31
0.0000000000
11
207.2088637519
21
93.7448463178
31
0.0000000000
11
207.8013964051
21
93.7836128109
31
0.0000000000
11
208.4014122572
21
93.8447269343
31
0.0000000000
11
208.9716310623
21
93.9301611104
31
0.0000000000
11
209.4698195537
21
94.0395287210
31
0.0000000000
11
209.8514613468
21
94.1683451991
31
0.0000000000
11
210.0847563525
21
94.3084830868
31
0.0000000000
11
210.1603665865
21
94.4498598290
31
0.0000000000
0
SPLINE
5
444
100
AcDbEntity
8
0
100
AcDbSpline
62
9
6
CONTINUOUS
70
0
71
3
72
11
73
7
74
5
42
0.0000001000
43
0.0000001000
44
0.0000000001
12
0.0000031306
22
0.9837070430
32
0.0000000000
13
-0.0164728355
23
0.9835691089
33
0.0000000000
40
0.0000000000
40
0.0000000000
40
0.0000000000
40
0.0000000000
40
0.3462026797
40
0.6510281261
40
0.8780064796
40
1.0000000000
40
1.0000000000
40
1.0000000000
40
1.0000000000
10
206.1602952517
20
92.7355953740
30
0.0000000000
10
206.1602956130
20
92.8491160455
30
0.0000000000
10
206.1603009531
20
93.0625891643
30
0.0000000000
10
206.1602886476
20
93.3504915315
30
0.0000000000
10
206.1603291952
20
93.5648686030
30
0.0000000000
10
206.1602801291
20
93.6793040486
30
0.0000000000
10
206.1596102694
20
93.7193004014
30
0.0000000000
11
206.1602952517
21
92.7355953740
31
0.0000000000
11
206.1602972021
21
93.0761573883
31
0.0000000000
11
206.1603008415
21
93.3760163268
31
0.0000000000
11
206.1603057931
21
93.5992965317
31
0.0000000000
11
206.1596102694
21
93.7193004014
31
0.0000000000
0
SPLINE
5
445
100
AcDbEntity
8
0
100
AcDbSpline
62
9
6
CONTINUOUS
70
0
71
3
72
17
73
13
74
11
42
0.0000001000
43
0.0000001000
44
0.0000000001
12
5.1448275882
22
0.0000107388
32
0.0000000000
13
0.0022369267
23
5.1448271019
33
0.0000000000
40
0.0000000000
40
0.0000000000
40
0.0000000000
40
0.0000000000
40
0.1073912793
40
0.2270546730
40
0.3552625779
40
0.4870891568
40
0.6164833245
40
0.7365224451
40
0.8396294840
40
0.9189669383
40
0.9710845601
40
1.0000000000
40
1.0000000000
40
1.0000000000
40
1.0000000000
10
206.1599551215
20
92.7355717160
30
0.0000000000
10
206.3441249936
20
92.7355721005
30
0.0000000000
10
206.7335175933
20
92.7387002262
30
0.0000000000
10
207.3426113155
20
92.7541516386
30
0.0000000000
10
207.9931481850
20
92.7837396642
30
0.0000000000
10
208.6594737593
20
92.8301120670
30
0.0000000000
10
209.3102101982
20
92.8944368706
30
0.0000000000
10
209.9093901063
20
92.9780582320
30
0.0000000000
10
210.4187144825
20
93.0747018217
30
0.0000000000
10
210.8070475194
20
93.1908291424
30
0.0000000000
10
211.0570036963
20
93.2951654812
30
0.0000000000
10
211.1603450260
20
93.4165441787
30
0.0000000000
10
211.1603665865
20
93.4661324916
30
0.0000000000
11
206.1599551215
21
92.7355717160
31
0.0000000000
11
206.7124466651
21
92.7400405295
31
0.0000000000
11
207.3278932441
21
92.7557691361
31
0.0000000000
11
207.9868049710
21
92.7860590281
31
0.0000000000
11
208.6633544027
21
92.8337040092
31
0.0000000000
11
209.3256942361
21
92.9006118526
31
0.0000000000
11
209.9371478133
21
92.9873891224
31
0.0000000000
11
210.4570922229
21
93.0925273388
31
0.0000000000
11
210.8474695546
21
93.2117516218
31
0.0000000000
11
211.0836701087
21
93.3386622540
31
0.0000000000
11
211.1603665865
21
93.4661324916
31
0.0000000000
0
SPLINE
5
446
100
AcDbEntity
8
0
100
AcDbSpline
62
7
6
CONTINUOUS
70
0
71
3
72
12
73
8
74
6
42
0.0000001000
43
0.0000001000
44
0.0000000001
12
-0.0218200776
22
1.0000000000
32
0.0000000000
13
-0.0218200776
23
1.0000000000
33
0.0000000000
40
0.0000000000
40
0.0000000000
40
0.0000000000
40
0.0000000000
40
0.3089776046
40
0.5877340598
40
0.8089800211
40
0.9510437757
40
1.0000000000
40
1.0000000000
40
1.0000000000
40
1.0000000000
10
147.5321866642
20
102.2840989521
30
0.0000000000
10
147.5299393591
20
102.3870914869
30
0.0000000000
10
147.5256645581
20
102.5830028402
30
0.0000000000
10
147.5197805558
20
102.8526628472
30
0.0000000000
10
147.5151105779
20
103.0666849042
30
0.0000000000
10
147.5121120197
20
103.2041068843
30
0.0000000000
10
147.5107226627
20
103.2677802106
30
0.0000000000
10
147.5103665865
20
103.2840989521
30
0.0000000000
11
147.5321866642
21
102.2840989521
31
0.0000000000
11
147.5254447488
21
102.5930765566
31
0.0000000000
11
147.5193622614
21
102.8718330118
31
0.0000000000
11
147.5145346573
21
103.0930789732
31
0.0000000000
11
147.5114348152
21
103.2351427278
31
0.0000000000
11
147.5103665865
21
103.2840989521
31
0.0000000000
0
SPLINE
5
447
100
AcDbEntity
8
0
100
AcDbSpline
62
7
6
CONTINUOUS
70
0
71
3
72
10
73
6
74
4
42
0.0000001000
43
0.0000001000
44
0.0000000001
12
0.0007565986
22
0.4281760280
32
0.0000000000
13
0.1737171215
23
0.3903320679
33
0.0000000000
40
0.0000000000
40
0.0000000000
40
0.0000000000
40
0.0000000000
40
0.1870999005
40
0.5910276407
40
1.0000000000
40
1.0000000000
40
1.0000000000
40
1.0000000000
10
116.7505997802
20
92.1210457684
30
0.0000000000
10
116.7506469667
20
92.1477496658
30
0.0000000000
10
116.7554666002
20
92.2321144817
30
0.0000000000
10
116.7849242461
20
92.3721717623
30
0.0000000000
10
116.8258382892
20
92.4808872765
30
0.0000000000
10
116.8495201229
20
92.5340989521
30
0.0000000000
11
116.7505997802
21
92.1210457684
31
0.0000000000
11
116.7549602099
21
92.2010048644
31
0.0000000000
11
116.7889651378
21
92.3701968509
31
0.0000000000
11
116.8495201229
21
92.5340989521
31
0.0000000000
0
SPLINE
5
448
100
AcDbEntity
8
0
100
AcDbSpline
62
9
6
CONTINUOUS
70
0
71
3
72
12
73
8
74
6
42
0.0000001000
43
0.0000001000
44
0.0000000001
12
-1.5516427264
22
0.0000000000
32
0.0000000000
13
-0.0000000000
23
-1.5516427264
33
0.0000000000
40
0.0000000000
40
0.0000000000
40
0.0000000000
40
0.0000000000
40
0.2015575643
40
0.4025228958
40
0.6025262601
40
0.8015630081
40
1.0000000000
40
1.0000000000
40
1.0000000000
40
1.0000000000
10
116.8603665865
20
96.2693609241
30
0.0000000000
10
116.7561181437
20
96.2693609241
30
0.0000000000
10
116.5464988890
20
96.2368446904
30
0.0000000000
10
116.2635246729
20
96.0951429285
30
0.0000000000
10
116.0383756078
20
95.8740264829
30
0.0000000000
10
115.8936651396
20
95.5953346351
30
0.0000000000
10
115.8603665865
20
95.3882680251
30
0.0000000000
10
115.8603665865
20
95.2856335867
30
0.0000000000
11
116.8603665865
21
96.2693609241
31
0.0000000000
11
116.5513495922
21
96.2212138812
31
0.0000000000
11
116.2725813342
21
96.0814857205
31
0.0000000000
11
116.0513495922
21
95.8638540079
31
0.0000000000
11
115.9093100702
21
95.5896220518
31
0.0000000000
11
115.8603665865
21
95.2856335867
31
0.0000000000
0
SPLINE
5
449
100
AcDbEntity
8
0
100
AcDbSpline
62
9
6
CONTINUOUS
70
0
71
3
72
11
73
7
74
5
42
0.0000001000
43
0.0000001000
44
0.0000000001
12
-0.2011403017
22
-0.9632427069
32
0.0000000000
13
0.0000027656
23
-0.9840192748
33
0.0000000000
40
0.0000000000
40
0.0000000000
40
0.0000000000
40
0.0000000000
40
0.1222450008
40
0.3491536356
40
0.6539029014
40
1.0000000000
40
1.0000000000
40
1.0000000000
40
1.0000000000
10
120.8691121976
20
93.7193004014
30
0.0000000000
10
120.8609160655
20
93.6800498662
30
0.0000000000
10
120.8599917232
20
93.5645264137
30
0.0000000000
10
120.8606294906
20
93.3507225103
30
0.0000000000
10
120.8603601900
20
93.0625205717
30
0.0000000000
10
120.8604344437
20
92.8491173769
30
0.0000000000
10
120.8604347628
20
92.7355953049
30
0.0000000000
11
120.8691121976
21
93.7193004014
31
0.0000000000
11
120.8604238600
21
93.5993231426
31
0.0000000000
11
120.8604294049
21
93.3760406724
31
0.0000000000
11
120.8604329350
21
93.0761615209
31
0.0000000000
11
120.8604347628
21
92.7355953049
31
0.0000000000
0
SPLINE
5
44A
100
AcDbEntity
8
0
100
AcDbSpline
62
9
6
CONTINUOUS
70
0
71
3
72
16
73
12
74
10
42
0.0000001000
43
0.0000001000
44
0.0000000001
12
0.0031585303
22
-4.1625517371
32
0.0000000000
13
4.1625526082
23
0.0016505231
33
0.0000000000
40
0.0000000000
40
0.0000000000
40
0.0000000000
40
0.0000000000
40
0.0386069713
40
0.1042039621
40
0.2012995439
40
0.3242138968
40
0.4630932860
40
0.6082850269
40
0.7511363991
40
0.8845974043
40
1.0000000000
40
1.0000000000
40
1.0000000000
40
1.0000000000
10
116.8603665865
20
94.4498598290
30
0.0000000000
10
116.8604072336
20
94.3962919905
30
0.0000000000
10
116.9564951854
20
94.2644772129
30
0.0000000000
10
117.2077412202
20
94.1448411236
30
0.0000000000
10
117.5862378156
20
94.0211223420
30
0.0000000000
10
118.0742009319
20
93.9203351419
30
0.0000000000
10
118.6332032473
20
93.8383903371
30
0.0000000000
10
119.2228202031
20
93.7798430084
30
0.0000000000
10
119.8065571947
20
93.7422974009
30
0.0000000000
10
120.3497953319
20
93.7233075080
30
0.0000000000
10
120.6951061320
20
93.7191338668
30
0.0000000000
10
120.8552292572
20
93.7191973584
30
0.0000000000
11
116.8603665865
21
94.4498598290
31
0.0000000000
11
116.9362703858
21
94.3082115039
31
0.0000000000
11
117.1704667846
21
94.1678232342
31
0.0000000000
11
117.5534964166
21
94.0388346625
31
0.0000000000
11
118.0532945985
21
93.9294056477
31
0.0000000000
11
118.6250469246
21
93.8440207914
31
0.0000000000
11
119.2263308348
21
93.7830395629
31
0.0000000000
11
119.8197043287
21
93.7444591232
31
0.0000000000
11
120.3748913783
21
93.7247014882
31
0.0000000000
11
120.8552292572
21
93.7191973584
31
0.0000000000
0
SPLINE
5
44B
100
AcDbEntity
8
0
100
AcDbSpline
62
9
6
CONTINUOUS
70
0
71
3
72
12
73
8
74
6
42
0.0000001000
43
0.0000001000
44
0.0000000001
12
-1.5516427211
22
-0.0000000228
32
0.0000000000
13
0.0000000000
23
-1.5516427211
33
0.0000000000
40
0.0000000000
40
0.0000000000
40
0.0000000000
40
0.0000000000
40
0.2015559662
40
0.4025206774
40
0.6025242598
40
0.8015618385
40
1.0000000000
40
1.0000000000
40
1.0000000000
40
1.0000000000
10
116.8603665865
20
94.4498598290
30
0.0000000000
10
116.7561189706
20
94.4498598275
30
0.0000000000
10
116.5465008985
20
94.4173440381
30
0.0000000000
10
116.2635272256
20
94.2756436059
30
0.0000000000
10
116.0383772532
20
94.0545277506
30
0.0000000000
10
115.8936655118
20
93.7758352047
30
0.0000000000
10
115.8603665865
20
93.5687675349
30
0.0000000000
10
115.8603665865
20
93.4661324919
30
0.0000000000
11
116.8603665865
21
94.4498598290
31
0.0000000000
11
116.5513519843
21
94.4017135470
31
0.0000000000
11
116.2725841717
21
94.2619866478
31
0.0000000000
11
116.0513514616
21
94.0443554385
31
0.0000000000
11
115.9093106475
21
93.7701227011
31
0.0000000000
11
115.8603665865
21
93.4661324919
31
0.0000000000
0
SPLINE
5
44C
100
AcDbEntity
8
0
100
AcDbSpline
62
7
6
CONTINUOUS
70
0
71
3
72
12
73
8
74
6
42
0.0000001000
43
0.0000001000
44
0.0000000001
12
0.0218200776
22
-1.0000000000
32
0.0000000000
13
0.0218200776
23
-1.0000000000
33
0.0000000000
40
0.0000000000
40
0.0000000000
40
0.0000000000
40
0.0000000000
40
0.3089776046
40
0.5877340598
40
0.8089800211
40
0.9510437757
40
1.0000000000
40
1.0000000000
40
1.0000000000
40
1.0000000000
10
179.4885465089
20
68.7840989521
30
0.0000000000
10
179.4907938140
20
68.6811064172
30
0.0000000000
10
179.4950686150
20
68.4851950639
30
0.0000000000
10
179.5009526172
20
68.2155350569
30
0.0000000000
10
179.5056225951
20
68.0015129999
30
0.0000000000
10
179.5086211534
20
67.8640910198
30
0.0000000000
10
179.5100105103
20
67.8004176935
30
0.0000000000
10
179.5103665865
20
67.7840989521
30
0.0000000000
11
179.4885465089
21
68.7840989521
31
0.0000000000
11
179.4952884242
21
68.4751213475
31
0.0000000000
11
179.5013709117
21
68.1963648923
31
0.0000000000
11
179.5061985158
21
67.9751189310
31
0.0000000000
11
179.5092983579
21
67.8330551764
31
0.0000000000
11
179.5103665865
21
67.7840989521
31
0.0000000000
0
SPLINE
5
44D
100
AcDbEntity
8
0
100
AcDbSpline
62
9
6
CONTINUOUS
70
0
71
3
72
16
73
12
74
10
42
0.0000001000
43
0.0000001000
44
0.0000000001
12
0.0022308047
22
-5.1422501773
32
0.0000000000
13
5.1422506612
23
0.0000108170
33
0.0000000000
40
0.0000000000
40
0.0000000000
40
0.0000000000
40
0.0000000000
40
0.0331500813
40
0.0960759477
40
0.1921277260
40
0.3150125944
40
0.4545366089
40
0.6007985345
40
0.7449688918
40
0.8798557809
40
1.0000000000
40
1.0000000000
40
1.0000000000
40
1.0000000000
10
115.8603665865
20
93.4661324916
30
0.0000000000
10
115.8603912370
20
93.4093104878
30
0.0000000000
10
115.9950811956
20
93.2722385774
30
0.0000000000
10
116.2961846375
20
93.1624051986
30
0.0000000000
10
116.7681275756
20
93.0366147524
30
0.0000000000
10
117.3733879098
20
92.9375288496
30
0.0000000000
10
118.0696907210
20
92.8552448111
30
0.0000000000
10
118.8043493389
20
92.7967514943
30
0.0000000000
10
119.5325137197
20
92.7589711448
30
0.0000000000
10
120.2165453631
20
92.7397048827
30
0.0000000000
10
120.6536960366
20
92.7352312777
30
0.0000000000
10
120.8596332667
20
92.7352317109
30
0.0000000000
11
115.8603665865
21
93.4661324916
31
0.0000000000
11
115.9552288284
21
93.3244997921
31
0.0000000000
11
116.2469388053
21
93.1844652255
31
0.0000000000
11
116.7237942358
21
93.0557478706
31
0.0000000000
11
117.3461746097
21
92.9464485522
31
0.0000000000
11
118.0585414835
21
92.8610495651
31
0.0000000000
11
118.8081706649
21
92.7999448072
31
0.0000000000
11
119.5485159764
21
92.7611680154
31
0.0000000000
11
120.2418502609
21
92.7411850457
31
0.0000000000
11
120.8596332667
21
92.7352317109
31
0.0000000000
0
SPLINE
5
44E
100
AcDbEntity
8
0
100
AcDbSpline
62
9
6
CONTINUOUS
70
0
71
3
72
10
73
6
74
4
42
0.0000001000
43
0.0000001000
44
0.0000000001
12
0.2542987907
22
0.3534391430
32
0.0000000000
13
0.4356533915
23
-0.0078800656
33
0.0000000000
40
0.0000000000
40
0.0000000000
40
0.0000000000
40
0.0000000000
40
0.2018287896
40
0.5696066192
40
1.0000000000
40
1.0000000000
40
1.0000000000
40
1.0000000000
10
116.8469529791
20
79.9648285123
30
0.0000000000
10
116.8640612515
20
79.9886065771
30
0.0000000000
10
116.9343402510
20
80.0421683428
30
0.0000000000
10
117.0709081523
20
80.0900360708
30
0.0000000000
10
117.1881039928
20
80.1022167593
30
0.0000000000
10
117.2506047715
20
80.1010862499
30
0.0000000000
11
116.8469529791
21
79.9648285123
31
0.0000000000
11
116.9148081886
21
80.0232622148
31
0.0000000000
11
117.0640960013
21
80.0815131279
31
0.0000000000
11
117.2506047715
21
80.1010862499
31
0.0000000000
0
SPLINE
5
44F
100
AcDbEntity
8
0
100
AcDbSpline
62
9
6
CONTINUOUS
70
0
71
3
72
16
73
12
74
10
42
0.0000001000
43
0.0000001000
44
0.0000000001
12
-0.0022308050
22
5.1422508438
32
0.0000000000
13
-5.1422513277
23
-0.0000108046
33
0.0000000000
40
0.0000000000
40
0.0000000000
40
0.0000000000
40
0.0000000000
40
0.0331500770
40
0.0960759352
40
0.1921277011
40
0.3150125536
40
0.4545365500
40
0.6007984567
40
0.7449687952
40
0.8798556668
40
1.0000000000
40
1.0000000000
40
1.0000000000
40
1.0000000000
10
211.1603665865
20
77.6020654126
30
0.0000000000
10
211.1603419361
20
77.6588874163
30
0.0000000000
10
211.0256519775
20
77.7959593267
30
0.0000000000
10
210.7245485356
20
77.9057927055
30
0.0000000000
10
210.2526055975
20
78.0315831517
30
0.0000000000
10
209.6473452632
20
78.1306690545
30
0.0000000000
10
208.9510424521
20
78.2129530930
30
0.0000000000
10
208.2163838342
20
78.2714464098
30
0.0000000000
10
207.4882194534
20
78.3092267596
30
0.0000000000
10
206.8041875878
20
78.3284930270
30
0.0000000000
10
206.3670366921
20
78.3329666323
30
0.0000000000
10
206.1610992399
20
78.3329661996
30
0.0000000000
11
211.1603665865
21
77.6020654126
31
0.0000000000
11
211.0655043447
21
77.7436981121
31
0.0000000000
11
210.7737943677
21
77.8837326787
31
0.0000000000
11
210.2969389373
21
78.0124500336
31
0.0000000000
11
209.6745585634
21
78.1217493519
31
0.0000000000
11
208.9621916895
21
78.2071483391
31
0.0000000000
11
208.2125625082
21
78.2682530970
31
0.0000000000
11
207.4722171967
21
78.3070298887
31
0.0000000000
11
206.7788829122
21
78.3270128584
31
0.0000000000
11
206.1610992399
21
78.3329661996
31
0.0000000000
0
SPLINE
5
450
100
AcDbEntity
8
0
100
AcDbSpline
62
9
6
CONTINUOUS
70
0
71
3
72
12
73
8
74
6
42
0.0000001000
43
0.0000001000
44
0.0000000001
12
1.5516427264
22
0.0000000000
32
0.0000000000
13
0.0000000000
23
1.5516427264
33
0.0000000000
40
0.0000000000
40
0.0000000000
40
0.0000000000
40
0.0000000000
40
0.2015575643
40
0.4025228958
40
0.6025262601
40
0.8015630081
40
1.0000000000
40
1.0000000000
40
1.0000000000
40
1.0000000000
10
210.1603665865
20
74.7988369800
30
0.0000000000
10
210.2646150294
20
74.7988369800
30
0.0000000000
10
210.4742342840
20
74.8313532137
30
0.0000000000
10
210.7572085002
20
74.9730549756
30
0.0000000000
10
210.9823575653
20
75.1941714212
30
0.0000000000
10
211.1270680334
20
75.4728632690
30
0.0000000000
10
211.1603665865
20
75.6799298790
30
0.0000000000
10
211.1603665865
20
75.7825643174
30
0.0000000000
11
210.1603665865
21
74.7988369800
31
0.0000000000
11
210.4693835809
21
74.8469840229
31
0.0000000000
11
210.7481518388
21
74.9867121836
31
0.0000000000
11
210.9693835809
21
75.2043438962
31
0.0000000000
11
211.1114231028
21
75.4785758523
31
0.0000000000
11
211.1603665865
21
75.7825643174
31
0.0000000000
0
SPLINE
5
451
100
AcDbEntity
8
0
100
AcDbSpline
62
9
6
CONTINUOUS
70
0
71
3
72
11
73
7
74
5
42
0.0000001000
43
0.0000001000
44
0.0000000001
12
0.0055976341
22
0.9836891658
32
0.0000000000
13
-0.0000030285
23
0.9837050922
33
0.0000000000
40
0.0000000000
40
0.0000000000
40
0.0000000000
40
0.0000000000
40
0.1219921008
40
0.3489708914
40
0.6537968253
40
1.0000000000
40
1.0000000000
40
1.0000000000
40
1.0000000000
10
206.1600732197
20
77.3488975028
30
0.0000000000
10
206.1603008420
20
77.3888982720
30
0.0000000000
10
206.1603160923
20
77.5033272028
30
0.0000000000
10
206.1602989440
20
77.7177077572
30
0.0000000000
10
206.1603013740
20
78.0056082675
30
0.0000000000
10
206.1602987598
20
78.2190817556
30
0.0000000000
10
206.1602984103
20
78.3326023642
30
0.0000000000
11
206.1600732197
21
77.3488975028
31
0.0000000000
11
206.1603085221
21
77.4689015228
31
0.0000000000
11
206.1603037949
21
77.6921817149
31
0.0000000000
11
206.1603002914
21
77.9920405383
31
0.0000000000
11
206.1602984103
21
78.3326023642
31
0.0000000000
0
SPLINE
5
452
100
AcDbEntity
8
0
100
AcDbSpline
62
9
6
CONTINUOUS
70
0
71
3
72
16
73
12
74
10
42
0.0000001000
43
0.0000001000
44
0.0000000001
12
-0.0031529617
22
4.1552131305
32
0.0000000000
13
-4.1552143264
23
-0.0000456049
33
0.0000000000
40
0.0000000000
40
0.0000000000
40
0.0000000000
40
0.0000000000
40
0.0385789256
40
0.1040622100
40
0.2009804730
40
0.3237082564
40
0.4624486475
40
0.6075790332
40
0.7504721185
40
0.8840841270
40
1.0000000000
40
1.0000000000
40
1.0000000000
40
1.0000000000
10
210.1603665865
20
76.6183380751
30
0.0000000000
10
210.1603260406
20
76.6717726279
30
0.0000000000
10
210.0647344640
20
76.8032609305
30
0.0000000000
10
209.8144127670
20
76.9227768944
30
0.0000000000
10
209.4373115349
20
77.0463184887
30
0.0000000000
10
208.9509428391
20
77.1470726664
30
0.0000000000
10
208.3934980236
20
77.2290682336
30
0.0000000000
10
207.8051648327
20
77.2877556405
30
0.0000000000
10
207.2222912642
20
77.3254917863
30
0.0000000000
10
206.6790411602
20
77.3447061453
30
0.0000000000
10
206.3334204449
20
77.3490028635
30
0.0000000000
10
206.1728686795
20
77.3490011014
30
0.0000000000
11
210.1603665865
21
76.6183380751
31
0.0000000000
11
210.0847733470
21
76.7596991015
31
0.0000000000
11
209.8515304308
21
76.8998224891
31
0.0000000000
11
209.4699689202
21
77.0286289911
31
0.0000000000
11
208.9718735891
21
77.1379930240
31
0.0000000000
11
208.4017435813
21
77.2234300313
31
0.0000000000
11
207.8018012124
21
77.2845518188
31
0.0000000000
11
207.2093174210
21
77.3233290827
31
0.0000000000
11
206.6544902520
21
77.3433015088
31
0.0000000000
11
206.1728686795
21
77.3490011014
31
0.0000000000
0
SPLINE
5
453
100
AcDbEntity
8
0
100
AcDbSpline
62
9
6
CONTINUOUS
70
0
71
3
72
12
73
8
74
6
42
0.0000001000
43
0.0000001000
44
0.0000000001
12
1.5516427211
22
0.0000000228
32
0.0000000000
13
0.0000000000
23
1.5516427211
33
0.0000000000
40
0.0000000000
40
0.0000000000
40
0.0000000000
40
0.0000000000
40
0.2015559662
40
0.4025206774
40
0.6025242598
40
0.8015618385
40
1.0000000000
40
1.0000000000
40
1.0000000000
40
1.0000000000
10
210.1603665865
20
76.6183380751
30
0.0000000000
10
210.2646142025
20
76.6183380767
30
0.0000000000
10
210.4742322746
20
76.6508538661
30
0.0000000000
10
210.7572059475
20
76.7925542982
30
0.0000000000
10
210.9823559199
20
77.0136701535
30
0.0000000000
10
211.1270676613
20
77.2923626994
30
0.0000000000
10
211.1603665865
20
77.4994303692
30
0.0000000000
10
211.1603665865
20
77.6020654122
30
0.0000000000
11
210.1603665865
21
76.6183380751
31
0.0000000000
11
210.4693811888
21
76.6664843571
31
0.0000000000
11
210.7481490014
21
76.8062112563
31
0.0000000000
11
210.9693817115
21
77.0238424656
31
0.0000000000
11
211.1114225256
21
77.2980752031
31
0.0000000000
11
211.1603665865
21
77.6020654122
31
0.0000000000
0
SPLINE
5
454
100
AcDbEntity
8
0
100
AcDbSpline
62
7
6
CONTINUOUS
70
0
71
3
72
12
73
8
74
6
42
0.0000001000
43
0.0000001000
44
0.0000000001
12
-0.0218200776
22
-1.0000000000
32
0.0000000000
13
-0.0218200776
23
-1.0000000000
33
0.0000000000
40
0.0000000000
40
0.0000000000
40
0.0000000000
40
0.0000000000
40
0.3089776046
40
0.5877340598
40
0.8089800211
40
0.9510437757
40
1.0000000000
40
1.0000000000
40
1.0000000000
40
1.0000000000
10
147.5321866642
20
68.7840989521
30
0.0000000000
10
147.5299393591
20
68.6811064172
30
0.0000000000
10
147.5256645581
20
68.4851950639
30
0.0000000000
10
147.5197805558
20
68.2155350569
30
0.0000000000
10
147.5151105779
20
68.0015129999
30
0.0000000000
10
147.5121120197
20
67.8640910198
30
0.0000000000
10
147.5107226627
20
67.8004176935
30
0.0000000000
10
147.5103665865
20
67.7840989521
30
0.0000000000
11
147.5321866642
21
68.7840989521
31
0.0000000000
11
147.5254447488
21
68.4751213475
31
0.0000000000
11
147.5193622614
21
68.1963648923
31
0.0000000000
11
147.5145346573
21
67.9751189310
31
0.0000000000
11
147.5114348152
21
67.8330551764
31
0.0000000000
11
147.5103665865
21
67.7840989521
31
0.0000000000
0
SPLINE
5
455
100
AcDbEntity
8
0
100
AcDbSpline
62
9
6
CONTINUOUS
70
0
71
3
72
12
73
8
74
6
42
0.0000001000
43
0.0000001000
44
0.0000000001
12
-1.5516427145
22
0.0000000072
32
0.0000000000
13
-0.0000000079
23
1.5516427145
33
0.0000000000
40
0.0000000000
40
0.0000000000
40
0.0000000000
40
0.0000000000
40
0.2015496081
40
0.4025096627
40
0.6025119692
40
0.8015529382
40
1.0000000000
40
1.0000000000
40
1.0000000000
40
1.0000000000
10
116.8603665865
20
74.7988369800
30
0.0000000000
10
116.7561222595
20
74.7988369805
30
0.0000000000
10
116.5465100193
20
74.8313508197
30
0.0000000000
10
116.2635404055
20
74.9730444099
30
0.0000000000
10
116.0383873636
20
75.1941551165
30
0.0000000000
10
115.8936681004
20
75.4728504457
30
0.0000000000
10
115.8603665871
20
75.6799246676
30
0.0000000000
10
115.8603665865
20
75.7825643135
30
0.0000000000
11
116.8603665865
21
74.7988369800
31
0.0000000000
11
116.5513614960
21
74.8469802191
31
0.0000000000
11
116.2725982477
21
74.9867000965
31
0.0000000000
11
116.0513629335
21
75.2043258337
31
0.0000000000
11
115.9093150345
21
75.4785608240
31
0.0000000000
11
115.8603665865
21
75.7825643135
31
0.0000000000
0
SPLINE
5
456
100
AcDbEntity
8
0
100
AcDbSpline
62
9
6
CONTINUOUS
70
0
71
3
72
12
73
8
74
6
42
0.0000001000
43
0.0000001000
44
0.0000000001
12
-0.0260337383
22
-0.2469721097
32
0.0000000000
13
-0.2124043143
23
-0.1291053742
33
0.0000000000
40
0.0000000000
40
0.0000000000
40
0.0000000000
40
0.0000000000
40
0.1784988168
40
0.3816019256
40
0.6112149391
40
0.8650083450
40
1.0000000000
40
1.0000000000
40
1.0000000000
40
1.0000000000
10
209.7696632634
20
90.9672641986
30
0.0000000000
10
209.7681142662
20
90.9525694555
30
0.0000000000
10
209.7606210231
20
90.9213887168
30
0.0000000000
10
209.7351309992
20
90.8771139330
30
0.0000000000
10
209.6979551764
20
90.8338047791
30
0.0000000000
10
209.6584398709
20
90.8009077107
30
0.0000000000
10
209.6315325308
20
90.7831576747
30
0.0000000000
10
209.6219749275
20
90.7773482920
30
0.0000000000
11
209.7696632634
21
90.9672641986
31
0.0000000000
11
209.7592616288
21
90.9241733666
31
0.0000000000
11
209.7350498881
21
90.8799257021
31
0.0000000000
11
209.6982014896
21
90.8364087320
31
0.0000000000
11
209.6499688935
21
90.7958373059
31
0.0000000000
11
209.6219749275
21
90.7773482920
31
0.0000000000
0
SPLINE
5
457
100
AcDbEntity
8
0
100
AcDbSpline
62
9
6
CONTINUOUS
70
0
71
3
72
11
73
7
74
5
42
0.0000001000
43
0.0000001000
44
0.0000000001
12
-0.2276980574
22
-0.1384013456
32
0.0000000000
13
-0.2662216983
23
-0.0000346004
33
0.0000000000
40
0.0000000000
40
0.0000000000
40
0.0000000000
40
0.0000000000
40
0.1305031494
40
0.4041623705
40
0.6938050777
40
1.0000000000
40
1.0000000000
40
1.0000000000
40
1.0000000000
10
209.6219749275
20
90.7773482920
30
0.0000000000
10
209.6120698229
20
90.7713276881
30
0.0000000000
10
209.5806790320
20
90.7538585781
30
0.0000000000
10
209.5236106443
20
90.7301277857
30
0.0000000000
10
209.4483995679
20
90.7116106055
30
0.0000000000
10
209.3954176466
20
90.7073075643
30
0.0000000000
10
209.3682457358
20
90.7073040328
30
0.0000000000
11
209.6219749275
21
90.7773482920
31
0.0000000000
11
209.5916045599
21
90.7604262733
31
0.0000000000
11
209.5243609489
21
90.7323904839
31
0.0000000000
11
209.4494905208
21
90.7139447872
31
0.0000000000
11
209.3682457358
21
90.7073040328
31
0.0000000000
0
SPLINE
5
458
100
AcDbEntity
8
0
100
AcDbSpline
62
9
6
CONTINUOUS
70
0
71
3
72
12
73
8
74
6
42
0.0000001000
43
0.0000001000
44
0.0000000001
12
-1.5516427265
22
-0.0000000000
32
0.0000000000
13
-0.0000000000
23
1.5516427265
33
0.0000000000
40
0.0000000000
40
0.0000000000
40
0.0000000000
40
0.0000000000
40
0.2015575643
40
0.4025228957
40
0.6025262600
40
0.8015630079
40
1.0000000000
40
1.0000000000
40
1.0000000000
40
1.0000000000
10
116.8603665865
20
76.6183380751
30
0.0000000000
10
116.7561181437
20
76.6183380751
30
0.0000000000
10
116.5464988891
20
76.6508543089
30
0.0000000000
10
116.2635246730
20
76.7925560707
30
0.0000000000
10
116.0383756078
20
77.0136725162
30
0.0000000000
10
115.8936651396
20
77.2923643640
30
0.0000000000
10
115.8603665865
20
77.4994309741
30
0.0000000000
10
115.8603665865
20
77.6020654126
30
0.0000000000
11
116.8603665865
21
76.6183380751
31
0.0000000000
11
116.5513495922
21
76.6664851180
31
0.0000000000
11
116.2725813343
21
76.8062132786
31
0.0000000000
11
116.0513495922
21
77.0238449912
31
0.0000000000
11
115.9093100703
21
77.2980769472
31
0.0000000000
11
115.8603665865
21
77.6020654126
31
0.0000000000
0
SPLINE
5
459
100
AcDbEntity
8
0
100
AcDbSpline
62
7
6
CONTINUOUS
70
0
71
3
72
19
73
15
74
13
42
0.0000001000
43
0.0000001000
44
0.0000000001
12
0.0279575619
22
1.8496104551
32
0.0000000000
13
-0.0882871530
23
1.8477136790
33
0.0000000000
40
0.0000000000
40
0.0000000000
40
0.0000000000
40
0.0000000000
40
0.0641527574
40
0.1449184679
40
0.2389737614
40
0.3424513712
40
0.4510873625
40
0.5604234978
40
0.6659677215
40
0.7633836801
40
0.8486726019
40
0.9183196155
40
0.9694621542
40
1.0000000000
40
1.0000000000
40
1.0000000000
40
1.0000000000
10
205.2957470539
20
91.8695476602
30
0.0000000000
10
205.2963449055
20
91.9091001971
30
0.0000000000
10
205.2973623484
20
91.9984526865
30
0.0000000000
10
205.2985030919
20
92.1458013403
30
0.0000000000
10
205.2993746538
20
92.3174002609
30
0.0000000000
10
205.2999379437
20
92.5061854871
30
0.0000000000
10
205.3001647576
20
92.7043936946
30
0.0000000000
10
205.3000456515
20
92.9038763125
30
0.0000000000
10
205.2995839698
20
93.0964399528
30
0.0000000000
10
205.2988082547
20
93.2741751777
30
0.0000000000
10
205.2977345988
20
93.4297728198
30
0.0000000000
10
205.2964835751
20
93.5568387118
30
0.0000000000
10
205.2949809537
20
93.6501320327
30
0.0000000000
10
205.2938502572
20
93.7004920029
30
0.0000000000
10
205.2929515574
20
93.7193004014
30
0.0000000000
11
205.2957470539
21
91.8695476602
31
0.0000000000
11
205.2971818910
21
91.9882101508
31
0.0000000000
11
205.2983783949
21
92.1376075265
31
0.0000000000
11
205.2992872862
21
92.3115906789
31
0.0000000000
11
205.2998711980
21
92.5030049203
31
0.0000000000
11
205.3001061265
21
92.7039620011
31
0.0000000000
11
205.2999824928
21
92.9062143232
31
0.0000000000
11
205.2995053891
21
93.1014517394
31
0.0000000000
11
205.2986944111
21
93.2816520724
31
0.0000000000
11
205.2975827871
21
93.4394174577
31
0.0000000000
11
205.2962162710
21
93.5682447701
31
0.0000000000
11
205.2946510449
21
93.6628364006
31
0.0000000000
11
205.2929515574
21
93.7193004014
31
0.0000000000
0
SPLINE
5
45A
100
AcDbEntity
8
0
100
AcDbSpline
62
7
6
CONTINUOUS
70
0
71
3
72
19
73
15
74
13
42
0.0000001000
43
0.0000001000
44
0.0000000001
12
0.0882871530
22
1.8477136790
32
0.0000000000
13
-0.0279575619
23
1.8496104551
33
0.0000000000
40
0.0000000000
40
0.0000000000
40
0.0000000000
40
0.0000000000
40
0.0305378459
40
0.0816803717
40
0.1513273648
40
0.2366162812
40
0.3340322725
40
0.4395765616
40
0.5489127689
40
0.6575487910
40
0.7610263697
40
0.8550815989
40
0.9358472583
40
1.0000000000
40
1.0000000000
40
1.0000000000
40
1.0000000000
10
205.2929515574
20
77.3488975028
30
0.0000000000
10
205.2938502572
20
77.3677059013
30
0.0000000000
10
205.2949809535
20
77.4180658636
30
0.0000000000
10
205.2964835747
20
77.5113591639
30
0.0000000000
10
205.2977345983
20
77.6384250320
30
0.0000000000
10
205.2988082545
20
77.7940226784
30
0.0000000000
10
205.2995839698
20
77.9717579604
30
0.0000000000
10
205.3000456517
20
78.1643217056
30
0.0000000000
10
205.3001647576
20
78.3638044272
30
0.0000000000
10
205.2999379432
20
78.5620126789
30
0.0000000000
10
205.2993746528
20
78.7507978652
30
0.0000000000
10
205.2985030910
20
78.9223966955
30
0.0000000000
10
205.2973623478
20
79.0697452685
30
0.0000000000
10
205.2963449054
20
79.1590977167
30
0.0000000000
10
205.2957470539
20
79.1986502440
30
0.0000000000
11
205.2929515574
21
77.3488975028
31
0.0000000000
11
205.2946510449
21
77.4053615036
31
0.0000000000
11
205.2962162707
21
77.4999531104
31
0.0000000000
11
205.2975827866
21
77.6287803848
31
0.0000000000
11
205.2986944107
21
77.7865457601
31
0.0000000000
11
205.2995053891
21
77.9667461536
31
0.0000000000
11
205.2999824930
21
78.1619836908
31
0.0000000000
11
205.3001061265
21
78.3642361461
31
0.0000000000
11
205.2998711974
21
78.5651932838
31
0.0000000000
11
205.2992872852
21
78.7566074677
31
0.0000000000
11
205.2983783941
21
78.9305905011
31
0.0000000000
11
205.2971818907
21
79.0799877825
31
0.0000000000
11
205.2957470539
21
79.1986502440
31
0.0000000000
0
SPLINE
5
45B
100
AcDbEntity
8
0
100
AcDbSpline
62
7
6
CONTINUOUS
70
0
71
3
72
19
73
15
74
13
42
0.0000001000
43
0.0000001000
44
0.0000000001
12
-0.0882871530
22
-1.8477136790
32
0.0000000000
13
0.0279575619
23
-1.8496104551
33
0.0000000000
40
0.0000000000
40
0.0000000000
40
0.0000000000
40
0.0000000000
40
0.0305378459
40
0.0816803717
40
0.1513273648
40
0.2366162812
40
0.3340322725
40
0.4395765616
40
0.5489127689
40
0.6575487910
40
0.7610263697
40
0.8550815989
40
0.9358472583
40
1.0000000000
40
1.0000000000
40
1.0000000000
40
1.0000000000
10
121.7277816157
20
93.7193004014
30
0.0000000000
10
121.7268829159
20
93.7004920028
30
0.0000000000
10
121.7257522196
20
93.6501320405
30
0.0000000000
10
121.7242495984
20
93.5568387402
30
0.0000000000
10
121.7229985747
20
93.4297728721
30
0.0000000000
10
121.7219249186
20
93.2741752258
30
0.0000000000
10
121.7211492032
20
93.0964399438
30
0.0000000000
10
121.7206875214
20
92.9038761985
30
0.0000000000
10
121.7205684155
20
92.7043934770
30
0.0000000000
10
121.7207952299
20
92.5061852252
30
0.0000000000
10
121.7213585203
20
92.3174000389
30
0.0000000000
10
121.7222300821
20
92.1458012086
30
0.0000000000
10
121.7233708252
20
91.9984526356
30
0.0000000000
10
121.7243882677
20
91.9091001874
30
0.0000000000
10
121.7249861191
20
91.8695476602
30
0.0000000000
11
121.7277816157
21
93.7193004014
31
0.0000000000
11
121.7260821281
21
93.6628364005
31
0.0000000000
11
121.7245169024
21
93.5682447938
31
0.0000000000
11
121.7231503865
21
93.4394175193
31
0.0000000000
11
121.7220387624
21
93.2816521440
31
0.0000000000
11
121.7212277840
21
93.1014517505
31
0.0000000000
11
121.7207506801
21
92.9062142133
31
0.0000000000
11
121.7206270466
21
92.7039617580
31
0.0000000000
11
121.7208619757
21
92.5030046203
31
0.0000000000
11
121.7214458879
21
92.3115904364
31
0.0000000000
11
121.7223547789
21
92.1376074030
31
0.0000000000
11
121.7235512824
21
91.9882101217
31
0.0000000000
11
121.7249861191
21
91.8695476602
31
0.0000000000
0
SPLINE
5
45C
100
AcDbEntity
8
0
100
AcDbSpline
62
7
6
CONTINUOUS
70
0
71
3
72
19
73
15
74
13
42
0.0000001000
43
0.0000001000
44
0.0000000001
12
-0.0279575619
22
-1.8496104551
32
0.0000000000
13
0.0882871530
23
-1.8477136790
33
0.0000000000
40
0.0000000000
40
0.0000000000
40
0.0000000000
40
0.0000000000
40
0.0641527574
40
0.1449184679
40
0.2389737614
40
0.3424513712
40
0.4510873625
40
0.5604234978
40
0.6659677215
40
0.7633836801
40
0.8486726019
40
0.9183196155
40
0.9694621542
40
1.0000000000
40
1.0000000000
40
1.0000000000
40
1.0000000000
10
121.7249861191
20
79.1986502440
30
0.0000000000
10
121.7243882676
20
79.1590977070
30
0.0000000000
10
121.7233708247
20
79.0697452176
30
0.0000000000
10
121.7222300812
20
78.9223965638
30
0.0000000000
10
121.7213585193
20
78.7507976432
30
0.0000000000
10
121.7207952293
20
78.5620124170
30
0.0000000000
10
121.7205684155
20
78.3638042095
30
0.0000000000
10
121.7206875216
20
78.1643215916
30
0.0000000000
10
121.7211492033
20
77.9717579513
30
0.0000000000
10
121.7219249184
20
77.7940227264
30
0.0000000000
10
121.7229985743
20
77.6384250843
30
0.0000000000
10
121.7242495980
20
77.5113591923
30
0.0000000000
10
121.7257522194
20
77.4180658714
30
0.0000000000
10
121.7268829159
20
77.3677059012
30
0.0000000000
10
121.7277816157
20
77.3488975028
30
0.0000000000
11
121.7249861191
21
79.1986502440
31
0.0000000000
11
121.7235512821
21
79.0799877533
31
0.0000000000
11
121.7223547781
21
78.9305903776
31
0.0000000000
11
121.7214458869
21
78.7566072253
31
0.0000000000
11
121.7208619751
21
78.5651929838
31
0.0000000000
11
121.7206270465
21
78.3642359030
31
0.0000000000
11
121.7207506803
21
78.1619835809
31
0.0000000000
11
121.7212277839
21
77.9667461647
31
0.0000000000
11
121.7220387620
21
77.7865458318
31
0.0000000000
11
121.7231503860
21
77.6287804464
31
0.0000000000
11
121.7245169021
21
77.4999531340
31
0.0000000000
11
121.7260821281
21
77.4053615035
31
0.0000000000
11
121.7277816157
21
77.3488975028
31
0.0000000000
0
SPLINE
5
45D
100
AcDbEntity
8
0
100
AcDbSpline
62
9
6
CONTINUOUS
70
0
71
3
72
12
73
8
74
6
42
0.0000001000
43
0.0000001000
44
0.0000000001
12
-0.0008763729
22
-0.2479035546
32
0.0000000000
13
0.2133609488
23
-0.1266552322
33
0.0000000000
40
0.0000000000
40
0.0000000000
40
0.0000000000
40
0.0000000000
40
0.1761150545
40
0.3764679819
40
0.6059230084
40
0.8626148715
40
1.0000000000
40
1.0000000000
40
1.0000000000
40
1.0000000000
10
117.2510944344
20
90.9672804577
30
0.0000000000
10
117.2510429869
20
90.9527272751
30
0.0000000000
10
117.2560456737
20
90.9213187205
30
0.0000000000
10
117.2803427804
20
90.8767870611
30
0.0000000000
10
117.3174799221
20
90.8335324610
30
0.0000000000
10
117.3575914536
20
90.8008021956
30
0.0000000000
10
117.3850055494
20
90.7831321739
30
0.0000000000
10
117.3947764232
20
90.7773319921
30
0.0000000000
11
117.2510944344
21
90.9672804577
31
0.0000000000
11
117.2579324865
21
90.9241594536
31
0.0000000000
11
117.2804830383
21
90.8799052580
31
0.0000000000
11
117.3171147602
21
90.8363874359
31
0.0000000000
11
117.3661418385
21
90.7958191332
31
0.0000000000
11
117.3947764232
21
90.7773319921
31
0.0000000000
0
SPLINE
5
45E
100
AcDbEntity
8
0
100
AcDbSpline
62
9
6
CONTINUOUS
70
0
71
3
72
11
73
7
74
5
42
0.0000001000
43
0.0000001000
44
0.0000000001
12
0.2323396719
22
-0.1379213735
32
0.0000000000
13
0.2699565702
23
-0.0000350856
33
0.0000000000
40
0.0000000000
40
0.0000000000
40
0.0000000000
40
0.0000000000
40
0.1310666864
40
0.4061257497
40
0.6961752743
40
1.0000000000
40
1.0000000000
40
1.0000000000
40
1.0000000000
10
117.3947764232
20
90.7773319921
30
0.0000000000
10
117.4049270869
20
90.7713063596
30
0.0000000000
10
117.4370945530
20
90.7538392301
30
0.0000000000
10
117.4953449653
20
90.7301725640
30
0.0000000000
10
117.5716079119
20
90.7116762314
30
0.0000000000
10
117.6251476103
20
90.7073075861
30
0.0000000000
10
117.6524874373
20
90.7073040328
30
0.0000000000
11
117.3947764232
21
90.7773319921
31
0.0000000000
11
117.4258784593
21
90.7604134956
31
0.0000000000
11
117.4946388086
21
90.7323836691
31
0.0000000000
11
117.5707370725
21
90.7139427995
31
0.0000000000
11
117.6524874373
21
90.7073040328
31
0.0000000000
0
SPLINE
5
45F
100
AcDbEntity
8
0
100
AcDbSpline
62
7
6
CONTINUOUS
70
0
71
3
72
9
73
5
74
3
42
0.0000001000
43
0.0000001000
44
0.0000000001
12
-0.0004052635
22
0.0268113369
32
0.0000000000
13
-0.0019420393
23
0.0001308964
33
0.0000000000
40
0.0000000000
40
0.0000000000
40
0.0000000000
40
0.0000000000
40
0.7452889459
40
1.0000000000
40
1.0000000000
40
1.0000000000
40
1.0000000000
10
205.2781793017
20
80.3608938713
30
0.0000000000
10
205.2780786222
20
80.3675546023
30
0.0000000000
10
205.2781232896
20
80.3731959607
30
0.0000000000
10
205.2774715013
20
80.3876776774
30
0.0000000000
10
205.2773066150
20
80.3876887910
30
0.0000000000
11
205.2781793017
21
80.3608938713
31
0.0000000000
11
205.2777583522
21
80.3808739130
31
0.0000000000
11
205.2773066150
21
80.3876887910
31
0.0000000000
0
SPLINE
5
460
100
AcDbEntity
8
0
100
AcDbSpline
62
9
6
CONTINUOUS
70
0
71
3
72
16
73
12
74
10
42
0.0000001000
43
0.0000001000
44
0.0000000001
12
-4.1668770143
22
-0.0001098827
32
0.0000000000
13
-0.0031739528
23
-4.1668758069
33
0.0000000000
40
0.0000000000
40
0.0000000000
40
0.0000000000
40
0.0000000000
40
0.1185901396
40
0.2518199328
40
0.3942927530
40
0.5389863187
40
0.6773014159
40
0.7996468818
40
0.8962603579
40
0.9615382987
40
1.0000000000
40
1.0000000000
40
1.0000000000
40
1.0000000000
10
120.8595246911
20
77.3490722262
30
0.0000000000
10
120.6948078489
20
77.3490678825
30
0.0000000000
10
120.3450315768
20
77.3448501709
30
0.0000000000
10
119.7976588504
20
77.3254473010
30
0.0000000000
10
119.2148688981
20
77.2876990500
30
0.0000000000
10
118.6266597013
20
77.2289964380
30
0.0000000000
10
118.0693651918
20
77.1469964622
30
0.0000000000
10
117.5831502261
20
77.0462454049
30
0.0000000000
10
117.2061835575
20
76.9227209681
30
0.0000000000
10
116.9559508158
20
76.8032165761
30
0.0000000000
10
116.8604072784
20
76.6717597860
30
0.0000000000
10
116.8603665865
20
76.6183380751
30
0.0000000000
11
120.8595246911
21
77.3490722262
31
0.0000000000
11
120.3654080829
21
77.3432825243
31
0.0000000000
11
119.8106160520
21
77.3232893586
31
0.0000000000
11
119.2182183572
21
77.2844931522
31
0.0000000000
11
118.6184055910
21
77.2233578463
31
0.0000000000
11
118.0484321122
21
77.1379158570
31
0.0000000000
11
117.5505009825
21
77.0285581382
31
0.0000000000
11
117.1690809607
21
76.8997692275
31
0.0000000000
11
116.9359299362
21
76.7596713969
31
0.0000000000
11
116.8603665865
21
76.6183380751
31
0.0000000000
0
SPLINE
5
461
100
AcDbEntity
8
0
100
AcDbSpline
62
9
6
CONTINUOUS
70
0
71
3
72
11
73
7
74
5
42
0.0000001000
43
0.0000001000
44
0.0000000001
12
-0.0000031704
22
-0.9837062125
32
0.0000000000
13
-0.0137553332
23
-0.9836100362
33
0.0000000000
40
0.0000000000
40
0.0000000000
40
0.0000000000
40
0.0000000000
40
0.3462027284
40
0.6510283927
40
0.8780069331
40
1.0000000000
40
1.0000000000
40
1.0000000000
40
1.0000000000
10
120.8604379214
20
78.3326022953
30
0.0000000000
10
120.8604375555
20
78.2190817038
30
0.0000000000
10
120.8604396459
20
78.0056085145
30
0.0000000000
10
120.8604242670
20
77.7177068494
30
0.0000000000
10
120.8604480792
20
77.5033285624
30
0.0000000000
10
120.8604031023
20
77.3888953711
30
0.0000000000
10
120.8598437505
20
77.3488975028
30
0.0000000000
11
120.8604379214
21
78.3326022953
31
0.0000000000
11
120.8604359629
21
77.9920405206
31
0.0000000000
11
120.8604323275
21
77.6921816209
31
0.0000000000
11
120.8604274986
21
77.4689014208
31
0.0000000000
11
120.8598437505
21
77.3488975028
31
0.0000000000
0
SPLINE
5
462
100
AcDbEntity
8
0
100
AcDbSpline
62
9
6
CONTINUOUS
70
0
71
3
72
17
73
13
74
11
42
0.0000001000
43
0.0000001000
44
0.0000000001
12
-5.1448284061
22
-0.0000107539
32
0.0000000000
13
-0.0022369271
23
-5.1448279198
33
0.0000000000
40
0.0000000000
40
0.0000000000
40
0.0000000000
40
0.0000000000
40
0.1073926777
40
0.2270560282
40
0.3552638113
40
0.4870902133
40
0.6164841619
40
0.7365230437
40
0.8396298491
40
0.9189671113
40
0.9710846102
40
1.0000000000
40
1.0000000000
40
1.0000000000
40
1.0000000000
10
120.8607788538
20
78.3326262409
30
0.0000000000
10
120.6766065542
20
78.3326258559
30
0.0000000000
10
120.2872115689
20
78.3294976063
30
0.0000000000
10
119.6781156381
20
78.3140460516
30
0.0000000000
10
119.0275792570
20
78.2844579064
30
0.0000000000
10
118.3612544726
20
78.2380854187
30
0.0000000000
10
117.7105190278
20
78.1737605612
30
0.0000000000
10
117.1113402225
20
78.0901391975
30
0.0000000000
10
116.6020169076
20
77.9934956455
30
0.0000000000
10
116.2136847727
20
77.8773684395
30
0.0000000000
10
115.9637291526
20
77.7730321667
30
0.0000000000
10
115.8603881471
20
77.6516536474
30
0.0000000000
10
115.8603665865
20
77.6020654126
30
0.0000000000
11
120.8607788538
21
78.3326262409
31
0.0000000000
11
120.3082800288
21
78.3281572694
31
0.0000000000
11
119.6928335776
21
78.3124285451
31
0.0000000000
11
119.0339223780
21
78.2821385421
31
0.0000000000
11
118.3573737569
21
78.2344934713
31
0.0000000000
11
117.6950349554
21
78.1675855758
31
0.0000000000
11
117.0835825202
21
78.0808083034
31
0.0000000000
11
116.5636392383
21
77.9756701450
31
0.0000000000
11
116.1732628376
21
77.8564459752
31
0.0000000000
11
115.9370628727
21
77.7295354921
31
0.0000000000
11
115.8603665865
21
77.6020654126
31
0.0000000000
0
SPLINE
5
463
100
AcDbEntity
8
0
100
AcDbSpline
62
7
6
CONTINUOUS
70
0
71
3
72
9
73
5
74
3
42
0.0000001000
43
0.0000001000
44
0.0000000001
12
0.0004052635
22
-0.0268113377
32
0.0000000000
13
0.0019420395
23
-0.0001308815
33
0.0000000000
40
0.0000000000
40
0.0000000000
40
0.0000000000
40
0.0000000000
40
0.7452888883
40
1.0000000000
40
1.0000000000
40
1.0000000000
40
1.0000000000
10
121.7425538714
20
90.7073040328
30
0.0000000000
10
121.7426545508
20
90.7006433021
30
0.0000000000
10
121.7426098836
20
90.6950019441
30
0.0000000000
10
121.7432616717
20
90.6805202254
30
0.0000000000
10
121.7434265580
20
90.6805091131
30
0.0000000000
11
121.7425538714
21
90.7073040328
31
0.0000000000
11
121.7429748208
21
90.6873239921
31
0.0000000000
11
121.7434265580
21
90.6805091131
31
0.0000000000
0
SPLINE
5
464
100
AcDbEntity
8
0
100
AcDbSpline
62
9
6
CONTINUOUS
70
0
71
3
72
12
73
8
74
6
42
0.0000001000
43
0.0000001000
44
0.0000000001
12
0.0008763729
22
0.2479035546
32
0.0000000000
13
-0.2133609488
23
0.1266552322
33
0.0000000000
40
0.0000000000
40
0.0000000000
40
0.0000000000
40
0.0000000000
40
0.1761150545
40
0.3764679820
40
0.6059230085
40
0.8626148715
40
1.0000000000
40
1.0000000000
40
1.0000000000
40
1.0000000000
10
209.7696387386
20
80.1009174464
30
0.0000000000
10
209.7696901861
20
80.1154706290
30
0.0000000000
10
209.7646874994
20
80.1468791836
30
0.0000000000
10
209.7403903926
20
80.1914108431
30
0.0000000000
10
209.7032532510
20
80.2346654431
30
0.0000000000
10
209.6631417195
20
80.2673957085
30
0.0000000000
10
209.6357276236
20
80.2850657302
30
0.0000000000
10
209.6259567499
20
80.2908659120
30
0.0000000000
11
209.7696387386
21
80.1009174464
31
0.0000000000
11
209.7628006865
21
80.1440384505
31
0.0000000000
11
209.7402501348
21
80.1882926461
31
0.0000000000
11
209.7036184128
21
80.2318104682
31
0.0000000000
11
209.6545913345
21
80.2723787710
31
0.0000000000
11
209.6259567499
21
80.2908659120
31
0.0000000000
0
SPLINE
5
465
100
AcDbEntity
8
0
100
AcDbSpline
62
9
6
CONTINUOUS
70
0
71
3
72
11
73
7
74
5
42
0.0000001000
43
0.0000001000
44
0.0000000001
12
-0.2323396719
22
0.1379213735
32
0.0000000000
13
-0.2699565702
23
0.0000350856
33
0.0000000000
40
0.0000000000
40
0.0000000000
40
0.0000000000
40
0.0000000000
40
0.1310666864
40
0.4061257497
40
0.6961752743
40
1.0000000000
40
1.0000000000
40
1.0000000000
40
1.0000000000
10
209.6259567499
20
80.2908659120
30
0.0000000000
10
209.6158060862
20
80.2968915445
30
0.0000000000
10
209.5836386201
20
80.3143586740
30
0.0000000000
10
209.5253882077
20
80.3380253401
30
0.0000000000
10
209.4491252612
20
80.3565216727
30
0.0000000000
10
209.3955855628
20
80.3608903180
30
0.0000000000
10
209.3682457358
20
80.3608938713
30
0.0000000000
11
209.6259567499
21
80.2908659120
31
0.0000000000
11
209.5948547138
21
80.3077844085
31
0.0000000000
11
209.5260943645
21
80.3358142350
31
0.0000000000
11
209.4499961005
21
80.3542551046
31
0.0000000000
11
209.3682457358
21
80.3608938713
31
0.0000000000
0
SPLINE
5
466
100
AcDbEntity
8
0
100
AcDbSpline
62
9
6
CONTINUOUS
70
0
71
3
72
12
73
8
74
6
42
0.0000001000
43
0.0000001000
44
0.0000000001
12
0.0260337383
22
0.2469721097
32
0.0000000000
13
0.2124043143
23
0.1291053742
33
0.0000000000
40
0.0000000000
40
0.0000000000
40
0.0000000000
40
0.0000000000
40
0.1784988167
40
0.3816019256
40
0.6112149391
40
0.8650083450
40
1.0000000000
40
1.0000000000
40
1.0000000000
40
1.0000000000
10
117.2510699097
20
80.1009337055
30
0.0000000000
10
117.2526189069
20
80.1156284486
30
0.0000000000
10
117.2601121500
20
80.1468091873
30
0.0000000000
10
117.2856021739
20
80.1910839711
30
0.0000000000
10
117.3227779967
20
80.2343931251
30
0.0000000000
10
117.3622933022
20
80.2672901934
30
0.0000000000
10
117.3892006423
20
80.2850402294
30
0.0000000000
10
117.3987582456
20
80.2908496121
30
0.0000000000
11
117.2510699097
21
80.1009337055
31
0.0000000000
11
117.2614715443
21
80.1440245375
31
0.0000000000
11
117.2856832850
21
80.1882722020
31
0.0000000000
11
117.3225316834
21
80.2317891721
31
0.0000000000
11
117.3707642796
21
80.2723605982
31
0.0000000000
11
117.3987582456
21
80.2908496121
31
0.0000000000
0
SPLINE
5
467
100
AcDbEntity
8
0
100
AcDbSpline
62
9
6
CONTINUOUS
70
0
71
3
72
11
73
7
74
5
42
0.0000001000
43
0.0000001000
44
0.0000000001
12
0.2276980574
22
0.1384013456
32
0.0000000000
13
0.2662216983
23
0.0000346004
33
0.0000000000
40
0.0000000000
40
0.0000000000
40
0.0000000000
40
0.0000000000
40
0.1305031494
40
0.4041623705
40
0.6938050777
40
1.0000000000
40
1.0000000000
40
1.0000000000
40
1.0000000000
10
117.3987582456
20
80.2908496121
30
0.0000000000
10
117.4086633501
20
80.2968702160
30
0.0000000000
10
117.4400541411
20
80.3143393260
30
0.0000000000
10
117.4971225288
20
80.3380701185
30
0.0000000000
10
117.5723336052
20
80.3565872986
30
0.0000000000
10
117.6253155265
20
80.3608903398
30
0.0000000000
10
117.6524874373
20
80.3608938713
30
0.0000000000
11
117.3987582456
21
80.2908496121
31
0.0000000000
11
117.4291286132
21
80.3077716308
31
0.0000000000
11
117.4963722242
21
80.3358074202
31
0.0000000000
11
117.5712426522
21
80.3542531169
31
0.0000000000
11
117.6524874373
21
80.3608938713
31
0.0000000000
0
SPLINE
5
468
100
AcDbEntity
8
0
100
AcDbSpline
62
7
6
CONTINUOUS
70
0
71
3
72
15
73
11
74
9
42
0.0000001000
43
0.0000001000
44
0.0000000001
12
0.0000000000
22
-1.4756698813
32
0.0000000000
13
-0.0704298636
23
-1.4739882065
33
0.0000000000
40
0.0000000000
40
0.0000000000
40
0.0000000000
40
0.0000000000
40
0.1757486987
40
0.3462039107
40
0.5062314986
40
0.6510118594
40
0.7761851626
40
0.8779830895
40
0.9533424366
40
1.0000000000
40
1.0000000000
40
1.0000000000
40
1.0000000000
10
121.8603665865
20
97.7449519303
30
0.0000000000
10
121.8603665865
20
97.6585029098
30
0.0000000000
10
121.8602389892
20
97.4882086587
30
0.0000000000
10
121.8596688709
20
97.2391989919
30
0.0000000000
10
121.8587380572
20
97.0054236252
30
0.0000000000
10
121.8574842451
20
96.7939234490
30
0.0000000000
10
121.8559338417
20
96.6110696688
30
0.0000000000
10
121.8542017832
20
96.4623639672
30
0.0000000000
10
121.8522422715
20
96.3522926631
30
0.0000000000
10
121.8507235528
20
96.2922851569
30
0.0000000000
10
121.8496281908
20
96.2693609241
30
0.0000000000
11
121.8603665865
21
97.7449519303
31
0.0000000000
11
121.8601694431
21
97.4856049439
31
0.0000000000
11
121.8595839522
21
97.2340700028
31
0.0000000000
11
121.8586277540
21
96.9979240471
31
0.0000000000
11
121.8573296570
21
96.7842799728
31
0.0000000000
11
121.8557287679
21
96.5995724367
31
0.0000000000
11
121.8538733080
21
96.4493637614
31
0.0000000000
11
121.8518191615
21
96.3381772160
31
0.0000000000
11
121.8496281908
21
96.2693609241
31
0.0000000000
0
SPLINE
5
469
100
AcDbEntity
8
0
100
AcDbSpline
62
7
6
CONTINUOUS
70
0
71
3
72
15
73
11
74
9
42
0.0000001000
43
0.0000001000
44
0.0000000001
12
0.0000000000
22
1.4756698813
32
0.0000000000
13
0.0704298636
23
1.4739882065
33
0.0000000000
40
0.0000000000
40
0.0000000000
40
0.0000000000
40
0.0000000000
40
0.1757486987
40
0.3462039107
40
0.5062314986
40
0.6510118594
40
0.7761851626
40
0.8779830895
40
0.9533424366
40
1.0000000000
40
1.0000000000
40
1.0000000000
40
1.0000000000
10
205.1603665865
20
73.3232459738
30
0.0000000000
10
205.1603665865
20
73.4096949943
30
0.0000000000
10
205.1604941839
20
73.5799892454
30
0.0000000000
10
205.1610643022
20
73.8289989123
30
0.0000000000
10
205.1619951159
20
74.0627742790
30
0.0000000000
10
205.1632489280
20
74.2742744551
30
0.0000000000
10
205.1647993313
20
74.4571282353
30
0.0000000000
10
205.1665313899
20
74.6058339369
30
0.0000000000
10
205.1684909016
20
74.7159052410
30
0.0000000000
10
205.1700096203
20
74.7759127472
30
0.0000000000
10
205.1711049823
20
74.7988369800
30
0.0000000000
11
205.1603665865
21
73.3232459738
31
0.0000000000
11
205.1605637299
21
73.5825929603
31
0.0000000000
11
205.1611492208
21
73.8341279013
31
0.0000000000
11
205.1621054190
21
74.0702738570
31
0.0000000000
11
205.1634035161
21
74.2839179313
31
0.0000000000
11
205.1650044051
21
74.4686254674
31
0.0000000000
11
205.1668598651
21
74.6188341427
31
0.0000000000
11
205.1689140116
21
74.7300206881
31
0.0000000000
11
205.1711049823
21
74.7988369800
31
0.0000000000
0
SPLINE
5
46A
100
AcDbEntity
8
0
100
AcDbSpline
62
7
6
CONTINUOUS
70
0
71
3
72
15
73
11
74
9
42
0.0000001000
43
0.0000001000
44
0.0000000001
12
0.0704298636
22
-1.4739882065
32
0.0000000000
13
-0.0000000000
23
-1.4756698813
33
0.0000000000
40
0.0000000000
40
0.0000000000
40
0.0000000000
40
0.0000000000
40
0.0466576166
40
0.1220171558
40
0.2238153718
40
0.3489888882
40
0.4937692191
40
0.6537965469
40
0.8242514522
40
1.0000000000
40
1.0000000000
40
1.0000000000
40
1.0000000000
10
121.8496281908
20
74.7988369800
30
0.0000000000
10
121.8507235540
20
74.7759127211
30
0.0000000000
10
121.8522422748
20
74.7159050942
30
0.0000000000
10
121.8542017895
20
74.6058335273
30
0.0000000000
10
121.8559338494
20
74.4571274841
30
0.0000000000
10
121.8574842521
20
74.2742734715
30
0.0000000000
10
121.8587380616
20
74.0627733331
30
0.0000000000
10
121.8596688727
20
73.8289982599
30
0.0000000000
10
121.8602389894
20
73.5799889461
30
0.0000000000
10
121.8603665865
20
73.4096949200
30
0.0000000000
10
121.8603665865
20
73.3232459738
30
0.0000000000
11
121.8496281908
21
74.7988369800
31
0.0000000000
11
121.8518191634
21
74.7300206096
31
0.0000000000
11
121.8538733134
21
74.6188337808
31
0.0000000000
11
121.8557287761
21
74.4686246788
31
0.0000000000
11
121.8573296650
21
74.2839168282
31
0.0000000000
11
121.8586277593
21
74.0702727980
31
0.0000000000
11
121.8595839544
21
73.8341272260
31
0.0000000000
11
121.8601694435
21
73.5825927375
31
0.0000000000
11
121.8603665865
21
73.3232459738
31
0.0000000000
0
SPLINE
5
46B
100
AcDbEntity
8
0
100
AcDbSpline
62
7
6
CONTINUOUS
70
0
71
3
72
15
73
11
74
9
42
0.0000001000
43
0.0000001000
44
0.0000000001
12
-0.0704298636
22
1.4739882065
32
0.0000000000
13
0.0000000000
23
1.4756698813
33
0.0000000000
40
0.0000000000
40
0.0000000000
40
0.0000000000
40
0.0000000000
40
0.0466576166
40
0.1220171558
40
0.2238153718
40
0.3489888882
40
0.4937692191
40
0.6537965469
40
0.8242514522
40
1.0000000000
40
1.0000000000
40
1.0000000000
40
1.0000000000
10
205.1711049823
20
96.2693609241
30
0.0000000000
10
205.1700096191
20
96.2922851830
30
0.0000000000
10
205.1684908982
20
96.3522928099
30
0.0000000000
10
205.1665313836
20
96.4623643768
30
0.0000000000
10
205.1647993236
20
96.6110704201
30
0.0000000000
10
205.1632489210
20
96.7939244326
30
0.0000000000
10
205.1619951115
20
97.0054245710
30
0.0000000000
10
205.1610643004
20
97.2391996442
30
0.0000000000
10
205.1604941836
20
97.4882089580
30
0.0000000000
10
205.1603665865
20
97.6585029841
30
0.0000000000
10
205.1603665865
20
97.7449519303
30
0.0000000000
11
205.1711049823
21
96.2693609241
31
0.0000000000
11
205.1689140097
21
96.3381772945
31
0.0000000000
11
205.1668598597
21
96.4493641234
31
0.0000000000
11
205.1650043970
21
96.5995732253
31
0.0000000000
11
205.1634035081
21
96.7842810760
31
0.0000000000
11
205.1621054137
21
96.9979251061
31
0.0000000000
11
205.1611492187
21
97.2340706781
31
0.0000000000
11
205.1605637296
21
97.4856051666
31
0.0000000000
11
205.1603665865
21
97.7449519303
31
0.0000000000
0
ENDSEC
0
SECTION
2
OBJECTS
0
DICTIONARY
5
46C
100
AcDbDictionary
3
ACAD_GROUP
350
46D
3
ACAD_MLINESTYLE
350
46E
0
DICTIONARY
5
46D
102
{ACAD_REACTORS
330
46C
102
}
100
AcDbDictionary
0
DICTIONARY
5
46E
102
{ACAD_REACTORS
330
46C
102
}
100
AcDbDictionary
3
STANDARD
350
46F
0
MLINESTYLE
5
46F
102
{ACAD_REACTORS
330
46E
102
}
100
AcDbMlineStyle
2
STANDARD
70
0
3

62
256
51
90.0
52
90.0
71
2
49
0.5
62
256
6
BYLAYER
49
-0.5
62
256
6
BYLAYER
0
ENDSEC
0
EOF
