999
DXF file: catena1873-k375gs3j.dxf
999
Pro/ENGINEER 2003490 by Parametric Technology Corporation
0
SECTION
2
HEADER
9
$ACADVER
1
AC1014
9
$EXTMAX
10
420.0000000000
20
297.0000000000
30
0.0000000000
9
$EXTMIN
10
0.0000000000
20
0.0000000000
30
0.0000000000
9
$LIMMIN
10
0.0000000000
20
0.0000000000
9
$LIMMAX
10
420.0000000000
20
297.0000000000
9
$VIEWCTR
10
210.0000000000
20
148.5000000000
9
$VIEWSIZE
40
297.0000000000
9
$CLAYER
8
0
9
$LTSCALE
40
23.1000000000
9
$CELTYPE
6
BYLAYER
9
$DIMSCALE
40
1
9
$DIMASZ
40
3.5000000000
9
$DIMEXO
40
2.6250000000
9
$DIMDLI
40
15.9600000000
9
$DIMEXE
40
7.5600000000
9
$DIMCEN
40
3.7800000000
9
$DIMLFAC
40
1.0000000000
9
$DIMBLK
1
_FILLED
9
$DIMTXT
40
3.5000000000
9
$DIMTOL
70
1
9
$DIMLIM
70
0
9
$DIMTFAC
40
1.0000000000
9
$DIMTP
40
0.0010000000
9
$DIMTM
40
0.0010000000
9
$PDMODE
70
3
9
$PDSIZE
40
0.3125000000
9
$HANDSEED
5
455
9
$MEASUREMENT
70
1
0
ENDSEC
0
SECTION
2
CLASSES
0
ENDSEC
0
SECTION
2
TABLES
0
TABLE
2
VPORT
5
8
100
AcDbSymbolTable
70
2
0
VPORT
5
1F4
100
AcDbSymbolTableRecord
100
AcDbViewportTableRecord
2
*ACTIVE
70
0
10
0.0
20
0.0
11
1.0
21
1.0
12
210.0000000000
22
148.5000000000
13
0.0
23
0.0
14
1.0
24
1.0
15
0.0
25
0.0
16
0.0
26
0.0
36
1.0
17
0.0
27
0.0
37
0.0
40
297.0000000000
41
1.4141414141
42
50.0
43
0.0
44
0.0
50
0.0
51
0.0
71
0
72
100
73
1
74
1
75
0
76
0
77
0
78
0
0
ENDTAB
0
TABLE
2
LTYPE
5
5
100
AcDbSymbolTable
70
6
0
LTYPE
5
14
100
AcDbSymbolTableRecord
100
AcDbLinetypeTableRecord
2
BYBLOCK
70
0
3

72
65
73
0
40
0.0
0
LTYPE
5
15
100
AcDbSymbolTableRecord
100
AcDbLinetypeTableRecord
2
BYLAYER
70
0
3

72
65
73
0
40
0.0
0
LTYPE
5
16
100
AcDbSymbolTableRecord
100
AcDbLinetypeTableRecord
2
CONTINUOUS
70
64
3
Solid line
72
65
73
0
40
0
0
LTYPE
5
1F5
100
AcDbSymbolTableRecord
100
AcDbLinetypeTableRecord
2
CENTER
70
64
3
____ _ ____ _ ____ _ ____ _ ____ _ ____ _ ____
72
65
73
4
40
0.6
49
0.375
74
0
49
-0.075
74
0
49
0.075
74
0
49
-0.075
74
0
0
LTYPE
5
1F6
100
AcDbSymbolTableRecord
100
AcDbLinetypeTableRecord
2
HIDDEN
70
64
3
- - - - - - - - - - - - - - - - - - - -
72
65
73
2
40
0.2
49
0.1
74
0
49
-0.1
74
0
0
LTYPE
5
1F7
100
AcDbSymbolTableRecord
100
AcDbLinetypeTableRecord
2
PHANTOM
70
64
3
_____ _ _ _____ _ _ _____ _ _ _____
72
65
73
6
40
0.8
49
0.45
74
0
49
-0.05
74
0
49
0.1
74
0
49
-0.05
74
0
49
0.1
74
0
49
-0.05
74
0
0
LTYPE
5
1F8
100
AcDbSymbolTableRecord
100
AcDbLinetypeTableRecord
2
DOT
70
64
3
. . . . . . . . . . . . . . . . . . . .
72
65
73
2
40
0.2
49
0.1
74
0
49
-0.1
74
0
0
LTYPE
5
1F9
100
AcDbSymbolTableRecord
100
AcDbLinetypeTableRecord
2
DASHED
70
64
3
- - - - - - - - - - - - - - - - - - - -
72
65
73
2
40
0.2
49
0.1
74
0
49
-0.1
74
0
0
ENDTAB
0
TABLE
2
LAYER
5
2
100
AcDbSymbolTable
70
36
0
LAYER
5
10
100
AcDbSymbolTableRecord
100
AcDbLayerTableRecord
2
0
70
0
62
7
6
CONTINUOUS
0
LAYER
5
1FA
100
AcDbSymbolTableRecord
100
AcDbLayerTableRecord
2
DEFAULT_1
70
0
62
7
6
CENTER
0
LAYER
5
1FB
100
AcDbSymbolTableRecord
100
AcDbLayerTableRecord
2
DEFAULT_2
70
0
62
8
6
HIDDEN
0
LAYER
5
1FC
100
AcDbSymbolTableRecord
100
AcDbLayerTableRecord
2
DEFAULT_3
70
0
62
7
6
PHANTOM
0
LAYER
5
1FD
100
AcDbSymbolTableRecord
100
AcDbLayerTableRecord
2
ASSI
70
0
62
7
6
CONTINUOUS
0
LAYER
5
1FE
100
AcDbSymbolTableRecord
100
AcDbLayerTableRecord
2
AXES
70
0
62
7
6
CONTINUOUS
0
LAYER
5
1FF
100
AcDbSymbolTableRecord
100
AcDbLayerTableRecord
2
DIMS
70
0
62
7
6
CONTINUOUS
0
LAYER
5
200
100
AcDbSymbolTableRecord
100
AcDbLayerTableRecord
2
GEOM
70
0
62
7
6
CONTINUOUS
0
LAYER
5
201
100
AcDbSymbolTableRecord
100
AcDbLayerTableRecord
2
NOGEOM
70
0
62
7
6
CONTINUOUS
0
LAYER
5
202
100
AcDbSymbolTableRecord
100
AcDbLayerTableRecord
2
PIANI
70
0
62
7
6
CONTINUOUS
0
LAYER
5
203
100
AcDbSymbolTableRecord
100
AcDbLayerTableRecord
2
PLANES
70
0
62
7
6
CONTINUOUS
0
LAYER
5
204
100
AcDbSymbolTableRecord
100
AcDbLayerTableRecord
2
SURF_FILETTI
70
0
62
7
6
CONTINUOUS
0
ENDTAB
0
TABLE
2
STYLE
5
3
100
AcDbSymbolTable
70
1
0
STYLE
5
11
100
AcDbSymbolTableRecord
100
AcDbTextStyleTableRecord
2
STANDARD
70
0
40
0.0
41
0.7143000000
50
0.0
71
0
42
0.2
3
txt
4

0
ENDTAB
0
TABLE
2
VIEW
5
6
100
AcDbSymbolTable
70
0
0
ENDTAB
0
TABLE
2
UCS
5
7
100
AcDbSymbolTable
70
0
0
ENDTAB
0
TABLE
2
APPID
5
9
100
AcDbSymbolTable
70
1
0
APPID
5
205
100
AcDbSymbolTableRecord
100
AcDbRegAppTableRecord
2
ACAD
70
0
0
ENDTAB
0
TABLE
2
DIMSTYLE
5
A
100
AcDbSymbolTable
70
1
0
DIMSTYLE
105
206
100
AcDbSymbolTableRecord
100
AcDbDimStyleTableRecord
2
STANDARD
70
0
3

4

5
_FILLED
6
_FILLED
7
_FILLED
40
1.0
41
3.5000000000
42
0.0625
43
0.38
44
0.18
45
0.0
46
0.0
47
0.0010000000
48
0.0010000000
140
3.5000000000
141
0.09
142
0.0
143
25.4
144
1.0000000000
145
0.0
146
1.0000000000
147
0.09
71
1
72
0
73
0
74
0
75
0
76
0
77
1
78
8
170
0
171
2
172
0
173
0
174
0
175
0
176
0
177
0
178
0
270
2
271
3
272
3
273
2
274
2
340
11
275
0
280
0
281
0
282
0
283
1
284
8
285
0
286
0
287
3
288
0
0
ENDTAB
0
TABLE
2
BLOCK_RECORD
5
1
100
AcDbSymbolTable
70
0
0
BLOCK_RECORD
5
1B
100
AcDbSymbolTableRecord
100
AcDbBlockTableRecord
2
*MODEL_SPACE
0
BLOCK_RECORD
5
1C
100
AcDbSymbolTableRecord
100
AcDbBlockTableRecord
2
*PAPER_SPACE
0
ENDTAB
0
ENDSEC
0
SECTION
2
BLOCKS
0
BLOCK
5
1E
100
AcDbEntity
8
0
100
AcDbBlockBegin
2
*MODEL_SPACE
70
0
10
0.0
20
0.0
30
0.0
3
*MODEL_SPACE
1

0
ENDBLK
5
1F
100
AcDbEntity
8
0
100
AcDbBlockEnd
0
BLOCK
5
20
100
AcDbEntity
8
0
100
AcDbBlockBegin
2
*PAPER_SPACE
70
0
10
0.0
20
0.0
30
0.0
3
*PAPER_SPACE
1

0
ENDBLK
5
21
100
AcDbEntity
8
0
100
AcDbBlockEnd
0
ENDSEC
0
SECTION
2
ENTITIES
0
LINE
5
207
100
AcDbEntity
8
0
100
AcDbLine
62
7
6
CONTINUOUS
10
0.0000000000
20
0.0000000000
11
0.0000000000
21
297.0000000000
0
LINE
5
208
100
AcDbEntity
8
0
100
AcDbLine
62
7
6
CONTINUOUS
10
0.0000000000
20
0.0000000000
11
420.0000000000
21
0.0000000000
0
LINE
5
209
100
AcDbEntity
8
0
100
AcDbLine
62
7
6
CONTINUOUS
10
0.0000000000
20
297.0000000000
11
420.0000000000
21
297.0000000000
0
LINE
5
20A
100
AcDbEntity
8
0
100
AcDbLine
62
7
6
CONTINUOUS
10
420.0000000000
20
0.0000000000
11
420.0000000000
21
297.0000000000
0
LINE
5
20B
100
AcDbEntity
8
0
100
AcDbLine
62
7
6
CONTINUOUS
10
98.2394230769
20
198.8754511461
11
98.2394230769
21
215.1754511461
0
LINE
5
20C
100
AcDbEntity
8
0
100
AcDbLine
62
9
6
CONTINUOUS
10
98.7394230769
20
215.6754511461
11
98.7394230769
21
215.5570892837
0
LINE
5
20D
100
AcDbEntity
8
0
100
AcDbLine
62
9
6
CONTINUOUS
10
99.2394230769
20
213.5681839795
11
99.2394230769
21
202.3754511461
0
LINE
5
20E
100
AcDbEntity
8
0
100
AcDbLine
62
9
6
CONTINUOUS
10
101.1085649148
20
198.8754511461
11
101.1085649148
21
201.3754511461
0
LINE
5
20F
100
AcDbEntity
8
0
100
AcDbLine
62
7
6
CONTINUOUS
10
104.0996792709
20
218.3885052385
11
104.2394230769
21
202.3754511461
0
LINE
5
210
100
AcDbEntity
8
0
100
AcDbLine
62
7
6
CONTINUOUS
10
104.7394230769
20
215.6754511461
11
104.7394230769
21
215.1754511461
0
LINE
5
211
100
AcDbEntity
8
0
100
AcDbLine
62
7
6
CONTINUOUS
10
107.8294230769
20
202.3754511461
11
102.3294396117
21
233.4753576494
0
LINE
5
212
100
AcDbEntity
8
0
100
AcDbLine
62
7
6
CONTINUOUS
10
172.6394230769
20
173.5754511461
11
157.8894230769
21
173.5754511461
0
LINE
5
213
100
AcDbEntity
8
0
100
AcDbLine
62
7
6
CONTINUOUS
10
133.9894230769
20
173.5754511461
11
119.1394230769
21
173.5754511461
0
LINE
5
214
100
AcDbEntity
8
0
100
AcDbLine
62
7
6
CONTINUOUS
10
117.6394230769
20
175.0754511461
11
117.6394230769
21
177.0754511461
0
LINE
5
215
100
AcDbEntity
8
0
100
AcDbLine
62
9
6
CONTINUOUS
10
118.1394230769
20
174.9993894530
11
118.1394230769
21
177.5754511461
0
LINE
5
216
100
AcDbEntity
8
0
100
AcDbLine
62
9
6
CONTINUOUS
10
173.6277845874
20
174.8472660668
11
157.8894230769
21
174.8472660668
0
LINE
5
217
100
AcDbEntity
8
0
100
AcDbLine
62
9
6
CONTINUOUS
10
133.9894230769
20
174.8472660668
11
118.1510615665
21
174.8472660668
0
LINE
5
218
100
AcDbEntity
8
0
100
AcDbLine
62
9
6
CONTINUOUS
10
118.1394230769
20
175.3993391472
11
128.4772200318
21
175.3993369132
0
LINE
5
219
100
AcDbEntity
8
0
100
AcDbLine
62
9
6
CONTINUOUS
10
163.3016261230
20
175.3993369128
11
173.6394230769
21
175.3993391472
0
LINE
5
21A
100
AcDbEntity
8
0
100
AcDbLine
62
9
6
CONTINUOUS
10
118.1394230769
20
176.4174879371
11
128.4772251128
21
176.4174911113
0
LINE
5
21B
100
AcDbEntity
8
0
100
AcDbLine
62
9
6
CONTINUOUS
10
163.3016210432
20
176.4174911122
11
173.6394230769
21
176.4174879371
0
LINE
5
21C
100
AcDbEntity
8
0
100
AcDbLine
62
9
6
CONTINUOUS
10
118.1394230769
20
177.3075019536
11
127.8894230769
21
177.3075019536
0
LINE
5
21D
100
AcDbEntity
8
0
100
AcDbLine
62
9
6
CONTINUOUS
10
163.8894230769
20
177.3075019536
11
173.6394230769
21
177.3075019536
0
LINE
5
21E
100
AcDbEntity
8
0
100
AcDbLine
62
7
6
CONTINUOUS
10
118.1394230769
20
177.5754511461
11
127.8894230769
21
177.5754511461
0
LINE
5
21F
100
AcDbEntity
8
0
100
AcDbLine
62
7
6
CONTINUOUS
10
163.8894230769
20
177.5754511461
11
173.6394230769
21
177.5754511461
0
LINE
5
220
100
AcDbEntity
8
0
100
AcDbLine
62
9
6
CONTINUOUS
10
127.8894230769
20
177.5754511461
11
127.8894230771
21
177.3075019536
0
LINE
5
221
100
AcDbEntity
8
0
100
AcDbLine
62
9
6
CONTINUOUS
10
128.4772159561
20
176.4174911113
11
128.4772200318
21
175.3993369132
0
LINE
5
222
100
AcDbEntity
8
0
100
AcDbLine
62
7
6
CONTINUOUS
10
129.8894230769
20
179.2693329995
11
129.8894230769
21
197.5754511461
0
LINE
5
223
100
AcDbEntity
8
0
100
AcDbLine
62
7
6
CONTINUOUS
10
129.8894230769
20
198.8754511461
11
129.8894230769
21
201.3754511461
0
LINE
5
224
100
AcDbEntity
8
0
100
AcDbLine
62
9
6
CONTINUOUS
10
131.8894230769
20
177.4277943650
11
131.8894230769
21
198.3754511461
0
LINE
5
225
100
AcDbEntity
8
0
100
AcDbLine
62
9
6
CONTINUOUS
10
133.9894230769
20
173.5754511461
11
133.9894230769
21
196.8146017916
0
LINE
5
226
100
AcDbEntity
8
0
100
AcDbLine
62
7
6
CONTINUOUS
10
134.3894230769
20
173.9754511461
11
134.3894230769
21
196.8754511461
0
LINE
5
227
100
AcDbEntity
8
0
100
AcDbLine
62
7
6
CONTINUOUS
10
193.0394230769
20
198.3754511461
11
162.6894230769
21
198.3754511461
0
LINE
5
228
100
AcDbEntity
8
0
100
AcDbLine
62
7
6
CONTINUOUS
10
129.6018692409
20
198.3754511461
11
98.7394230769
21
198.3754511461
0
LINE
5
229
100
AcDbEntity
8
0
100
AcDbLine
62
7
6
CONTINUOUS
10
131.8894230769
20
198.3754511461
11
160.1163628240
21
198.3754511461
0
LINE
5
22A
100
AcDbEntity
8
0
100
AcDbLine
62
9
6
CONTINUOUS
10
193.5394230769
20
198.8754511461
11
189.7449260531
21
198.8754511461
0
LINE
5
22B
100
AcDbEntity
8
0
100
AcDbLine
62
9
6
CONTINUOUS
10
129.8894230769
20
198.8754511461
11
98.2394230769
21
198.8754511461
0
LINE
5
22C
100
AcDbEntity
8
0
100
AcDbLine
62
9
6
CONTINUOUS
10
98.2394230769
20
201.3754511461
11
193.5394230769
21
201.3754511461
0
LINE
5
22D
100
AcDbEntity
8
0
100
AcDbLine
62
7
6
CONTINUOUS
10
99.2394230769
20
202.3754511461
11
192.5394230769
21
202.3754511461
0
LINE
5
22E
100
AcDbEntity
8
0
100
AcDbLine
62
9
6
CONTINUOUS
10
99.2394230769
20
203.6059494158
11
104.2286846812
21
203.6059494158
0
LINE
5
22F
100
AcDbEntity
8
0
100
AcDbLine
62
9
6
CONTINUOUS
10
187.5501614726
20
203.6059494158
11
192.5394230769
21
203.6059494158
0
LINE
5
230
100
AcDbEntity
8
0
100
AcDbLine
62
7
6
CONTINUOUS
10
187.5944023440
20
208.6754511461
11
185.0635709869
21
208.6754511461
0
LINE
5
231
100
AcDbEntity
8
0
100
AcDbLine
62
7
6
CONTINUOUS
10
106.7152751670
20
208.6754511461
11
104.1844438098
21
208.6754511461
0
LINE
5
232
100
AcDbEntity
8
0
100
AcDbLine
62
9
6
CONTINUOUS
10
104.1800803759
20
209.1754511461
11
106.6268507297
21
209.1754511461
0
LINE
5
233
100
AcDbEntity
8
0
100
AcDbLine
62
9
6
CONTINUOUS
10
185.1519954242
20
209.1754511461
11
187.5987657779
21
209.1754511461
0
LINE
5
234
100
AcDbEntity
8
0
100
AcDbLine
62
7
6
CONTINUOUS
10
157.3894230769
20
196.8754511461
11
157.3894230769
21
174.0754511461
0
LINE
5
235
100
AcDbEntity
8
0
100
AcDbLine
62
9
6
CONTINUOUS
10
186.0716095721
20
214.3754511461
11
105.7072365817
21
214.3754511461
0
LINE
5
236
100
AcDbEntity
8
0
100
AcDbLine
62
9
6
CONTINUOUS
10
104.7394230769
20
215.1754511461
11
105.5657574821
21
215.1754511461
0
LINE
5
237
100
AcDbEntity
8
0
100
AcDbLine
62
9
6
CONTINUOUS
10
186.2130886718
20
215.1754511461
11
187.0394230769
21
215.1754511461
0
LINE
5
238
100
AcDbEntity
8
0
100
AcDbLine
62
9
6
CONTINUOUS
10
157.8894230769
20
196.7993894530
11
157.8894230769
21
173.5754511461
0
LINE
5
239
100
AcDbEntity
8
0
100
AcDbLine
62
9
6
CONTINUOUS
10
159.8894230769
20
197.2712043737
11
159.8894230769
21
177.4277945705
0
LINE
5
23A
100
AcDbEntity
8
0
100
AcDbLine
62
9
6
CONTINUOUS
10
188.5445604063
20
217.5687481664
11
187.6720080477
21
217.5681839795
0
LINE
5
23B
100
AcDbEntity
8
0
100
AcDbLine
62
7
6
CONTINUOUS
10
193.0394230769
20
215.6754511461
11
192.9778166423
21
215.6754511461
0
LINE
5
23C
100
AcDbEntity
8
0
100
AcDbLine
62
7
6
CONTINUOUS
10
187.6554904185
20
215.6754511461
11
186.3015131091
21
215.6754511461
0
LINE
5
23D
100
AcDbEntity
8
0
100
AcDbLine
62
7
6
CONTINUOUS
10
98.7394230769
20
215.6754511461
11
98.8010296522
21
215.6754511461
0
LINE
5
23E
100
AcDbEntity
8
0
100
AcDbLine
62
7
6
CONTINUOUS
10
104.1233557353
20
215.6754511461
11
105.4773330448
21
215.6754511461
0
LINE
5
23F
100
AcDbEntity
8
0
100
AcDbLine
62
9
6
CONTINUOUS
10
105.3386879286
20
216.4594262574
11
186.4401582252
21
216.4594262574
0
LINE
5
240
100
AcDbEntity
8
0
100
AcDbLine
62
7
6
CONTINUOUS
10
188.5393881770
20
218.3885161594
11
187.6791433705
21
218.3885161594
0
LINE
5
241
100
AcDbEntity
8
0
100
AcDbLine
62
7
6
CONTINUOUS
10
104.0997027831
20
218.3885161594
11
103.2394610316
21
218.3885161594
0
LINE
5
242
100
AcDbEntity
8
0
100
AcDbLine
62
9
6
CONTINUOUS
10
104.1068381061
20
217.5681839795
11
103.2276415242
21
217.5687546366
0
LINE
5
243
100
AcDbEntity
8
0
100
AcDbLine
62
7
6
CONTINUOUS
10
161.8894230769
20
197.5754511461
11
161.8894230769
21
179.2693329995
0
LINE
5
244
100
AcDbEntity
8
0
100
AcDbLine
62
7
6
CONTINUOUS
10
161.8894230769
20
199.3700759921
11
161.8894230769
21
201.3754511461
0
LINE
5
245
100
AcDbEntity
8
0
100
AcDbLine
62
9
6
CONTINUOUS
10
162.6894230769
20
198.3754511461
11
162.6894231345
21
199.1412331751
0
LINE
5
246
100
AcDbEntity
8
0
100
AcDbLine
62
9
6
CONTINUOUS
10
163.3016301998
20
176.4174911122
11
163.3016261230
21
175.3993369128
0
LINE
5
247
100
AcDbEntity
8
0
100
AcDbLine
62
9
6
CONTINUOUS
10
163.8894230769
20
177.5754511461
11
163.8894230769
21
177.3075019536
0
LINE
5
248
100
AcDbEntity
8
0
100
AcDbLine
62
9
6
CONTINUOUS
10
173.6394230769
20
174.9993894530
11
173.6394230769
21
177.5754511461
0
LINE
5
249
100
AcDbEntity
8
0
100
AcDbLine
62
7
6
CONTINUOUS
10
174.1394230769
20
175.0754511461
11
174.1394230769
21
177.0754511461
0
LINE
5
24A
100
AcDbEntity
8
0
100
AcDbLine
62
9
6
CONTINUOUS
10
189.3684240916
20
233.0174387017
11
102.4104220623
21
233.0174387017
0
LINE
5
24B
100
AcDbEntity
8
0
100
AcDbLine
62
7
6
CONTINUOUS
10
189.4475904407
20
233.4754511461
11
102.3312557132
21
233.4754511461
0
LINE
5
24C
100
AcDbEntity
8
0
100
AcDbLine
62
7
6
CONTINUOUS
10
183.9494230769
20
202.3754511461
11
189.4494065421
21
233.4753576494
0
LINE
5
24D
100
AcDbEntity
8
0
100
AcDbLine
62
7
6
CONTINUOUS
10
187.0394230769
20
215.1754511461
11
187.0394230769
21
215.6754511461
0
LINE
5
24E
100
AcDbEntity
8
0
100
AcDbLine
62
7
6
CONTINUOUS
10
187.5394230769
20
202.3754511461
11
187.6791668829
21
218.3885052374
0
LINE
5
24F
100
AcDbEntity
8
0
100
AcDbLine
62
9
6
CONTINUOUS
10
190.6702812390
20
201.3754511461
11
190.6702812390
21
198.8754511461
0
LINE
5
250
100
AcDbEntity
8
0
100
AcDbLine
62
9
6
CONTINUOUS
10
192.5394230769
20
202.3754511461
11
192.5394230769
21
213.5681839795
0
LINE
5
251
100
AcDbEntity
8
0
100
AcDbLine
62
9
6
CONTINUOUS
10
193.0394230769
20
215.6754511461
11
193.0394230769
21
215.5570924641
0
LINE
5
252
100
AcDbEntity
8
0
100
AcDbLine
62
7
6
CONTINUOUS
10
193.5394230769
20
198.8754511461
11
193.5394230769
21
215.1754511461
0
LINE
5
253
100
AcDbEntity
8
0
100
AcDbLine
62
7
6
CONTINUOUS
10
307.1723395697
20
173.5754511461
11
332.4645869513
21
173.5754511461
0
LINE
5
254
100
AcDbEntity
8
0
100
AcDbLine
62
9
6
CONTINUOUS
10
306.1605640307
20
175.0754511461
11
333.4763624903
21
175.0754511461
0
LINE
5
255
100
AcDbEntity
8
0
100
AcDbLine
62
9
6
CONTINUOUS
10
306.1605640307
20
175.0754511461
11
305.6663832755
21
174.9993894530
0
LINE
5
256
100
AcDbEntity
8
0
100
AcDbLine
62
9
6
CONTINUOUS
10
306.0990058851
20
175.4754008402
11
305.6048251299
21
175.3993391472
0
LINE
5
257
100
AcDbEntity
8
0
100
AcDbLine
62
9
6
CONTINUOUS
10
331.0021903847
20
177.0754511461
11
308.6347361364
21
177.0754511461
0
LINE
5
258
100
AcDbEntity
8
0
100
AcDbLine
62
7
6
CONTINUOUS
10
331.0021903847
20
177.5754511461
11
308.6347361364
21
177.5754511461
0
LINE
5
259
100
AcDbEntity
8
0
100
AcDbLine
62
9
6
CONTINUOUS
10
333.4763624903
20
175.0754511461
11
333.9705432455
21
174.9993894530
0
LINE
5
25A
100
AcDbEntity
8
0
100
AcDbLine
62
9
6
CONTINUOUS
10
333.5379206359
20
175.4754008402
11
334.0321013912
21
175.3993391472
0
LINE
5
25B
100
AcDbEntity
8
0
100
AcDbLine
62
9
6
CONTINUOUS
10
307.5629393666
20
179.5754511461
11
332.0739871544
21
179.5754511461
0
LINE
5
25C
100
AcDbEntity
8
0
100
AcDbLine
62
9
6
CONTINUOUS
10
306.3431866403
20
175.9844752352
11
306.0931866403
21
176.4174879371
0
LINE
5
25D
100
AcDbEntity
8
0
100
AcDbLine
62
9
6
CONTINUOUS
10
307.8847361364
20
176.8744892517
11
307.6347361364
21
177.3075019536
0
LINE
5
25E
100
AcDbEntity
8
0
100
AcDbLine
62
9
6
CONTINUOUS
10
307.0327271836
20
179.2693329995
11
307.6039514211
21
178.2799435987
0
LINE
5
25F
100
AcDbEntity
8
0
100
AcDbLine
62
9
6
CONTINUOUS
10
333.2937398807
20
175.9844752352
11
331.7521903847
21
176.8744892517
0
LINE
5
260
100
AcDbEntity
8
0
100
AcDbLine
62
7
6
CONTINUOUS
10
302.0684632605
20
198.3754511461
11
302.0684632605
21
201.3754511461
0
LINE
5
261
100
AcDbEntity
8
0
100
AcDbLine
62
7
6
CONTINUOUS
10
333.5437398807
20
176.4174879371
11
332.0021903847
21
177.3075019536
0
LINE
5
262
100
AcDbEntity
8
0
100
AcDbLine
62
9
6
CONTINUOUS
10
332.0739871544
20
179.5754511461
11
332.6041993374
21
179.2693329995
0
LINE
5
263
100
AcDbEntity
8
0
100
AcDbLine
62
7
6
CONTINUOUS
10
302.0684632605
20
198.3754511461
11
305.6897973040
21
174.8472660668
0
LINE
5
264
100
AcDbEntity
8
0
100
AcDbLine
62
9
6
CONTINUOUS
10
306.0990058851
20
175.4754008402
11
306.1605640307
21
175.0754511461
0
LINE
5
265
100
AcDbEntity
8
0
100
AcDbLine
62
9
6
CONTINUOUS
10
303.3250626656
20
201.3754511461
11
303.3250626656
21
198.8754511461
0
LINE
5
266
100
AcDbEntity
8
0
100
AcDbLine
62
7
6
CONTINUOUS
10
304.1684632605
20
212.0754511461
11
304.1684632605
21
202.3754511461
0
LINE
5
267
100
AcDbEntity
8
0
100
AcDbLine
62
9
6
CONTINUOUS
10
304.2151461154
20
198.3754511461
11
304.2151461154
21
197.5754511461
0
LINE
5
268
100
AcDbEntity
8
0
100
AcDbLine
62
9
6
CONTINUOUS
10
304.2151461154
20
197.5754511461
11
307.0327271836
21
179.2693329995
0
LINE
5
269
100
AcDbEntity
8
0
100
AcDbLine
62
9
6
CONTINUOUS
10
306.3222073303
20
198.3754511461
11
306.3222073303
21
202.3754511461
0
LINE
5
26A
100
AcDbEntity
8
0
100
AcDbLine
62
9
6
CONTINUOUS
10
307.6076102823
20
202.3754511461
11
307.6076102745
21
201.3754511506
0
LINE
5
26B
100
AcDbEntity
8
0
100
AcDbLine
62
9
6
CONTINUOUS
10
308.6347361364
20
177.0754511461
11
308.6347361428
21
177.5754511461
0
LINE
5
26C
100
AcDbEntity
8
0
100
AcDbLine
62
7
6
CONTINUOUS
10
309.0832012884
20
203.6059494158
11
311.6333654098
21
217.5687512085
0
LINE
5
26D
100
AcDbEntity
8
0
100
AcDbLine
62
9
6
CONTINUOUS
10
310.0669286259
20
203.4262815957
11
311.8864297210
21
213.3885161594
0
LINE
5
26E
100
AcDbEntity
8
0
100
AcDbLine
62
9
6
CONTINUOUS
10
335.4217804056
20
197.5754511461
11
304.2151461154
21
197.5754511461
0
LINE
5
26F
100
AcDbEntity
8
0
100
AcDbLine
62
7
6
CONTINUOUS
10
337.0554479712
20
198.3754511461
11
302.5814790452
21
198.3754511461
0
LINE
5
270
100
AcDbEntity
8
0
100
AcDbLine
62
9
6
CONTINUOUS
10
312.8184632605
20
207.0754511461
11
312.8184632605
21
216.3739994779
0
LINE
5
271
100
AcDbEntity
8
0
100
AcDbLine
62
7
6
CONTINUOUS
10
316.8184632605
20
209.5754511461
11
316.8099185500
21
209.5669064356
0
LINE
5
272
100
AcDbEntity
8
0
100
AcDbLine
62
9
6
CONTINUOUS
10
330.5537252326
20
203.6059494158
11
329.5699978983
21
203.4262816041
0
LINE
5
273
100
AcDbEntity
8
0
100
AcDbLine
62
9
6
CONTINUOUS
10
337.5684632605
20
198.8754511461
11
302.0684632605
21
198.8754511461
0
LINE
5
274
100
AcDbEntity
8
0
100
AcDbLine
62
7
6
CONTINUOUS
10
303.6663573747
20
213.7369339158
11
292.9256093248
21
229.8847097612
0
LINE
5
275
100
AcDbEntity
8
0
100
AcDbLine
62
7
6
CONTINUOUS
10
313.8184632605
20
207.0754511461
11
313.8184632605
21
215.6754511461
0
LINE
5
276
100
AcDbEntity
8
0
100
AcDbLine
62
9
6
CONTINUOUS
10
313.9524378567
20
215.6754511461
11
313.9524378567
21
216.3739994779
0
LINE
5
277
100
AcDbEntity
8
0
100
AcDbLine
62
9
6
CONTINUOUS
10
314.3184632605
20
208.6754511461
11
314.3184632605
21
215.1754511461
0
LINE
5
278
100
AcDbEntity
8
0
100
AcDbLine
62
9
6
CONTINUOUS
10
302.0684632605
20
201.3754511461
11
307.6076102823
21
201.3754511461
0
LINE
5
279
100
AcDbEntity
8
0
100
AcDbLine
62
9
6
CONTINUOUS
10
332.0293162387
20
201.3754511461
11
337.5684632605
21
201.3754511461
0
LINE
5
27A
100
AcDbEntity
8
0
100
AcDbLine
62
7
6
CONTINUOUS
10
303.0684632605
20
202.3754511461
11
307.6076102823
21
202.3754511461
0
LINE
5
27B
100
AcDbEntity
8
0
100
AcDbLine
62
7
6
CONTINUOUS
10
332.0293162387
20
202.3754511461
11
336.5684632605
21
202.3754511461
0
LINE
5
27C
100
AcDbEntity
8
0
100
AcDbLine
62
9
6
CONTINUOUS
10
309.0832012884
20
203.6059494158
11
310.0669286259
21
203.4262815957
0
LINE
5
27D
100
AcDbEntity
8
0
100
AcDbLine
62
9
6
CONTINUOUS
10
315.8184632605
20
209.1754511461
11
315.8184632767
21
208.6754511461
0
LINE
5
27E
100
AcDbEntity
8
0
100
AcDbLine
62
9
6
CONTINUOUS
10
316.3184632605
20
209.6754511461
11
316.3184632605
21
212.1754511461
0
LINE
5
27F
100
AcDbEntity
8
0
100
AcDbLine
62
7
6
CONTINUOUS
10
316.8184632605
20
207.0754511461
11
316.8184632605
21
211.1754511461
0
LINE
5
280
100
AcDbEntity
8
0
100
AcDbLine
62
9
6
CONTINUOUS
10
317.8184632605
20
207.0754511461
11
317.8184632605
21
211.5754511461
0
LINE
5
281
100
AcDbEntity
8
0
100
AcDbLine
62
7
6
CONTINUOUS
10
324.9916683413
20
215.8754511461
11
326.1539119686
21
217.8885161594
0
LINE
5
282
100
AcDbEntity
8
0
100
AcDbLine
62
9
6
CONTINUOUS
10
326.8184632605
20
207.0754511461
11
325.8184632605
21
207.0754511392
0
LINE
5
283
100
AcDbEntity
8
0
100
AcDbLine
62
9
6
CONTINUOUS
10
313.8184632605
20
207.0754511461
11
312.8184632642
21
207.0754511493
0
LINE
5
284
100
AcDbEntity
8
0
100
AcDbLine
62
9
6
CONTINUOUS
10
316.8184632605
20
207.0754511461
11
317.8184632605
21
207.0754511461
0
LINE
5
285
100
AcDbEntity
8
0
100
AcDbLine
62
9
6
CONTINUOUS
10
321.8184632605
20
207.0754511461
11
322.8184632605
21
207.0754511461
0
LINE
5
286
100
AcDbEntity
8
0
100
AcDbLine
62
7
6
CONTINUOUS
10
313.8684632605
20
208.3754511461
11
316.8184632605
21
208.3754511461
0
LINE
5
287
100
AcDbEntity
8
0
100
AcDbLine
62
7
6
CONTINUOUS
10
322.8184632605
20
208.3754511461
11
325.7684632605
21
208.3754511461
0
LINE
5
288
100
AcDbEntity
8
0
100
AcDbLine
62
7
6
CONTINUOUS
10
314.3184632605
20
208.6754511461
11
316.8184632605
21
208.6754511461
0
LINE
5
289
100
AcDbEntity
8
0
100
AcDbLine
62
7
6
CONTINUOUS
10
322.8184632605
20
208.6754511461
11
325.3184632605
21
208.6754511461
0
LINE
5
28A
100
AcDbEntity
8
0
100
AcDbLine
62
7
6
CONTINUOUS
10
308.8832348422
20
222.1254511461
11
303.6293473926
21
231.2254511461
0
LINE
5
28B
100
AcDbEntity
8
0
100
AcDbLine
62
9
6
CONTINUOUS
10
321.8184632605
20
207.0754511461
11
321.8184632605
21
211.5754511461
0
LINE
5
28C
100
AcDbEntity
8
0
100
AcDbLine
62
7
6
CONTINUOUS
10
322.8184632605
20
207.0754511461
11
322.8184632605
21
211.1754511461
0
LINE
5
28D
100
AcDbEntity
8
0
100
AcDbLine
62
9
6
CONTINUOUS
10
328.7342241374
20
213.5681839795
11
327.7504968000
21
213.3885161594
0
LINE
5
28E
100
AcDbEntity
8
0
100
AcDbLine
62
9
6
CONTINUOUS
10
322.9556493270
20
209.1754511461
11
322.8184632605
21
209.1754511461
0
LINE
5
28F
100
AcDbEntity
8
0
100
AcDbLine
62
9
6
CONTINUOUS
10
316.8184632605
20
209.1754511461
11
316.6812773377
21
209.1754511461
0
LINE
5
290
100
AcDbEntity
8
0
100
AcDbLine
62
9
6
CONTINUOUS
10
313.8184632605
20
209.1754511461
11
315.8184632605
21
209.1754511461
0
LINE
5
291
100
AcDbEntity
8
0
100
AcDbLine
62
9
6
CONTINUOUS
10
323.8184632605
20
209.1754511461
11
325.8184632605
21
209.1754511461
0
LINE
5
292
100
AcDbEntity
8
0
100
AcDbLine
62
9
6
CONTINUOUS
10
323.3184632605
20
209.6754511461
11
322.8184632605
21
209.6754511298
0
LINE
5
293
100
AcDbEntity
8
0
100
AcDbLine
62
9
6
CONTINUOUS
10
316.3184632605
20
209.6754511461
11
316.8184632605
21
209.6754511461
0
LINE
5
294
100
AcDbEntity
8
0
100
AcDbLine
62
9
6
CONTINUOUS
10
316.8184632605
20
210.5754511461
11
322.8184632605
21
210.5754511461
0
LINE
5
295
100
AcDbEntity
8
0
100
AcDbLine
62
7
6
CONTINUOUS
10
294.7291782085
20
232.1091493306
11
306.5235365647
21
220.3147909743
0
LINE
5
296
100
AcDbEntity
8
0
100
AcDbLine
62
7
6
CONTINUOUS
10
313.4830145524
20
217.8885161594
11
314.6452581798
21
215.8754511461
0
LINE
5
297
100
AcDbEntity
8
0
100
AcDbLine
62
9
6
CONTINUOUS
10
323.3184632605
20
212.1754511461
11
323.3184632605
21
209.6754511461
0
LINE
5
298
100
AcDbEntity
8
0
100
AcDbLine
62
9
6
CONTINUOUS
10
323.8184632605
20
209.1754511461
11
323.8184632605
21
208.6754511461
0
LINE
5
299
100
AcDbEntity
8
0
100
AcDbLine
62
9
6
CONTINUOUS
10
325.3184632605
20
208.6754511461
11
325.3184632605
21
215.1754511461
0
LINE
5
29A
100
AcDbEntity
8
0
100
AcDbLine
62
7
6
CONTINUOUS
10
317.0215052272
20
211.5754511461
11
322.6154212938
21
211.5754511461
0
LINE
5
29B
100
AcDbEntity
8
0
100
AcDbLine
62
7
6
CONTINUOUS
10
322.3184632605
20
211.6754511461
11
317.3184632605
21
211.6754511461
0
LINE
5
29C
100
AcDbEntity
8
0
100
AcDbLine
62
9
6
CONTINUOUS
10
323.3184632605
20
212.1754511461
11
316.3184632605
21
212.1754511461
0
LINE
5
29D
100
AcDbEntity
8
0
100
AcDbLine
62
9
6
CONTINUOUS
10
327.7504968000
20
213.3885161594
11
325.8184632605
21
213.3885161594
0
LINE
5
29E
100
AcDbEntity
8
0
100
AcDbLine
62
9
6
CONTINUOUS
10
313.8184632605
20
213.3885161594
11
311.8864297210
21
213.3885161594
0
LINE
5
29F
100
AcDbEntity
8
0
100
AcDbLine
62
9
6
CONTINUOUS
10
310.9027023836
20
213.5681839795
11
311.8864297206
21
213.3885161573
0
LINE
5
2A0
100
AcDbEntity
8
0
100
AcDbLine
62
7
6
CONTINUOUS
10
322.8270079427
20
209.5669064638
11
322.8184632605
21
209.5754511461
0
LINE
5
2A1
100
AcDbEntity
8
0
100
AcDbLine
62
9
6
CONTINUOUS
10
325.6844886643
20
215.6754511461
11
325.6844886643
21
216.3739994779
0
LINE
5
2A2
100
AcDbEntity
8
0
100
AcDbLine
62
7
6
CONTINUOUS
10
325.8184632605
20
215.6754511461
11
325.8184632605
21
207.0754511461
0
LINE
5
2A3
100
AcDbEntity
8
0
100
AcDbLine
62
9
6
CONTINUOUS
10
326.8184632605
20
216.3739994779
11
326.8184632605
21
207.0754511461
0
LINE
5
2A4
100
AcDbEntity
8
0
100
AcDbLine
62
9
6
CONTINUOUS
10
314.3184632605
20
215.1754511461
11
325.3184632605
21
215.1754511461
0
LINE
5
2A5
100
AcDbEntity
8
0
100
AcDbLine
62
7
6
CONTINUOUS
10
313.8184632605
20
215.5754511461
11
313.7938383221
21
215.5754511461
0
LINE
5
2A6
100
AcDbEntity
8
0
100
AcDbLine
62
7
6
CONTINUOUS
10
313.8184632605
20
215.6754511461
11
325.8184632605
21
215.6754511461
0
LINE
5
2A7
100
AcDbEntity
8
0
100
AcDbLine
62
9
6
CONTINUOUS
10
326.8184632605
20
216.3739994779
11
325.6844886643
21
216.3739994779
0
LINE
5
2A8
100
AcDbEntity
8
0
100
AcDbLine
62
9
6
CONTINUOUS
10
313.9524378567
20
216.3739994779
11
312.8184632605
21
216.3739994779
0
LINE
5
2A9
100
AcDbEntity
8
0
100
AcDbLine
62
7
6
CONTINUOUS
10
325.4535485566
20
216.6754511461
11
314.1833779644
21
216.6754511461
0
LINE
5
2AA
100
AcDbEntity
8
0
100
AcDbLine
62
7
6
CONTINUOUS
10
327.0199393458
20
218.3885161594
11
327.0198134961
21
218.3885161594
0
LINE
5
2AB
100
AcDbEntity
8
0
100
AcDbLine
62
7
6
CONTINUOUS
10
305.9703730539
20
233.0544608466
11
319.0712130171
21
220.4031267536
0
LINE
5
2AC
100
AcDbEntity
8
0
100
AcDbLine
62
7
6
CONTINUOUS
10
321.5124355544
20
222.1254511461
11
316.2585481048
21
231.2254511461
0
LINE
5
2AD
100
AcDbEntity
8
0
100
AcDbLine
62
9
6
CONTINUOUS
10
327.7504968000
20
213.3885161594
11
329.5699978952
21
203.4262815957
0
LINE
5
2AE
100
AcDbEntity
8
0
100
AcDbLine
62
7
6
CONTINUOUS
10
328.0035604851
20
217.5687546366
11
330.5537252326
21
203.6059494158
0
LINE
5
2AF
100
AcDbEntity
8
0
100
AcDbLine
62
9
6
CONTINUOUS
10
331.0021903847
20
177.0754511461
11
331.0021903847
21
177.5754511461
0
LINE
5
2B0
100
AcDbEntity
8
0
100
AcDbLine
62
9
6
CONTINUOUS
10
332.0293162387
20
202.3754511461
11
332.0293162387
21
201.3754511461
0
LINE
5
2B1
100
AcDbEntity
8
0
100
AcDbLine
62
9
6
CONTINUOUS
10
307.5629393666
20
179.5754511461
11
307.0327271836
21
179.2693329995
0
LINE
5
2B2
100
AcDbEntity
8
0
100
AcDbLine
62
9
6
CONTINUOUS
10
333.3147191907
20
198.3754511461
11
333.3147191907
21
202.3754511461
0
LINE
5
2B3
100
AcDbEntity
8
0
100
AcDbLine
62
7
6
CONTINUOUS
10
307.6347361364
20
177.3075019536
11
306.0931866403
21
176.4174879371
0
LINE
5
2B4
100
AcDbEntity
8
0
100
AcDbLine
62
9
6
CONTINUOUS
10
307.8847361364
20
176.8744892517
11
306.3431866403
21
175.9844752352
0
LINE
5
2B5
100
AcDbEntity
8
0
100
AcDbLine
62
9
6
CONTINUOUS
10
335.4217804056
20
198.3754511461
11
335.4217804056
21
197.5754511461
0
LINE
5
2B6
100
AcDbEntity
8
0
100
AcDbLine
62
7
6
CONTINUOUS
10
335.4684632605
20
214.3754511461
11
335.4684632605
21
202.3754511461
0
LINE
5
2B7
100
AcDbEntity
8
0
100
AcDbLine
62
9
6
CONTINUOUS
10
336.3118638554
20
198.8754511461
11
336.3118638554
21
201.3754511461
0
LINE
5
2B8
100
AcDbEntity
8
0
100
AcDbLine
62
7
6
CONTINUOUS
10
337.5684632605
20
198.3754511461
11
337.5684632605
21
201.3754511461
0
LINE
5
2B9
100
AcDbEntity
8
0
100
AcDbLine
62
9
6
CONTINUOUS
10
332.6041993374
20
179.2693329995
11
335.4217804056
21
197.5754511461
0
LINE
5
2BA
100
AcDbEntity
8
0
100
AcDbLine
62
9
6
CONTINUOUS
10
333.4763624903
20
175.0754511461
11
333.5379206359
21
175.4754008402
0
LINE
5
2BB
100
AcDbEntity
8
0
100
AcDbLine
62
7
6
CONTINUOUS
10
333.9471292170
20
174.8472660668
11
337.5684632605
21
198.3754511461
0
LINE
5
2BC
100
AcDbEntity
8
0
100
AcDbLine
62
7
6
CONTINUOUS
10
318.6365959109
20
233.0174387017
11
334.6264826615
21
216.4594262574
0
LINE
5
2BD
100
AcDbEntity
8
0
100
AcDbLine
62
9
6
CONTINUOUS
10
332.0329751000
20
178.2799435985
11
332.6041993374
21
179.2693329995
0
LINE
5
2BE
100
AcDbEntity
8
0
100
AcDbLine
62
9
6
CONTINUOUS
10
331.7521903847
20
176.8744892517
11
332.0021903860
21
177.3075019529
0
LINE
5
2BF
100
AcDbEntity
8
0
100
AcDbLine
62
9
6
CONTINUOUS
10
333.2937398807
20
175.9844752352
11
333.5437398807
21
176.4174879371
0
LINE
5
2C0
100
AcDbEntity
8
0
100
AcDbLine
62
7
6
CONTINUOUS
10
98.2394230769
20
95.8954308093
11
98.2394230769
21
114.8916867395
0
LINE
5
2C1
100
AcDbEntity
8
0
100
AcDbLine
62
7
6
CONTINUOUS
10
98.2394230769
20
115.0506825422
11
98.2394230769
21
122.8879426697
0
LINE
5
2C2
100
AcDbEntity
8
0
100
AcDbLine
62
9
6
CONTINUOUS
10
98.7394230769
20
115.3916867395
11
98.7394230769
21
103.3916867395
0
LINE
5
2C3
100
AcDbEntity
8
0
100
AcDbLine
62
7
6
CONTINUOUS
10
99.1296612597
20
102.8038901682
11
99.1296612597
21
103.5256613357
0
LINE
5
2C4
100
AcDbEntity
8
0
100
AcDbLine
62
7
6
CONTINUOUS
10
99.1296612597
20
115.2577121433
11
99.1296612597
21
115.9794833108
0
LINE
5
2C5
100
AcDbEntity
8
0
100
AcDbLine
62
9
6
CONTINUOUS
10
99.2285766133
20
102.3916867395
11
99.2285766133
21
103.5256613357
0
LINE
5
2C6
100
AcDbEntity
8
0
100
AcDbLine
62
9
6
CONTINUOUS
10
99.2285766133
20
115.2577121433
11
99.2285766133
21
116.3916867395
0
LINE
5
2C7
100
AcDbEntity
8
0
100
AcDbLine
62
9
6
CONTINUOUS
10
99.2394230769
20
122.8879426697
11
99.2394230769
21
118.3074476164
0
LINE
5
2C8
100
AcDbEntity
8
0
100
AcDbLine
62
9
6
CONTINUOUS
10
99.2394230769
20
100.4759258626
11
99.2394230769
21
95.8954308093
0
LINE
5
2C9
100
AcDbEntity
8
0
100
AcDbLine
62
9
6
CONTINUOUS
10
100.0315439277
20
114.5648918202
11
100.0315439277
21
114.5380969010
0
LINE
5
2CA
100
AcDbEntity
8
0
100
AcDbLine
62
9
6
CONTINUOUS
10
100.0315439276
20
104.2452765780
11
100.0315439276
21
104.2184816587
0
LINE
5
2CB
100
AcDbEntity
8
0
100
AcDbLine
62
7
6
CONTINUOUS
10
104.1068381061
20
101.2064852902
11
104.2286846812
21
98.6564247674
0
LINE
5
2CC
100
AcDbEntity
8
0
100
AcDbLine
62
9
6
CONTINUOUS
10
101.1521843022
20
124.8860391128
11
101.1085649219
21
125.8850873347
0
LINE
5
2CD
100
AcDbEntity
8
0
100
AcDbLine
62
9
6
CONTINUOUS
10
101.1521843022
20
93.8973343661
11
101.1085649148
21
92.8982861446
0
LINE
5
2CE
100
AcDbEntity
8
0
100
AcDbLine
62
7
6
CONTINUOUS
10
102.4104220623
20
110.5735540891
11
105.3386879286
21
94.5836673385
0
LINE
5
2CF
100
AcDbEntity
8
0
100
AcDbLine
62
7
6
CONTINUOUS
10
104.2394230769
20
100.5862372176
11
104.2394230769
21
97.1808337613
0
LINE
5
2D0
100
AcDbEntity
8
0
100
AcDbLine
62
7
6
CONTINUOUS
10
102.5710520154
20
134.4809717915
11
104.1094970345
21
125.7817645018
0
LINE
5
2D1
100
AcDbEntity
8
0
100
AcDbLine
62
7
6
CONTINUOUS
10
102.4038747376
20
123.2397769461
11
104.1265788157
21
113.1525637896
0
LINE
5
2D2
100
AcDbEntity
8
0
100
AcDbLine
62
7
6
CONTINUOUS
10
99.2264068406
20
114.9621012307
11
99.2262845988
21
114.9622679559
0
LINE
5
2D3
100
AcDbEntity
8
0
100
AcDbLine
62
7
6
CONTINUOUS
10
99.2265824264
20
103.8215107064
11
99.2268190698
21
103.8218337939
0
LINE
5
2D4
100
AcDbEntity
8
0
100
AcDbLine
62
7
6
CONTINUOUS
10
161.8894230769
20
91.6416867395
11
190.6702812390
21
92.8982861446
0
LINE
5
2D5
100
AcDbEntity
8
0
100
AcDbLine
62
9
6
CONTINUOUS
10
161.8676029993
20
92.6416867395
11
190.6266618517
21
93.8973343661
0
LINE
5
2D6
100
AcDbEntity
8
0
100
AcDbLine
62
7
6
CONTINUOUS
10
129.8894230769
20
91.6416867395
11
161.8894230769
21
91.6416867395
0
LINE
5
2D7
100
AcDbEntity
8
0
100
AcDbLine
62
9
6
CONTINUOUS
10
129.9112431545
20
92.6416867395
11
161.8676029993
21
92.6416867395
0
LINE
5
2D8
100
AcDbEntity
8
0
100
AcDbLine
62
7
6
CONTINUOUS
10
101.1085649148
20
92.8982861446
11
129.8894230769
21
91.6416867395
0
LINE
5
2D9
100
AcDbEntity
8
0
100
AcDbLine
62
9
6
CONTINUOUS
10
101.1521843022
20
93.8973343661
11
129.9112431545
21
92.6416867395
0
LINE
5
2DA
100
AcDbEntity
8
0
100
AcDbLine
62
7
6
CONTINUOUS
10
186.0716095721
20
93.7416867395
11
105.7072365817
21
93.7416867395
0
LINE
5
2DB
100
AcDbEntity
8
0
100
AcDbLine
62
9
6
CONTINUOUS
10
105.3386879286
20
94.5836673385
11
186.4401582252
21
94.5836673385
0
LINE
5
2DC
100
AcDbEntity
8
0
100
AcDbLine
62
9
6
CONTINUOUS
10
99.2394230769
20
95.8954308093
11
98.2394230769
21
95.8954308156
0
LINE
5
2DD
100
AcDbEntity
8
0
100
AcDbLine
62
9
6
CONTINUOUS
10
192.5394230769
20
95.8954308093
11
193.5394230769
21
95.8954308093
0
LINE
5
2DE
100
AcDbEntity
8
0
100
AcDbLine
62
9
6
CONTINUOUS
10
98.2394230769
20
97.1808337613
11
104.2394230769
21
97.1808337613
0
LINE
5
2DF
100
AcDbEntity
8
0
100
AcDbLine
62
9
6
CONTINUOUS
10
187.5394230769
20
97.1808337613
11
193.5394230769
21
97.1808337556
0
LINE
5
2E0
100
AcDbEntity
8
0
100
AcDbLine
62
9
6
CONTINUOUS
10
99.2394230769
20
98.6564247674
11
104.2286846812
21
98.6564247674
0
LINE
5
2E1
100
AcDbEntity
8
0
100
AcDbLine
62
9
6
CONTINUOUS
10
187.5501614726
20
98.6564247674
11
192.5394230769
21
98.6564247674
0
LINE
5
2E2
100
AcDbEntity
8
0
100
AcDbLine
62
9
6
CONTINUOUS
10
188.5445604063
20
101.2065883332
11
187.6720080477
21
101.2064852902
0
LINE
5
2E3
100
AcDbEntity
8
0
100
AcDbLine
62
9
6
CONTINUOUS
10
193.5394230769
20
102.3916867395
11
192.5502695405
21
102.3916867395
0
LINE
5
2E4
100
AcDbEntity
8
0
100
AcDbLine
62
9
6
CONTINUOUS
10
99.2285766133
20
102.3916867395
11
98.2394230769
21
102.3916867395
0
LINE
5
2E5
100
AcDbEntity
8
0
100
AcDbLine
62
9
6
CONTINUOUS
10
190.0184430227
20
103.0562380314
11
187.9917601814
21
103.0562380314
0
LINE
5
2E6
100
AcDbEntity
8
0
100
AcDbLine
62
9
6
CONTINUOUS
10
103.7870859725
20
103.0562380314
11
101.7604031311
21
103.0562380314
0
LINE
5
2E7
100
AcDbEntity
8
0
100
AcDbLine
62
7
6
CONTINUOUS
10
193.0394230769
20
103.3916867395
11
192.6491848942
21
103.3916867395
0
LINE
5
2E8
100
AcDbEntity
8
0
100
AcDbLine
62
7
6
CONTINUOUS
10
98.7394230769
20
103.3916867395
11
99.1296612597
21
103.3916867395
0
LINE
5
2E9
100
AcDbEntity
8
0
100
AcDbLine
62
9
6
CONTINUOUS
10
192.6491848505
20
103.5256613357
11
192.5502695405
21
103.5256613357
0
LINE
5
2EA
100
AcDbEntity
8
0
100
AcDbLine
62
9
6
CONTINUOUS
10
99.1296612597
20
103.5256613357
11
99.2285766133
21
103.5256613357
0
LINE
5
2EB
100
AcDbEntity
8
0
100
AcDbLine
62
9
6
CONTINUOUS
10
104.1068381061
20
101.2064852902
11
103.2276415242
21
101.2065895149
0
LINE
5
2EC
100
AcDbEntity
8
0
100
AcDbLine
62
9
6
CONTINUOUS
10
191.7473022262
20
104.2184816587
11
188.2046046121
21
104.2184816587
0
LINE
5
2ED
100
AcDbEntity
8
0
100
AcDbLine
62
9
6
CONTINUOUS
10
103.5742415418
20
104.2184816587
11
100.0315439276
21
104.2184816587
0
LINE
5
2EE
100
AcDbEntity
8
0
100
AcDbLine
62
7
6
CONTINUOUS
10
191.7473022262
20
104.2452765780
11
188.2095116291
21
104.2452765780
0
LINE
5
2EF
100
AcDbEntity
8
0
100
AcDbLine
62
7
6
CONTINUOUS
10
103.5693345247
20
104.2452765780
11
100.0315439276
21
104.2452765780
0
LINE
5
2F0
100
AcDbEntity
8
0
100
AcDbLine
62
9
6
CONTINUOUS
10
189.3684240916
20
110.5735540891
11
102.4104220623
21
110.5735540891
0
LINE
5
2F1
100
AcDbEntity
8
0
100
AcDbLine
62
7
6
CONTINUOUS
10
189.1842557201
20
113.1525637896
11
102.5945904337
21
113.1525637896
0
LINE
5
2F2
100
AcDbEntity
8
0
100
AcDbLine
62
7
6
CONTINUOUS
10
191.7473022262
20
114.5380969010
11
187.8888900311
21
114.5380969010
0
LINE
5
2F3
100
AcDbEntity
8
0
100
AcDbLine
62
7
6
CONTINUOUS
10
103.8899561228
20
114.5380969010
11
100.0315439277
21
114.5380969010
0
LINE
5
2F4
100
AcDbEntity
8
0
100
AcDbLine
62
9
6
CONTINUOUS
10
103.3709954319
20
117.5768469540
11
103.2269209839
21
117.5767845902
0
LINE
5
2F5
100
AcDbEntity
8
0
100
AcDbLine
62
9
6
CONTINUOUS
10
191.7473022262
20
114.5648918202
11
187.8934660935
21
114.5648918202
0
LINE
5
2F6
100
AcDbEntity
8
0
100
AcDbLine
62
9
6
CONTINUOUS
10
103.8853800604
20
114.5648918202
11
100.0315439277
21
114.5648918202
0
LINE
5
2F7
100
AcDbEntity
8
0
100
AcDbLine
62
9
6
CONTINUOUS
10
192.6491848942
20
115.2577121433
11
192.5502695405
21
115.2577121433
0
LINE
5
2F8
100
AcDbEntity
8
0
100
AcDbLine
62
9
6
CONTINUOUS
10
99.1296613034
20
115.2577121433
11
99.2285766133
21
115.2577121433
0
LINE
5
2F9
100
AcDbEntity
8
0
100
AcDbLine
62
7
6
CONTINUOUS
10
193.0394230769
20
115.3916867395
11
192.6491848942
21
115.3916867395
0
LINE
5
2FA
100
AcDbEntity
8
0
100
AcDbLine
62
7
6
CONTINUOUS
10
98.7394230769
20
115.3916867395
11
99.1296612597
21
115.3916867395
0
LINE
5
2FB
100
AcDbEntity
8
0
100
AcDbLine
62
9
6
CONTINUOUS
10
190.0184430227
20
115.7271354476
11
188.0919551911
21
115.7271354476
0
LINE
5
2FC
100
AcDbEntity
8
0
100
AcDbLine
62
9
6
CONTINUOUS
10
103.6868909628
20
115.7271354476
11
101.7604031311
21
115.7271354476
0
LINE
5
2FD
100
AcDbEntity
8
0
100
AcDbLine
62
9
6
CONTINUOUS
10
98.2394230769
20
116.3916867395
11
99.2285766133
21
116.3916867395
0
LINE
5
2FE
100
AcDbEntity
8
0
100
AcDbLine
62
9
6
CONTINUOUS
10
192.5502695405
20
116.3916867395
11
193.5394230769
21
116.3916867395
0
LINE
5
2FF
100
AcDbEntity
8
0
100
AcDbLine
62
9
6
CONTINUOUS
10
188.5402649724
20
117.5767134654
11
188.4078449819
21
117.5768133431
0
LINE
5
300
100
AcDbEntity
8
0
100
AcDbLine
62
9
6
CONTINUOUS
10
99.2394230769
20
120.1269487116
11
102.9354865724
21
120.1269487116
0
LINE
5
301
100
AcDbEntity
8
0
100
AcDbLine
62
9
6
CONTINUOUS
10
188.8433595815
20
120.1269487116
11
192.5394230769
21
120.1269487116
0
LINE
5
302
100
AcDbEntity
8
0
100
AcDbLine
62
9
6
CONTINUOUS
10
98.2394230769
20
121.6025397255
11
102.6834837046
21
121.6025397177
0
LINE
5
303
100
AcDbEntity
8
0
100
AcDbLine
62
9
6
CONTINUOUS
10
189.0953624493
20
121.6025397177
11
193.5394230769
21
121.6025397177
0
LINE
5
304
100
AcDbEntity
8
0
100
AcDbLine
62
9
6
CONTINUOUS
10
99.2394230769
20
122.8879426697
11
98.2394230769
21
122.8879426697
0
LINE
5
305
100
AcDbEntity
8
0
100
AcDbLine
62
9
6
CONTINUOUS
10
192.5394230769
20
122.8879426697
11
193.5394230769
21
122.8879426633
0
LINE
5
306
100
AcDbEntity
8
0
100
AcDbLine
62
9
6
CONTINUOUS
10
189.3749714162
20
123.2397769461
11
102.4038747376
21
123.2397769461
0
LINE
5
307
100
AcDbEntity
8
0
100
AcDbLine
62
9
6
CONTINUOUS
10
102.3569558693
20
124.9386405754
11
101.1521843022
21
124.8860391128
0
LINE
5
308
100
AcDbEntity
8
0
100
AcDbLine
62
7
6
CONTINUOUS
10
104.0683706971
20
126.0143152457
11
101.1085649148
21
125.8850873344
0
LINE
5
309
100
AcDbEntity
8
0
100
AcDbLine
62
7
6
CONTINUOUS
10
189.1842506621
20
125.7817645018
11
102.5945954918
21
125.7817645018
0
LINE
5
30A
100
AcDbEntity
8
0
100
AcDbLine
62
9
6
CONTINUOUS
10
190.6266618517
20
124.8860391128
11
189.4218902846
21
124.9386405754
0
LINE
5
30B
100
AcDbEntity
8
0
100
AcDbLine
62
7
6
CONTINUOUS
10
190.6702812390
20
125.8850873344
11
187.7104754567
21
126.0143152457
0
LINE
5
30C
100
AcDbEntity
8
0
100
AcDbLine
62
7
6
CONTINUOUS
10
189.2077941385
20
134.4809717915
11
102.5710520154
21
134.4809717915
0
LINE
5
30D
100
AcDbEntity
8
0
100
AcDbLine
62
7
6
CONTINUOUS
10
188.9612644398
20
136.5355936181
11
102.8175817140
21
136.5355936181
0
LINE
5
30E
100
AcDbEntity
8
0
100
AcDbLine
62
7
6
CONTINUOUS
10
192.5524393132
20
103.8212722483
11
192.5525615551
21
103.8211055230
0
LINE
5
30F
100
AcDbEntity
8
0
100
AcDbLine
62
7
6
CONTINUOUS
10
192.5522637275
20
114.9618627726
11
192.5520270841
21
114.9615396851
0
LINE
5
310
100
AcDbEntity
8
0
100
AcDbLine
62
7
6
CONTINUOUS
10
187.5394230769
20
97.1808337613
11
187.5394230769
21
100.5862372176
0
LINE
5
311
100
AcDbEntity
8
0
100
AcDbLine
62
7
6
CONTINUOUS
10
187.6720080477
20
101.2064852902
11
187.5501614726
21
98.6564247674
0
LINE
5
312
100
AcDbEntity
8
0
100
AcDbLine
62
7
6
CONTINUOUS
10
189.3749714162
20
123.2397769461
11
187.6522673381
21
113.1525637896
0
LINE
5
313
100
AcDbEntity
8
0
100
AcDbLine
62
7
6
CONTINUOUS
10
189.2077941385
20
134.4809717915
11
187.6693491194
21
125.7817645018
0
LINE
5
314
100
AcDbEntity
8
0
100
AcDbLine
62
9
6
CONTINUOUS
10
190.6266618517
20
93.8973343661
11
190.6702812320
21
92.8982861443
0
LINE
5
315
100
AcDbEntity
8
0
100
AcDbLine
62
9
6
CONTINUOUS
10
191.7473022262
20
104.2184816587
11
191.7473022262
21
104.2452765780
0
LINE
5
316
100
AcDbEntity
8
0
100
AcDbLine
62
9
6
CONTINUOUS
10
191.7473022262
20
114.5380969010
11
191.7473022262
21
114.5648918202
0
LINE
5
317
100
AcDbEntity
8
0
100
AcDbLine
62
9
6
CONTINUOUS
10
190.6266618517
20
124.8860391128
11
190.6702812390
21
125.8850873344
0
LINE
5
318
100
AcDbEntity
8
0
100
AcDbLine
62
7
6
CONTINUOUS
10
189.3684240916
20
110.5735540891
11
186.4401582252
21
94.5836673385
0
LINE
5
319
100
AcDbEntity
8
0
100
AcDbLine
62
9
6
CONTINUOUS
10
192.5394230769
20
95.8954308093
11
192.5394230769
21
100.4759258626
0
LINE
5
31A
100
AcDbEntity
8
0
100
AcDbLine
62
9
6
CONTINUOUS
10
192.5394230769
20
118.3074476164
11
192.5394230769
21
122.8879426697
0
LINE
5
31B
100
AcDbEntity
8
0
100
AcDbLine
62
9
6
CONTINUOUS
10
192.5502695405
20
116.3916867395
11
192.5502695405
21
115.2577121433
0
LINE
5
31C
100
AcDbEntity
8
0
100
AcDbLine
62
9
6
CONTINUOUS
10
192.5502695405
20
103.5256613357
11
192.5502695405
21
102.3916867395
0
LINE
5
31D
100
AcDbEntity
8
0
100
AcDbLine
62
7
6
CONTINUOUS
10
192.6491848942
20
115.9794833108
11
192.6491848942
21
115.2577121433
0
LINE
5
31E
100
AcDbEntity
8
0
100
AcDbLine
62
7
6
CONTINUOUS
10
192.6491848942
20
103.5256613357
11
192.6491848942
21
102.8038901682
0
LINE
5
31F
100
AcDbEntity
8
0
100
AcDbLine
62
9
6
CONTINUOUS
10
193.0394230769
20
103.3916867395
11
193.0394230769
21
115.3916867395
0
LINE
5
320
100
AcDbEntity
8
0
100
AcDbLine
62
7
6
CONTINUOUS
10
193.5394230769
20
95.8954308093
11
193.5394230769
21
122.8879426697
0
ARC
5
321
100
AcDbEntity
8
0
100
AcDbCircle
62
7
6
CONTINUOUS
10
193.0394230769
20
215.1754511461
40
0.5000000000
100
AcDbArc
50
0.0000000000
51
90.0000000000
0
ARC
5
322
100
AcDbEntity
8
0
100
AcDbCircle
62
7
6
CONTINUOUS
10
98.7394230769
20
215.1754511461
40
0.5000000000
100
AcDbArc
50
90.0000000000
51
180.0000000000
0
ARC
5
323
100
AcDbEntity
8
0
100
AcDbCircle
62
7
6
CONTINUOUS
10
98.7394230769
20
198.8754511461
40
0.5000000000
100
AcDbArc
50
180.0000000000
51
270.0000000000
0
ARC
5
324
100
AcDbEntity
8
0
100
AcDbCircle
62
7
6
CONTINUOUS
10
99.2394230769
20
201.3754511461
40
1.0000000000
100
AcDbArc
50
90.0000000000
51
180.0000000000
0
ARC
5
325
100
AcDbEntity
8
0
100
AcDbCircle
62
7
6
CONTINUOUS
10
192.5394230769
20
201.3754511461
40
1.0000000000
100
AcDbArc
50
0.0000000000
51
90.0000000000
0
ARC
5
326
100
AcDbEntity
8
0
100
AcDbCircle
62
7
6
CONTINUOUS
10
118.1394230769
20
177.0754511461
40
0.5000000000
100
AcDbArc
50
90.0000000000
51
180.0000000000
0
ARC
5
327
100
AcDbEntity
8
0
100
AcDbCircle
62
7
6
CONTINUOUS
10
155.8894230769
20
196.8754511461
40
1.5000000000
100
AcDbArc
50
0.0000000000
51
90.0000000000
0
ARC
5
328
100
AcDbEntity
8
0
100
AcDbCircle
62
7
6
CONTINUOUS
10
135.8894230769
20
196.8754511461
40
1.5000000000
100
AcDbArc
50
90.0000000000
51
180.0000000000
0
ARC
5
329
100
AcDbEntity
8
0
100
AcDbCircle
62
7
6
CONTINUOUS
10
133.9894230769
20
173.9754511461
40
0.4000000000
100
AcDbArc
50
270.0000000000
51
360.0000000000
0
ARC
5
32A
100
AcDbEntity
8
0
100
AcDbCircle
62
7
6
CONTINUOUS
10
157.8894230769
20
174.0754511461
40
0.5000000000
100
AcDbArc
50
180.0000000000
51
270.0000000000
0
ARC
5
32B
100
AcDbEntity
8
0
100
AcDbCircle
62
7
6
CONTINUOUS
10
162.6894230769
20
197.5754511461
40
0.8000000000
100
AcDbArc
50
90.0000000000
51
180.0000000000
0
ARC
5
32C
100
AcDbEntity
8
0
100
AcDbCircle
62
7
6
CONTINUOUS
10
129.0894828666
20
197.5754511461
40
0.7999829172
100
AcDbArc
50
0.0000000000
51
90.0000000000
0
ARC
5
32D
100
AcDbEntity
8
0
100
AcDbCircle
62
7
6
CONTINUOUS
10
193.0394230769
20
198.8754511461
40
0.5000000000
100
AcDbArc
50
270.0000000000
51
360.0000000000
0
ARC
5
32E
100
AcDbEntity
8
0
100
AcDbCircle
62
7
6
CONTINUOUS
10
163.8894230769
20
179.5754511461
40
2.0000000000
100
AcDbArc
50
185.8568549327
51
270.0000000000
0
ARC
5
32F
100
AcDbEntity
8
0
100
AcDbCircle
62
7
6
CONTINUOUS
10
127.8894230769
20
179.5754511461
40
2.0000000000
100
AcDbArc
50
270.0000000000
51
354.1640053104
0
ARC
5
330
100
AcDbEntity
8
0
100
AcDbCircle
62
7
6
CONTINUOUS
10
103.2394230769
20
213.3885161594
40
5.0000000000
100
AcDbArc
50
89.9952849578
51
180.0000000000
0
ARC
5
331
100
AcDbEntity
8
0
100
AcDbCircle
62
7
6
CONTINUOUS
10
188.5394230769
20
213.3885161594
40
5.0000000000
100
AcDbArc
50
0.0000000000
51
89.9915967734
0
ARC
5
332
100
AcDbEntity
8
0
100
AcDbCircle
62
7
6
CONTINUOUS
10
119.1394230769
20
175.0754511461
40
1.5000000000
100
AcDbArc
50
180.0000000000
51
270.0000000000
0
ARC
5
333
100
AcDbEntity
8
0
100
AcDbCircle
62
7
6
CONTINUOUS
10
173.6394230769
20
177.0754511461
40
0.5000000000
100
AcDbArc
50
0.0000000000
51
90.0000000000
0
ARC
5
334
100
AcDbEntity
8
0
100
AcDbCircle
62
7
6
CONTINUOUS
10
172.6394230769
20
175.0754511461
40
1.5000000000
100
AcDbArc
50
270.0000000000
51
360.0000000000
0
ARC
5
335
100
AcDbEntity
8
0
100
AcDbCircle
62
7
6
CONTINUOUS
10
323.8184632605
20
209.6754511461
40
1.0000000000
100
AcDbArc
50
180.0000000000
51
270.0000000000
0
ARC
5
336
100
AcDbEntity
8
0
100
AcDbCircle
62
7
6
CONTINUOUS
10
315.8184632605
20
209.6754511461
40
1.0000000000
100
AcDbArc
50
270.0000000000
51
360.0000000000
0
ARC
5
337
100
AcDbEntity
8
0
100
AcDbCircle
62
7
6
CONTINUOUS
10
322.3184632605
20
211.1754511461
40
0.5000000000
100
AcDbArc
50
0.0000000000
51
90.0000000000
0
ARC
5
338
100
AcDbEntity
8
0
100
AcDbCircle
62
7
6
CONTINUOUS
10
317.3183844552
20
211.1755299514
40
0.4999605973
100
AcDbArc
50
89.9909681503
51
180.0090318497
0
ARC
5
339
100
AcDbEntity
8
0
100
AcDbCircle
62
7
6
CONTINUOUS
10
314.3184632605
20
209.1754511461
40
0.5000000000
100
AcDbArc
50
180.0000000000
51
270.0000000000
0
ARC
5
33A
100
AcDbEntity
8
0
100
AcDbCircle
62
7
6
CONTINUOUS
10
325.3184632605
20
209.1754511461
40
0.5000000000
100
AcDbArc
50
270.0000000000
51
360.0000000000
0
ARC
5
33B
100
AcDbEntity
8
0
100
AcDbCircle
62
9
6
CONTINUOUS
10
323.8184632605
20
209.6754511461
40
0.4999905080
100
AcDbArc
50
180.0000000000
51
270.0000000000
0
ARC
5
33C
100
AcDbEntity
8
0
100
AcDbCircle
62
9
6
CONTINUOUS
10
315.8184632605
20
209.6754511461
40
0.4999905080
100
AcDbArc
50
270.0000000000
51
360.0000000000
0
ARC
5
33D
100
AcDbEntity
8
0
100
AcDbCircle
62
7
6
CONTINUOUS
10
325.7684632605
20
209.1754511461
40
0.8000000000
100
AcDbArc
50
270.0000000000
51
273.6334901242
0
ARC
5
33E
100
AcDbEntity
8
0
100
AcDbCircle
62
7
6
CONTINUOUS
10
313.8684632605
20
209.1754511461
40
0.8000000000
100
AcDbArc
50
266.3664927081
51
270.0000000000
0
ARC
5
33F
100
AcDbEntity
8
0
100
AcDbCircle
62
7
6
CONTINUOUS
10
332.4684632605
20
214.3754511461
40
3.0000000000
100
AcDbArc
50
0.0000000000
51
44.0000000000
0
ARC
5
340
100
AcDbEntity
8
0
100
AcDbCircle
62
7
6
CONTINUOUS
10
320.2133974487
20
221.3754511461
40
1.5000000000
100
AcDbArc
50
220.4072502599
51
30.0000000000
0
ARC
5
341
100
AcDbEntity
8
0
100
AcDbCircle
62
7
6
CONTINUOUS
10
307.5841967365
20
221.3754511461
40
1.5000000000
100
AcDbArc
50
225.0000000000
51
30.0000000000
0
ARC
5
342
100
AcDbEntity
8
0
100
AcDbCircle
62
7
6
CONTINUOUS
10
294.1745563819
20
230.7154511461
40
1.5000000000
100
AcDbArc
50
68.2999304957
51
213.6300000000
0
ARC
5
343
100
AcDbEntity
8
0
100
AcDbCircle
62
7
6
CONTINUOUS
10
301.1684632605
20
212.0754511461
40
3.0000000000
100
AcDbArc
50
0.0000000000
51
33.6300000000
0
ARC
5
344
100
AcDbEntity
8
0
100
AcDbCircle
62
7
6
CONTINUOUS
10
317.5575862104
20
231.9754511461
40
1.5000000000
100
AcDbArc
50
44.0000000000
51
210.0000000000
0
ARC
5
345
100
AcDbEntity
8
0
100
AcDbCircle
62
7
6
CONTINUOUS
10
304.9283854982
20
231.9754511461
40
1.5000000000
100
AcDbArc
50
46.0000000000
51
210.0000000000
0
CIRCLE
5
346
100
AcDbEntity
8
0
100
AcDbCircle
62
7
6
CONTINUOUS
10
310.8184632605
20
188.1554511461
40
2.6000000000
0
CIRCLE
5
347
100
AcDbEntity
8
0
100
AcDbCircle
62
7
6
CONTINUOUS
10
328.8184632605
20
188.1554511461
40
2.6000000000
0
ARC
5
348
100
AcDbEntity
8
0
100
AcDbCircle
62
7
6
CONTINUOUS
10
336.5684632605
20
201.3754511461
40
1.0000000000
100
AcDbArc
50
0.0000000000
51
90.0000000000
0
ARC
5
349
100
AcDbEntity
8
0
100
AcDbCircle
62
7
6
CONTINUOUS
10
303.0684632605
20
201.3754511461
40
1.0000000000
100
AcDbArc
50
90.0000000000
51
180.0000000000
0
ARC
5
34A
100
AcDbEntity
8
0
100
AcDbCircle
62
7
6
CONTINUOUS
10
315.3184632605
20
207.0754511461
40
1.5000000000
100
AcDbArc
50
180.0000000000
51
360.0000000000
0
ARC
5
34B
100
AcDbEntity
8
0
100
AcDbCircle
62
7
6
CONTINUOUS
10
324.3184632605
20
207.0754511461
40
1.5000000000
100
AcDbArc
50
180.0000000000
51
360.0000000000
0
ARC
5
34C
100
AcDbEntity
8
0
100
AcDbCircle
62
7
6
CONTINUOUS
10
332.0293162387
20
203.8754511461
40
1.5000000000
100
AcDbArc
50
190.3504118718
51
270.0000000000
0
ARC
5
34D
100
AcDbEntity
8
0
100
AcDbCircle
62
7
6
CONTINUOUS
10
327.0199373724
20
217.3885161594
40
1.0000000000
100
AcDbArc
50
10.3504118718
51
150.0000000000
0
ARC
5
34E
100
AcDbEntity
8
0
100
AcDbCircle
62
7
6
CONTINUOUS
10
307.6076102823
20
203.8754511461
40
1.5000000000
100
AcDbArc
50
270.0000000000
51
349.6495881282
0
ARC
5
34F
100
AcDbEntity
8
0
100
AcDbCircle
62
7
6
CONTINUOUS
10
312.6169891486
20
217.3885161594
40
1.0000000000
100
AcDbArc
50
30.0000000000
51
169.6495881282
0
ARC
5
350
100
AcDbEntity
8
0
100
AcDbCircle
62
7
6
CONTINUOUS
10
314.4720530990
20
215.7754511461
40
0.2000000000
100
AcDbArc
50
330.0000000000
51
30.0000000000
0
ARC
5
351
100
AcDbEntity
8
0
100
AcDbCircle
62
7
6
CONTINUOUS
10
325.1648734220
20
215.7754511461
40
0.2000000000
100
AcDbArc
50
150.0000000000
51
210.0000000000
0
ARC
5
352
100
AcDbEntity
8
0
100
AcDbCircle
62
7
6
CONTINUOUS
10
333.0437398807
20
175.5514625333
40
1.0000000000
100
AcDbArc
50
351.2500000000
51
60.0000000000
0
ARC
5
353
100
AcDbEntity
8
0
100
AcDbCircle
62
7
6
CONTINUOUS
10
331.0021903847
20
175.5754511461
40
2.0000000000
100
AcDbArc
50
60.0000000000
51
90.0000000000
0
ARC
5
354
100
AcDbEntity
8
0
100
AcDbCircle
62
7
6
CONTINUOUS
10
308.6347361364
20
175.5754511461
40
2.0000000000
100
AcDbArc
50
90.0000000000
51
120.0000000000
0
ARC
5
355
100
AcDbEntity
8
0
100
AcDbCircle
62
7
6
CONTINUOUS
10
306.5931866403
20
175.5514625333
40
1.0000000000
100
AcDbArc
50
120.0000000000
51
188.7500000000
0
ARC
5
356
100
AcDbEntity
8
0
100
AcDbCircle
62
7
6
CONTINUOUS
10
332.4645869513
20
175.0754511461
40
1.5000000000
100
AcDbArc
50
270.0000000000
51
351.2500000000
0
ARC
5
357
100
AcDbEntity
8
0
100
AcDbCircle
62
7
6
CONTINUOUS
10
307.1723395697
20
175.0754511461
40
1.5000000000
100
AcDbArc
50
188.7500000000
51
270.0000000000
0
ARC
5
358
100
AcDbEntity
8
0
100
AcDbCircle
62
9
6
CONTINUOUS
10
315.3184632605
20
207.0754511461
40
2.4999901622
100
AcDbArc
50
180.0000000000
51
360.0000000000
0
ARC
5
359
100
AcDbEntity
8
0
100
AcDbCircle
62
9
6
CONTINUOUS
10
324.3184632605
20
207.0754511461
40
2.4999739405
100
AcDbArc
50
180.0000000000
51
360.0000000000
0
ARC
5
35A
100
AcDbEntity
8
0
100
AcDbCircle
62
9
6
CONTINUOUS
10
332.0293162387
20
203.8754511461
40
2.4999959828
100
AcDbArc
50
190.3504118718
51
270.0000000000
0
ARC
5
35B
100
AcDbEntity
8
0
100
AcDbCircle
62
9
6
CONTINUOUS
10
307.6076102823
20
203.8754511461
40
2.4999959828
100
AcDbArc
50
270.0000000000
51
349.6495881282
0
ARC
5
35C
100
AcDbEntity
8
0
100
AcDbCircle
62
9
6
CONTINUOUS
10
333.0437398807
20
175.5514625333
40
0.4999995556
100
AcDbArc
50
351.2500000000
51
60.0000000000
0
ARC
5
35D
100
AcDbEntity
8
0
100
AcDbCircle
62
9
6
CONTINUOUS
10
331.0021903847
20
175.5754511461
40
1.5000055257
100
AcDbArc
50
60.0000000000
51
90.0000000000
0
ARC
5
35E
100
AcDbEntity
8
0
100
AcDbCircle
62
9
6
CONTINUOUS
10
308.6347361364
20
175.5754511461
40
1.5000055257
100
AcDbArc
50
90.0000000000
51
120.0000000000
0
ARC
5
35F
100
AcDbEntity
8
0
100
AcDbCircle
62
9
6
CONTINUOUS
10
306.5931866403
20
175.5514625333
40
0.4999994779
100
AcDbArc
50
120.0000000000
51
188.7500000000
0
ARC
5
360
100
AcDbEntity
8
0
100
AcDbCircle
62
7
6
CONTINUOUS
10
193.0394230769
20
114.8916867395
40
0.5000000000
100
AcDbArc
50
0.0000000000
51
90.0000000000
0
ARC
5
361
100
AcDbEntity
8
0
100
AcDbCircle
62
7
6
CONTINUOUS
10
193.0394230769
20
103.8916867395
40
0.5000000000
100
AcDbArc
50
270.0000000000
51
360.0000000000
0
ARC
5
362
100
AcDbEntity
8
0
100
AcDbCircle
62
7
6
CONTINUOUS
10
98.7394230769
20
103.8916867395
40
0.5000000000
100
AcDbArc
50
180.0000000000
51
270.0000000000
0
ARC
5
363
100
AcDbEntity
8
0
100
AcDbCircle
62
7
6
CONTINUOUS
10
98.7394230769
20
114.8916867395
40
0.5000000000
100
AcDbArc
50
90.0000000000
51
180.0000000000
0
ARC
5
364
100
AcDbEntity
8
0
100
AcDbCircle
62
7
6
CONTINUOUS
10
99.2394230769
20
116.3916867395
40
1.0000000000
100
AcDbArc
50
180.0000000000
51
261.0000000000
0
ARC
5
365
100
AcDbEntity
8
0
100
AcDbCircle
62
7
6
CONTINUOUS
10
99.2394230769
20
102.3916867395
40
1.0000000000
100
AcDbArc
50
99.0000000000
51
180.0000000000
0
ARC
5
366
100
AcDbEntity
8
0
100
AcDbCircle
62
7
6
CONTINUOUS
10
192.5394230769
20
116.3916867395
40
1.0000000000
100
AcDbArc
50
278.9999532711
51
360.0000000000
0
ARC
5
367
100
AcDbEntity
8
0
100
AcDbCircle
62
7
6
CONTINUOUS
10
192.5394230769
20
102.3916867395
40
1.0000000000
100
AcDbArc
50
0.0000000000
51
81.0000545002
0
ARC
5
368
100
AcDbEntity
8
0
100
AcDbCircle
62
7
6
CONTINUOUS
10
101.2394230769
20
95.8954308093
40
3.0000000000
100
AcDbArc
50
180.0000000000
51
267.5000000000
0
ARC
5
369
100
AcDbEntity
8
0
100
AcDbCircle
62
7
6
CONTINUOUS
10
190.5394230769
20
95.8954308093
40
3.0000000000
100
AcDbArc
50
272.5000000000
51
360.0000000000
0
ARC
5
36A
100
AcDbEntity
8
0
100
AcDbCircle
62
7
6
CONTINUOUS
10
101.2394230769
20
122.8879426697
40
3.0000000000
100
AcDbArc
50
92.5000000000
51
180.0000000000
0
ARC
5
36B
100
AcDbEntity
8
0
100
AcDbCircle
62
7
6
CONTINUOUS
10
190.5394230769
20
122.8879426697
40
3.0000000000
100
AcDbArc
50
0.0000000000
51
87.5000000000
0
ARC
5
36C
100
AcDbEntity
8
0
100
AcDbCircle
62
9
6
CONTINUOUS
10
101.2394230769
20
95.8954308093
40
1.9999985661
100
AcDbArc
50
180.0000000000
51
267.5000000000
0
ARC
5
36D
100
AcDbEntity
8
0
100
AcDbCircle
62
9
6
CONTINUOUS
10
190.5394230769
20
95.8954308093
40
1.9999985661
100
AcDbArc
50
272.5000000000
51
360.0000000000
0
ARC
5
36E
100
AcDbEntity
8
0
100
AcDbCircle
62
9
6
CONTINUOUS
10
101.2394230769
20
122.8879426697
40
1.9999985661
100
AcDbArc
50
92.5000000000
51
180.0000000000
0
ARC
5
36F
100
AcDbEntity
8
0
100
AcDbCircle
62
9
6
CONTINUOUS
10
190.5394230769
20
122.8879426697
40
1.9999985661
100
AcDbArc
50
0.0000000000
51
87.5000000000
0
SPLINE
5
370
100
AcDbEntity
8
0
100
AcDbSpline
62
7
6
CONTINUOUS
70
0
71
3
72
13
73
9
74
7
42
0.0000001000
43
0.0000001000
44
0.0000000001
12
-27.0495963562
22
-0.0000702151
32
0.0000000000
13
-26.9753296648
23
2.0030607867
33
0.0000000000
40
0.0000000000
40
0.0000000000
40
0.0000000000
40
0.0000000000
40
0.2051376820
40
0.3943919678
40
0.5673910806
40
0.7249366758
40
0.8686063979
40
1.0000000000
40
1.0000000000
40
1.0000000000
40
1.0000000000
10
189.7231163594
20
198.3754511461
30
0.0000000000
10
187.8734858613
20
198.3754463448
30
0.0000000000
10
184.3174136521
20
198.3920605742
30
0.0000000000
10
179.2019438561
20
198.4637133826
30
0.0000000000
10
174.5163886768
20
198.5742556940
30
0.0000000000
10
170.2429974300
20
198.7197014001
30
0.0000000000
10
166.3464488405
20
198.9001436792
30
0.0000000000
10
163.8708850451
20
199.0535033844
30
0.0000000000
10
162.6894231345
20
199.1412331751
30
0.0000000000
11
189.7231163594
21
198.3754511461
31
0.0000000000
11
184.1742869944
21
198.4017093609
31
0.0000000000
11
179.0555497387
21
198.4743067261
31
0.0000000000
11
174.3773280923
21
198.5860572772
31
0.0000000000
11
170.1183193215
21
198.7330538745
31
0.0000000000
11
166.2364105944
21
198.9158028736
31
0.0000000000
11
162.6894231345
21
199.1412331751
31
0.0000000000
0
SPLINE
5
371
100
AcDbEntity
8
0
100
AcDbSpline
62
7
6
CONTINUOUS
70
0
71
3
72
12
73
8
74
6
42
0.0000001000
43
0.0000001000
44
0.0000000001
12
-1.0006642294
22
0.0000000000
32
0.0000000000
13
0.0000000000
23
-1.0006642294
33
0.0000000000
40
0.0000000000
40
0.0000000000
40
0.0000000000
40
0.0000000000
40
0.0493601833
40
0.1914111537
40
0.4125349936
40
0.6911470999
40
1.0000000000
40
1.0000000000
40
1.0000000000
40
1.0000000000
10
129.9112431545
20
202.3754511461
30
0.0000000000
10
129.8947788313
20
202.3754511461
30
0.0000000000
10
129.9185563091
20
202.2735632344
30
0.0000000000
10
129.8874546563
20
202.1712307908
30
0.0000000000
10
129.8968549894
20
201.9387965675
30
0.0000000000
10
129.8886843860
20
201.6762843772
30
0.0000000000
10
129.8894230769
20
201.4784704958
30
0.0000000000
10
129.8894230769
20
201.3754511461
30
0.0000000000
11
129.9112431545
21
202.3754511461
31
0.0000000000
11
129.9045012392
21
202.3265204600
31
0.0000000000
11
129.8984187517
21
202.1845053315
31
0.0000000000
11
129.8935911477
21
201.9632872843
31
0.0000000000
11
129.8904913055
21
201.6845073492
31
0.0000000000
11
129.8894230769
21
201.3754511461
31
0.0000000000
0
SPLINE
5
372
100
AcDbEntity
8
0
100
AcDbSpline
62
9
6
CONTINUOUS
70
0
71
3
72
9
73
5
74
3
42
0.0000001000
43
0.0000001000
44
0.0000000001
12
0.0229441018
22
-0.0000029187
32
0.0000000000
13
0.0229437251
23
0.0001315084
33
0.0000000000
40
0.0000000000
40
0.0000000000
40
0.0000000000
40
0.0000000000
40
0.5008251448
40
1.0000000000
40
1.0000000000
40
1.0000000000
40
1.0000000000
10
127.8894230769
20
177.3075019536
30
0.0000000000
10
127.8932534046
20
177.3075014664
30
0.0000000000
10
127.9009014454
20
177.3075133275
30
0.0000000000
10
127.9085494072
20
177.3075487283
30
0.0000000000
10
127.9123670507
20
177.3075706102
30
0.0000000000
11
127.8894230769
21
177.3075019536
31
0.0000000000
11
127.9009140471
21
177.3075192514
31
0.0000000000
11
127.9123670507
21
177.3075706102
31
0.0000000000
0
SPLINE
5
373
100
AcDbEntity
8
0
100
AcDbSpline
62
9
6
CONTINUOUS
70
0
71
3
72
14
73
10
74
8
42
0.0000001000
43
0.0000001000
44
0.0000000001
12
2.0036554860
22
-0.0759999037
32
0.0000000000
13
0.8411535405
23
1.8201296693
33
0.0000000000
40
0.0000000000
40
0.0000000000
40
0.0000000000
40
0.0000000000
40
0.1183302934
40
0.2510383334
40
0.3928123122
40
0.5404588712
40
0.6922989012
40
0.8489538984
40
1.0000000000
40
1.0000000000
40
1.0000000000
40
1.0000000000
10
127.9124064368
20
177.3075735244
30
0.0000000000
10
127.9914374839
20
177.3045758275
30
0.0000000000
10
128.1596824567
20
177.3085976551
30
0.0000000000
10
128.4197849180
20
177.3504835808
30
0.0000000000
10
128.6892732685
20
177.4383008053
30
0.0000000000
10
128.9511053755
20
177.5774823033
30
0.0000000000
10
129.1902003880
20
177.7699622501
30
0.0000000000
10
129.3866066508
20
178.0085396297
30
0.0000000000
10
129.4885502975
20
178.1883737658
30
0.0000000000
10
129.5309012852
20
178.2800149294
30
0.0000000000
11
127.9124064368
21
177.3075735244
31
0.0000000000
11
128.1495980001
21
177.3134212345
31
0.0000000000
11
128.4122579392
21
177.3560231577
31
0.0000000000
11
128.6823968881
21
177.4445367539
31
0.0000000000
11
128.9435797095
21
177.5839157886
31
0.0000000000
11
129.1804442781
21
177.7751939773
31
0.0000000000
11
129.3813402598
21
178.0166579834
31
0.0000000000
11
129.5309012852
21
178.2800149294
31
0.0000000000
0
SPLINE
5
374
100
AcDbEntity
8
0
100
AcDbSpline
62
9
6
CONTINUOUS
70
0
71
3
72
10
73
6
74
4
42
0.0000001000
43
0.0000001000
44
0.0000000001
12
0.2682597547
22
0.0015402057
32
0.0000000000
13
0.0061640472
23
-0.2681933495
33
0.0000000000
40
0.0000000000
40
0.0000000000
40
0.0000000000
40
0.0000000000
40
0.1140037278
40
0.4506137251
40
1.0000000000
40
1.0000000000
40
1.0000000000
40
1.0000000000
10
127.9009153074
20
177.5754844370
30
0.0000000000
10
127.9111095114
20
177.5755429667
30
0.0000000000
10
127.8948398357
20
177.5109902368
30
0.0000000000
10
127.9165934738
20
177.4453240949
30
0.0000000000
10
127.9112776225
20
177.3566874395
30
0.0000000000
10
127.9124064368
20
177.3075735244
30
0.0000000000
11
127.9009153074
21
177.5754844370
31
0.0000000000
11
127.9045459750
21
177.5451175925
31
0.0000000000
11
127.9084155393
21
177.4549001365
31
0.0000000000
11
127.9124064368
21
177.3075735244
31
0.0000000000
0
SPLINE
5
375
100
AcDbEntity
8
0
100
AcDbSpline
62
9
6
CONTINUOUS
70
0
71
3
72
10
73
6
74
4
42
0.0000001000
43
0.0000001000
44
0.0000000001
12
0.5901565480
22
0.9616051206
32
0.0000000000
13
0.1014413797
23
1.1255095597
33
0.0000000000
40
0.0000000000
40
0.0000000000
40
0.0000000000
40
0.0000000000
40
0.3915299681
40
0.7963504285
40
1.0000000000
40
1.0000000000
40
1.0000000000
40
1.0000000000
10
129.5310111750
20
178.2799435985
30
0.0000000000
10
129.6080324998
20
178.4054426726
30
0.0000000000
10
129.7403903283
20
178.6764172904
30
0.0000000000
10
129.8413210470
20
179.0406934764
30
0.0000000000
10
129.8720849182
20
179.2681396937
30
0.0000000000
10
129.8789710827
20
179.3445428736
30
0.0000000000
11
129.5310111750
21
178.2799435985
31
0.0000000000
11
129.7256161209
21
178.6765159546
31
0.0000000000
11
129.8480588276
21
179.1165403481
31
0.0000000000
11
129.8789710827
21
179.3445428736
31
0.0000000000
0
SPLINE
5
376
100
AcDbEntity
8
0
100
AcDbSpline
62
9
6
CONTINUOUS
70
0
71
3
72
10
73
6
74
4
42
0.0000001000
43
0.0000001000
44
0.0000000001
12
-0.0904174142
22
-0.1299234628
32
0.0000000000
13
0.0543447362
23
-0.1486676314
33
0.0000000000
40
0.0000000000
40
0.0000000000
40
0.0000000000
40
0.0000000000
40
0.2750690675
40
0.5984393800
40
1.0000000000
40
1.0000000000
40
1.0000000000
40
1.0000000000
10
129.5310212723
20
178.4329956448
30
0.0000000000
10
129.5227309277
20
178.4210830029
30
0.0000000000
10
129.5112014665
20
178.3903930267
30
0.0000000000
10
129.5131255465
20
178.3368569138
30
0.0000000000
10
129.5237459150
20
178.2998378780
30
0.0000000000
10
129.5310201503
20
178.2799381892
30
0.0000000000
11
129.5310212723
21
178.4329956448
31
0.0000000000
11
129.5148111606
21
178.3925852509
31
0.0000000000
11
129.5148107906
21
178.3413992799
31
0.0000000000
11
129.5310201503
21
178.2799381892
31
0.0000000000
0
SPLINE
5
377
100
AcDbEntity
8
0
100
AcDbSpline
62
7
6
CONTINUOUS
70
0
71
3
72
12
73
8
74
6
42
0.0000001000
43
0.0000001000
44
0.0000000001
12
1.0006642294
22
0.0000000000
32
0.0000000000
13
0.0000000000
23
-1.0006642294
33
0.0000000000
40
0.0000000000
40
0.0000000000
40
0.0000000000
40
0.0000000000
40
0.0493601833
40
0.1914111537
40
0.4125349936
40
0.6911470999
40
1.0000000000
40
1.0000000000
40
1.0000000000
40
1.0000000000
10
161.8676029993
20
202.3754511461
30
0.0000000000
10
161.8840673226
20
202.3754511461
30
0.0000000000
10
161.8602898448
20
202.2735632344
30
0.0000000000
10
161.8913914976
20
202.1712307908
30
0.0000000000
10
161.8819911644
20
201.9387965675
30
0.0000000000
10
161.8901617679
20
201.6762843772
30
0.0000000000
10
161.8894230769
20
201.4784704958
30
0.0000000000
10
161.8894230769
20
201.3754511461
30
0.0000000000
11
161.8676029993
21
202.3754511461
31
0.0000000000
11
161.8743449146
21
202.3265204600
31
0.0000000000
11
161.8804274021
21
202.1845053315
31
0.0000000000
11
161.8852550062
21
201.9632872843
31
0.0000000000
11
161.8883548483
21
201.6845073492
31
0.0000000000
11
161.8894230769
21
201.3754511461
31
0.0000000000
0
SPLINE
5
378
100
AcDbEntity
8
0
100
AcDbSpline
62
9
6
CONTINUOUS
70
0
71
3
72
12
73
8
74
6
42
0.0000001000
43
0.0000001000
44
0.0000000001
12
1.0026283054
22
0.0000000000
32
0.0000000000
13
-0.0000000248
23
-1.0026283054
33
0.0000000000
40
0.0000000000
40
0.0000000000
40
0.0000000000
40
0.0000000000
40
0.0506300338
40
0.1928107767
40
0.4136702572
40
0.6917791712
40
1.0000000000
40
1.0000000000
40
1.0000000000
40
1.0000000000
10
190.6266618517
20
202.3754511461
30
0.0000000000
10
190.6435828866
20
202.3754511461
30
0.0000000000
10
190.6341404436
20
202.2755891726
30
0.0000000000
10
190.6610748006
20
202.1703780426
30
0.0000000000
10
190.6607740340
20
201.9392214632
30
0.0000000000
10
190.6698866302
20
201.6761416827
30
0.0000000000
10
190.6702812345
20
201.4784614552
30
0.0000000000
10
190.6702812320
20
201.3754511461
30
0.0000000000
11
190.6266618517
21
202.3754511461
31
0.0000000000
11
190.6401406450
21
202.3265102127
31
0.0000000000
11
190.6523002584
21
202.1844753177
31
0.0000000000
11
190.6619503855
21
201.9632457223
31
0.0000000000
11
190.6681462608
21
201.6844746984
31
0.0000000000
11
190.6702812320
21
201.3754511461
31
0.0000000000
0
SPLINE
5
379
100
AcDbEntity
8
0
100
AcDbSpline
62
9
6
CONTINUOUS
70
0
71
3
72
13
73
9
74
7
42
0.0000001000
43
0.0000001000
44
0.0000000001
12
1.7499190407
22
0.0020243591
32
0.0000000000
13
0.1789480882
23
1.7407464861
33
0.0000000000
40
0.0000000000
40
0.0000000000
40
0.0000000000
40
0.0000000000
40
0.1482238375
40
0.3052714659
40
0.4712370316
40
0.6445728937
40
0.8223287015
40
1.0000000000
40
1.0000000000
40
1.0000000000
40
1.0000000000
10
172.6394230769
20
173.5754511461
30
0.0000000000
10
172.7258829821
20
173.5755511655
30
0.0000000000
10
172.9054553317
20
173.6116887438
30
0.0000000000
10
173.1419419979
20
173.7607777462
30
0.0000000000
10
173.3358565425
20
173.9797831456
30
0.0000000000
10
173.4824785411
20
174.2455709889
30
0.0000000000
10
173.5815394724
20
174.5390755270
30
0.0000000000
10
173.6171866077
20
174.7441725039
30
0.0000000000
10
173.6277845874
20
174.8472660668
30
0.0000000000
11
172.6394230769
21
173.5754511461
31
0.0000000000
11
172.8940469463
21
173.6248941637
31
0.0000000000
11
173.1289788436
21
173.7674896974
31
0.0000000000
11
173.3242817529
21
173.9824416091
31
0.0000000000
11
173.4729905035
21
174.2468108832
31
0.0000000000
11
173.5738165651
21
174.5410751926
31
0.0000000000
11
173.6277845874
21
174.8472660668
31
0.0000000000
0
SPLINE
5
37A
100
AcDbEntity
8
0
100
AcDbSpline
62
9
6
CONTINUOUS
70
0
71
3
72
13
73
9
74
7
42
0.0000001000
43
0.0000001000
44
0.0000000001
12
-1.7495970784
22
0.0032535885
32
0.0000000000
13
-0.1787527606
23
1.7404447631
33
0.0000000000
40
0.0000000000
40
0.0000000000
40
0.0000000000
40
0.0000000000
40
0.1611587552
40
0.3231064430
40
0.4904656242
40
0.6624075020
40
0.8343436505
40
1.0000000000
40
1.0000000000
40
1.0000000000
40
1.0000000000
10
119.1394230769
20
173.5754511461
30
0.0000000000
10
119.0454354479
20
173.5756259275
30
0.0000000000
10
118.8552135507
20
173.6174435604
30
0.0000000000
10
118.6144066346
20
173.7805525590
30
0.0000000000
10
118.4248948221
20
174.0068493271
30
0.0000000000
10
118.2854546241
20
174.2724175078
30
0.0000000000
10
118.1938776395
20
174.5563504816
30
0.0000000000
10
118.1609320764
20
174.7511608248
30
0.0000000000
10
118.1510615665
20
174.8472660668
30
0.0000000000
11
119.1394230769
21
173.5754511461
31
0.0000000000
11
118.8635355910
21
173.6336700418
31
0.0000000000
11
118.6260550082
21
173.7882230109
31
0.0000000000
11
118.4353222804
21
174.0103934039
31
0.0000000000
11
118.2934505282
21
174.2756683751
31
0.0000000000
11
118.1999415065
21
174.5615852098
31
0.0000000000
11
118.1510615665
21
174.8472660668
31
0.0000000000
0
SPLINE
5
37B
100
AcDbEntity
8
0
100
AcDbSpline
62
9
6
CONTINUOUS
70
0
71
3
72
11
73
7
74
5
42
0.0000001000
43
0.0000001000
44
0.0000000001
12
-0.5012111623
22
0.0000000000
32
0.0000000000
13
-0.0000000021
23
0.5012111623
33
0.0000000000
40
0.0000000000
40
0.0000000000
40
0.0000000000
40
0.0000000000
40
0.0777406420
40
0.2944495286
40
0.6182264316
40
1.0000000000
40
1.0000000000
40
1.0000000000
40
1.0000000000
10
101.1303746085
20
198.3754511461
30
0.0000000000
10
101.1173864493
20
198.3754511461
30
0.0000000000
10
101.1290380759
20
198.4528643869
30
0.0000000000
10
101.1080028306
20
198.5305450834
30
0.0000000000
10
101.1117237539
20
198.6974346245
30
0.0000000000
10
101.1085649151
20
198.8116680881
30
0.0000000000
10
101.1085649148
20
198.8754511461
30
0.0000000000
11
101.1303746085
21
198.3754511461
31
0.0000000000
11
101.1220284142
21
198.4135112505
31
0.0000000000
11
101.1149528399
21
198.5218974582
31
0.0000000000
11
101.1102250841
21
198.6841091741
31
0.0000000000
11
101.1085649148
21
198.8754511461
31
0.0000000000
0
SPLINE
5
37C
100
AcDbEntity
8
0
100
AcDbSpline
62
9
6
CONTINUOUS
70
0
71
3
72
14
73
10
74
8
42
0.0000001000
43
0.0000001000
44
0.0000000001
12
0.0000055870
22
-3.0121392098
32
0.0000000000
13
3.0121392096
23
0.0000367188
33
0.0000000000
40
0.0000000000
40
0.0000000000
40
0.0000000000
40
0.0000000000
40
0.1349545495
40
0.2770711243
40
0.4235324475
40
0.5699068365
40
0.7139810828
40
0.8567944651
40
1.0000000000
40
1.0000000000
40
1.0000000000
40
1.0000000000
10
129.8894230769
20
179.2693329995
30
0.0000000000
10
129.8894233283
20
179.1338323694
30
0.0000000000
10
129.9231506974
20
178.8545323895
30
0.0000000000
10
130.0762403548
20
178.4533429363
30
0.0000000000
10
130.3285165472
20
178.0915678604
30
0.0000000000
10
130.6591482880
20
177.7975118658
30
0.0000000000
10
131.0423614687
20
177.5847064040
30
0.0000000000
10
131.4576355803
20
177.4563544041
30
0.0000000000
10
131.7456380747
20
177.4276845049
30
0.0000000000
10
131.8894230769
20
177.4276862577
30
0.0000000000
11
129.8894230769
21
179.2693329995
31
0.0000000000
11
129.9380371206
21
178.8657484835
31
0.0000000000
11
130.0899658676
21
178.4655413098
31
0.0000000000
11
130.3415137025
21
178.1031223480
31
0.0000000000
11
130.6703114020
21
177.8093794080
31
0.0000000000
11
131.0493417389
21
177.5980327063
31
0.0000000000
11
131.4602084511
21
177.4706041644
31
0.0000000000
11
131.8894230769
21
177.4276862577
31
0.0000000000
0
SPLINE
5
37D
100
AcDbEntity
8
0
100
AcDbSpline
62
9
6
CONTINUOUS
70
0
71
3
72
9
73
5
74
3
42
0.0000001000
43
0.0000001000
44
0.0000000001
12
0.0000000000
22
0.2575074767
32
0.0000000000
13
0.1584991677
23
0.2051989740
33
0.0000000000
40
0.0000000000
40
0.0000000000
40
0.0000000000
40
0.0000000000
40
0.6602345579
40
1.0000000000
40
1.0000000000
40
1.0000000000
40
1.0000000000
10
117.6394230769
20
176.8744892517
30
0.0000000000
10
117.6394230769
20
176.9311610301
30
0.0000000000
10
117.6598268040
20
177.0180854768
30
0.0000000000
10
117.7057289285
20
177.0918150693
30
0.0000000000
10
117.7236797751
20
177.1150549093
30
0.0000000000
11
117.6394230769
21
176.8744892517
31
0.0000000000
11
117.6774805664
21
177.0401903128
31
0.0000000000
11
117.7236797751
21
177.1150549093
31
0.0000000000
0
SPLINE
5
37E
100
AcDbEntity
8
0
100
AcDbSpline
62
9
6
CONTINUOUS
70
0
71
3
72
10
73
6
74
4
42
0.0000001000
43
0.0000001000
44
0.0000000001
12
0.2902254914
22
0.3757368188
32
0.0000000000
13
0.4715181477
23
-0.0000000383
33
0.0000000000
40
0.0000000000
40
0.0000000000
40
0.0000000000
40
0.0000000000
40
0.1907411950
40
0.5882118848
40
1.0000000000
40
1.0000000000
40
1.0000000000
40
1.0000000000
10
117.7236797751
20
177.1150549093
30
0.0000000000
10
117.7421324275
20
177.1389444060
30
0.0000000000
10
117.8067108751
20
177.2067141904
30
0.0000000000
10
117.9463920015
20
177.2859367024
30
0.0000000000
10
118.0747012205
20
177.3075019581
30
0.0000000000
10
118.1394230769
20
177.3075019529
30
0.0000000000
11
117.7236797751
21
177.1150549093
31
0.0000000000
11
117.7858634857
21
177.1806701153
31
0.0000000000
11
117.9480759940
21
177.2745389105
31
0.0000000000
11
118.1394230769
21
177.3075019529
31
0.0000000000
0
SPLINE
5
37F
100
AcDbEntity
8
0
100
AcDbSpline
62
9
6
CONTINUOUS
70
0
71
3
72
9
73
5
74
3
42
0.0000001000
43
0.0000001000
44
0.0000000001
12
-0.4468279217
22
-1.0413212628
32
0.0000000000
13
-0.0000594372
23
-1.1331395150
33
0.0000000000
40
0.0000000000
40
0.0000000000
40
0.0000000000
40
0.0000000000
40
0.4983674307
40
1.0000000000
40
1.0000000000
40
1.0000000000
40
1.0000000000
10
160.1163628240
20
198.3754511461
30
0.0000000000
10
160.0421346629
20
198.2024642786
30
0.0000000000
10
159.9279581639
20
197.8393834892
30
0.0000000000
10
159.8894330155
20
197.4606776024
30
0.0000000000
10
159.8894230769
20
197.2712043737
30
0.0000000000
11
160.1163628240
21
198.3754511461
31
0.0000000000
11
159.9471204992
21
197.8366881914
31
0.0000000000
11
159.8894230769
21
197.2712043737
31
0.0000000000
0
SPLINE
5
380
100
AcDbEntity
8
0
100
AcDbSpline
62
7
6
CONTINUOUS
70
0
71
3
72
13
73
9
74
7
42
0.0000001000
43
0.0000001000
44
0.0000000001
12
1.0981136290
22
-0.0003071047
32
0.0000000000
13
0.9481828344
23
0.5538979589
33
0.0000000000
40
0.0000000000
40
0.0000000000
40
0.0000000000
40
0.0000000000
40
0.1316143901
40
0.2757054744
40
0.4369183093
40
0.6113977086
40
0.7974101409
40
1.0000000000
40
1.0000000000
40
1.0000000000
40
1.0000000000
10
160.1163628239
20
198.3754511461
30
0.0000000000
10
160.1645386757
20
198.3754376729
30
0.0000000000
10
160.2653030877
20
198.3957587867
30
0.0000000000
10
160.4120375095
20
198.4601506777
30
0.0000000000
10
160.5646977415
20
198.5473622214
30
0.0000000000
10
160.7260868224
20
198.6494221086
30
0.0000000000
10
160.8996372847
20
198.7606056450
30
0.0000000000
10
161.0209537413
20
198.8349275307
30
0.0000000000
10
161.0849844836
20
198.8723322339
30
0.0000000000
11
160.1163628239
21
198.3754511461
31
0.0000000000
11
160.2588809326
21
198.3994679030
31
0.0000000000
11
160.4050868067
21
198.4599663800
31
0.0000000000
11
160.5597923970
21
198.5460233820
31
0.0000000000
11
160.7224233126
21
198.6473202765
31
0.0000000000
11
160.8948814607
21
198.7567802081
31
0.0000000000
11
161.0849844836
21
198.8723322339
31
0.0000000000
0
SPLINE
5
381
100
AcDbEntity
8
0
100
AcDbSpline
62
7
6
CONTINUOUS
70
0
71
3
72
31
73
27
74
25
42
0.0000001000
43
0.0000001000
44
0.0000000001
12
-1.3809937551
22
0.1132509418
32
0.0000000000
13
0.0000000000
23
1.3856296502
33
0.0000000000
40
0.0000000000
40
0.0000000000
40
0.0000000000
40
0.0000000000
40
0.0918605633
40
0.1723113036
40
0.2468988837
40
0.3160494463
40
0.3801456072
40
0.4395538796
40
0.4946148596
40
0.5456497607
40
0.5929665458
40
0.6367973984
40
0.6773520889
40
0.7148472195
40
0.7495297415
40
0.7816522929
40
0.8114746867
40
0.8392621679
40
0.8652549679
40
0.8894720731
40
0.9118604686
40
0.9325046949
40
0.9515159687
40
0.9692155483
40
0.9854044775
40
1.0000000000
40
1.0000000000
40
1.0000000000
40
1.0000000000
10
131.2372406046
20
198.6402009782
30
0.0000000000
10
131.1949543165
20
198.6436687433
30
0.0000000000
10
131.1156485937
20
198.6503529027
30
0.0000000000
10
131.0020610327
20
198.6604700308
30
0.0000000000
10
130.8989698263
20
198.6701863635
30
0.0000000000
10
130.8034491061
20
198.6797097450
30
0.0000000000
10
130.7149572221
20
198.6890491176
30
0.0000000000
10
130.6329921297
20
198.6982127113
30
0.0000000000
10
130.5570805516
20
198.7072115540
30
0.0000000000
10
130.4867767059
20
198.7160590705
30
0.0000000000
10
130.4216852627
20
198.7247683299
30
0.0000000000
10
130.3614627396
20
198.7333509738
30
0.0000000000
10
130.3058082906
20
198.7418173743
30
0.0000000000
10
130.2544153782
20
198.7501838636
30
0.0000000000
10
130.2069595049
20
198.7584768679
30
0.0000000000
10
130.1630990025
20
198.7667363699
30
0.0000000000
10
130.1224877580
20
198.7750182184
30
0.0000000000
10
130.0847913996
20
198.7833976161
30
0.0000000000
10
130.0497932681
20
198.7919516949
30
0.0000000000
10
130.0174328187
20
198.8007535775
30
0.0000000000
10
129.9877352202
20
198.8098781418
30
0.0000000000
10
129.9607223896
20
198.8194841941
30
0.0000000000
10
129.9363084552
20
198.8298043800
30
0.0000000000
10
129.9147784103
20
198.8415503549
30
0.0000000000
10
129.8968566637
20
198.8549610268
30
0.0000000000
10
129.8894230769
20
198.8687098165
30
0.0000000000
10
129.8894230769
20
198.8754511461
30
0.0000000000
11
131.2372406046
21
198.6402009782
31
0.0000000000
11
131.1104065530
21
198.6509025368
31
0.0000000000
11
130.9993726685
21
198.6608089371
31
0.0000000000
11
130.8964789717
21
198.6705180700
31
0.0000000000
11
130.8011358660
21
198.6800366344
31
0.0000000000
11
130.7128141972
21
198.6893708667
31
0.0000000000
11
130.6310074658
21
198.6985299807
31
0.0000000000
11
130.5552454160
21
198.7075247322
31
0.0000000000
11
130.4850851143
21
198.7163683772
31
0.0000000000
11
130.4201026489
21
198.7250779712
31
0.0000000000
11
130.3599790569
21
198.7336623136
31
0.0000000000
11
130.3044269274
21
198.7421300166
31
0.0000000000
11
130.2531505140
21
198.7504957471
31
0.0000000000
11
130.2058141768
21
198.7587878517
31
0.0000000000
11
130.1620771150
21
198.7670465401
31
0.0000000000
11
130.1215927704
21
198.7753285130
31
0.0000000000
11
130.0840136213
21
198.7837130649
31
0.0000000000
11
130.0490363597
21
198.7923021177
31
0.0000000000
11
130.0166698353
21
198.8011570116
31
0.0000000000
11
129.9870374327
21
198.8103377921
31
0.0000000000
11
129.9601158885
21
198.8200068616
31
0.0000000000
11
129.9359338888
21
198.8304549551
31
0.0000000000
11
129.9145088970
21
198.8423901302
31
0.0000000000
11
129.8973588414
21
198.8568491740
31
0.0000000000
11
129.8894230769
21
198.8754511461
31
0.0000000000
0
SPLINE
5
382
100
AcDbEntity
8
0
100
AcDbSpline
62
7
6
CONTINUOUS
70
0
71
3
72
10
73
6
74
4
42
0.0000001000
43
0.0000001000
44
0.0000000001
12
0.2500307992
22
-0.2448186322
32
0.0000000000
13
0.3499307978
23
0.0000000000
33
0.0000000000
40
0.0000000000
40
0.0000000000
40
0.0000000000
40
0.0000000000
40
0.3890051404
40
0.7052067849
40
1.0000000000
40
1.0000000000
40
1.0000000000
40
1.0000000000
10
131.5835248118
20
198.5283206363
30
0.0000000000
10
131.6159459005
20
198.4965754008
30
0.0000000000
10
131.6789199440
20
198.4427795299
30
0.0000000000
10
131.7833222855
20
198.3880738688
30
0.0000000000
10
131.8550373353
20
198.3754511461
30
0.0000000000
10
131.8894230769
20
198.3754511461
30
0.0000000000
11
131.5835248118
21
198.5283206363
31
0.0000000000
11
131.6886621790
21
198.4418560960
31
0.0000000000
11
131.7876801011
21
198.3924740696
31
0.0000000000
11
131.8894230769
21
198.3754511461
31
0.0000000000
0
SPLINE
5
383
100
AcDbEntity
8
0
100
AcDbSpline
62
9
6
CONTINUOUS
70
0
71
3
72
11
73
7
74
5
42
0.0000001000
43
0.0000001000
44
0.0000000001
12
0.4108412034
22
0.0000000000
32
0.0000000000
13
0.0000000000
23
0.4108412034
33
0.0000000000
40
0.0000000000
40
0.0000000000
40
0.0000000000
40
0.0000000000
40
0.3727557855
40
0.6902458352
40
0.9066990775
40
1.0000000000
40
1.0000000000
40
1.0000000000
40
1.0000000000
10
133.9894230769
20
174.8472660668
30
0.0000000000
10
134.0404708887
20
174.8472660668
30
0.0000000000
10
134.1335645323
20
174.8496249414
30
0.0000000000
10
134.2625094574
20
174.8621109235
30
0.0000000000
10
134.3363869268
20
174.8760186409
30
0.0000000000
10
134.3894230769
20
174.8953381335
30
0.0000000000
10
134.3894230769
20
174.9081154213
30
0.0000000000
11
133.9894230769
21
174.8472660668
31
0.0000000000
11
134.1424964499
21
174.8518979481
31
0.0000000000
11
134.2722657894
21
174.8650884301
31
0.0000000000
11
134.3589748899
21
174.8848293814
31
0.0000000000
11
134.3894230769
21
174.9081154213
31
0.0000000000
0
SPLINE
5
384
100
AcDbEntity
8
0
100
AcDbSpline
62
9
6
CONTINUOUS
70
0
71
3
72
11
73
7
74
5
42
0.0000001000
43
0.0000001000
44
0.0000000001
12
-0.0003621809
22
1.8271726732
32
0.0000000000
13
1.5011585963
23
1.0416731626
33
0.0000000000
40
0.0000000000
40
0.0000000000
40
0.0000000000
40
0.0000000000
40
0.2506584780
40
0.5008290238
40
0.7507028417
40
1.0000000000
40
1.0000000000
40
1.0000000000
40
1.0000000000
10
133.9894230769
20
196.8146017916
30
0.0000000000
10
133.9893928157
20
196.9672672320
30
0.0000000000
10
134.0265857752
20
197.2735673628
30
0.0000000000
10
134.1902062126
20
197.7051041164
30
0.0000000000
10
134.4514875319
20
198.0845067689
30
0.0000000000
10
134.6812178889
20
198.2888890930
30
0.0000000000
10
134.8059627463
20
198.3754511461
30
0.0000000000
11
133.9894230769
21
196.8146017916
31
0.0000000000
11
134.0446485581
21
197.2692563691
31
0.0000000000
11
134.2066323484
21
197.6966976449
31
0.0000000000
11
134.4656404844
21
198.0726819693
31
0.0000000000
11
134.8059627463
21
198.3754511461
31
0.0000000000
0
SPLINE
5
385
100
AcDbEntity
8
0
100
AcDbSpline
62
9
6
CONTINUOUS
70
0
71
3
72
11
73
7
74
5
42
0.0000001000
43
0.0000001000
44
0.0000000001
12
0.5012111644
22
0.0000000000
32
0.0000000000
13
-0.0000000250
23
0.5012111644
33
0.0000000000
40
0.0000000000
40
0.0000000000
40
0.0000000000
40
0.0000000000
40
0.0777405221
40
0.2944490261
40
0.6182257391
40
1.0000000000
40
1.0000000000
40
1.0000000000
40
1.0000000000
10
189.7231163594
20
198.3754511461
30
0.0000000000
10
189.7361044986
20
198.3754511461
30
0.0000000000
10
189.7244529236
20
198.4528642484
30
0.0000000000
10
189.7454881290
20
198.5305448702
30
0.0000000000
10
189.7417672178
20
198.6974344315
30
0.0000000000
10
189.7449260562
20
198.8116679721
30
0.0000000000
10
189.7449260531
20
198.8754511461
30
0.0000000000
11
189.7231163594
21
198.3754511461
31
0.0000000000
11
189.7314625551
21
198.4135111888
31
0.0000000000
11
189.7385381276
21
198.5218972050
31
0.0000000000
11
189.7432658855
21
198.6841088262
31
0.0000000000
11
189.7449260531
21
198.8754511461
31
0.0000000000
0
SPLINE
5
386
100
AcDbEntity
8
0
100
AcDbSpline
62
9
6
CONTINUOUS
70
0
71
3
72
11
73
7
74
5
42
0.0000001000
43
0.0000001000
44
0.0000000001
12
0.4108412598
22
-0.0000000002
32
0.0000000000
13
0.0000000000
23
0.4108412598
33
0.0000000000
40
0.0000000000
40
0.0000000000
40
0.0000000000
40
0.0000000000
40
0.3727654202
40
0.6902547854
40
0.9067023123
40
1.0000000000
40
1.0000000000
40
1.0000000000
40
1.0000000000
10
133.9894230769
20
196.8146017916
30
0.0000000000
10
134.0404722152
20
196.8146017916
30
0.0000000000
10
134.1335670868
20
196.8169607218
30
0.0000000000
10
134.2625123571
20
196.8294471282
30
0.0000000000
10
134.3363889792
20
196.8433547504
30
0.0000000000
10
134.3894230769
20
196.8626743000
30
0.0000000000
10
134.3894230769
20
196.8754511466
30
0.0000000000
11
133.9894230769
21
196.8146017916
31
0.0000000000
11
134.1425004235
21
196.8192339235
31
0.0000000000
11
134.2722694669
21
196.8324247151
31
0.0000000000
11
134.3589761901
21
196.8521655857
31
0.0000000000
11
134.3894230769
21
196.8754511466
31
0.0000000000
0
SPLINE
5
387
100
AcDbEntity
8
0
100
AcDbSpline
62
9
6
CONTINUOUS
70
0
71
3
72
8
73
4
74
2
42
0.0000001000
43
0.0000001000
44
0.0000000001
12
0.1709411751
22
0.2127183176
32
0.0000000000
13
0.1352924662
23
0.2386035410
33
0.0000000000
40
0.0000000000
40
0.0000000000
40
0.0000000000
40
0.0000000000
40
1.0000000000
40
1.0000000000
40
1.0000000000
40
1.0000000000
10
129.5310111750
20
178.2799435985
30
0.0000000000
10
129.5879915667
20
178.3508497044
30
0.0000000000
10
129.6396100366
20
178.4265577694
30
0.0000000000
10
129.6847075254
20
178.5060922831
30
0.0000000000
11
129.5310111750
21
178.2799435985
31
0.0000000000
11
129.6847075254
21
178.5060922831
31
0.0000000000
0
SPLINE
5
388
100
AcDbEntity
8
0
100
AcDbSpline
62
9
6
CONTINUOUS
70
0
71
3
72
9
73
5
74
3
42
0.0000001000
43
0.0000001000
44
0.0000000001
12
0.3940529231
22
0.6949568255
32
0.0000000000
13
-0.0000000000
23
0.7948250092
33
0.0000000000
40
0.0000000000
40
0.0000000000
40
0.0000000000
40
0.0000000000
40
0.3365489865
40
1.0000000000
40
1.0000000000
40
1.0000000000
40
1.0000000000
10
129.6847075254
20
178.5060922831
30
0.0000000000
10
129.7289135627
20
178.5840546215
30
0.0000000000
10
129.8416469619
20
178.8266315095
30
0.0000000000
10
129.8894230769
20
179.0935571802
30
0.0000000000
10
129.8894230769
20
179.2693329995
30
0.0000000000
11
129.6847075254
21
178.5060922831
31
0.0000000000
11
129.7974367841
21
178.7500905034
31
0.0000000000
11
129.8894230769
21
179.2693329995
31
0.0000000000
0
SPLINE
5
389
100
AcDbEntity
8
0
100
AcDbSpline
62
9
6
CONTINUOUS
70
0
71
3
72
12
73
8
74
6
42
0.0000001000
43
0.0000001000
44
0.0000000001
12
-1.0384746656
22
0.0000000386
32
0.0000000000
13
-0.0000000263
23
-1.0384746656
33
0.0000000000
40
0.0000000000
40
0.0000000000
40
0.0000000000
40
0.0000000000
40
0.2976776723
40
0.5672355627
40
0.7836850271
40
0.9287238468
40
1.0000000000
40
1.0000000000
40
1.0000000000
40
1.0000000000
10
99.2394230769
20
203.6059494158
30
0.0000000000
10
99.1363795032
20
203.6059494197
30
0.0000000000
10
98.9395847518
20
203.6002459363
30
0.0000000000
10
98.6706478672
20
203.5782860011
30
0.0000000000
10
98.4508473899
20
203.5388244749
30
0.0000000000
10
98.3149515990
20
203.5035210017
30
0.0000000000
10
98.2394230775
20
203.4509544306
30
0.0000000000
10
98.2394230769
20
203.4262816041
30
0.0000000000
11
99.2394230769
21
203.6059494158
31
0.0000000000
11
98.9304174334
21
203.5971565172
31
0.0000000000
11
98.6516539597
21
203.5716380293
31
0.0000000000
11
98.4304188146
21
203.5318908466
31
0.0000000000
11
98.2883712997
21
203.4818046334
31
0.0000000000
11
98.2394230769
21
203.4262816041
31
0.0000000000
0
SPLINE
5
38A
100
AcDbEntity
8
0
100
AcDbSpline
62
9
6
CONTINUOUS
70
0
71
3
72
10
73
6
74
4
42
0.0000001000
43
0.0000001000
44
0.0000000001
12
0.2107342858
22
-1.0501170553
32
0.0000000000
13
0.8052444334
23
-0.7062125541
33
0.0000000000
40
0.0000000000
40
0.0000000000
40
0.0000000000
40
0.0000000000
40
0.2982324193
40
0.6284659716
40
1.0000000000
40
1.0000000000
40
1.0000000000
40
1.0000000000
10
127.9123670507
20
177.3075706102
30
0.0000000000
10
127.9333163160
20
177.2031776269
30
0.0000000000
10
128.0074921879
20
176.9884780992
30
0.0000000000
10
128.2015708768
20
176.6857041002
30
0.0000000000
10
128.3774998768
20
176.5049517764
30
0.0000000000
10
128.4772251128
20
176.4174911113
30
0.0000000000
11
127.9123670507
21
177.3075706102
31
0.0000000000
11
128.0144782983
21
177.0049087639
31
0.0000000000
11
128.2023533322
21
176.7052339131
31
0.0000000000
11
128.4772251128
21
176.4174911113
31
0.0000000000
0
SPLINE
5
38B
100
AcDbEntity
8
0
100
AcDbSpline
62
9
6
CONTINUOUS
70
0
71
3
72
8
73
4
74
2
42
0.0000001000
43
0.0000001000
44
0.0000000001
12
-0.1713276892
22
0.2131992935
32
0.0000000000
13
-0.1355107368
23
0.2392000949
33
0.0000000000
40
0.0000000000
40
0.0000000000
40
0.0000000000
40
0.0000000000
40
1.0000000000
40
1.0000000000
40
1.0000000000
40
1.0000000000
10
162.2478349793
20
178.2799435977
30
0.0000000000
10
162.1907257496
20
178.3510100289
30
0.0000000000
10
162.1390026301
20
178.4269021490
30
0.0000000000
10
162.0938323845
20
178.5066355140
30
0.0000000000
11
162.2478349793
21
178.2799435977
31
0.0000000000
11
162.0938323845
21
178.5066355140
31
0.0000000000
0
SPLINE
5
38C
100
AcDbEntity
8
0
100
AcDbSpline
62
9
6
CONTINUOUS
70
0
71
3
72
9
73
5
74
3
42
0.0000001000
43
0.0000001000
44
0.0000000001
12
-0.3934928754
22
0.6945835831
32
0.0000000000
13
0.0000000000
23
0.7942086673
33
0.0000000000
40
0.0000000000
40
0.0000000000
40
0.0000000000
40
0.0000000000
40
0.3370485356
40
1.0000000000
40
1.0000000000
40
1.0000000000
40
1.0000000000
10
162.0938323845
20
178.5066355140
30
0.0000000000
10
162.0496236520
20
178.5846716405
30
0.0000000000
10
161.9370824007
20
178.8271161863
30
0.0000000000
10
161.8894230769
20
179.0938257331
30
0.0000000000
10
161.8894230769
20
179.2693329995
30
0.0000000000
11
162.0938323845
21
178.5066355140
31
0.0000000000
11
161.9811306224
21
178.7508593445
31
0.0000000000
11
161.8894230769
21
179.2693329995
31
0.0000000000
0
SPLINE
5
38D
100
AcDbEntity
8
0
100
AcDbSpline
62
9
6
CONTINUOUS
70
0
71
3
72
12
73
8
74
6
42
0.0000001000
43
0.0000001000
44
0.0000000001
12
-1.0384749487
22
-0.0000000001
32
0.0000000000
13
0.0000000000
23
-1.0384749487
33
0.0000000000
40
0.0000000000
40
0.0000000000
40
0.0000000000
40
0.0000000000
40
0.2976885354
40
0.5672510668
40
0.7836974245
40
0.9287287768
40
1.0000000000
40
1.0000000000
40
1.0000000000
40
1.0000000000
10
99.2394230769
20
213.5681839795
30
0.0000000000
10
99.1363757148
20
213.5681839795
30
0.0000000000
10
98.9395755691
20
213.5624801177
30
0.0000000000
10
98.6706342304
20
213.5405190940
30
0.0000000000
10
98.4508364953
20
213.5010564364
30
0.0000000000
10
98.3149447091
20
213.4657528291
30
0.0000000000
10
98.2394230769
20
213.4131872860
30
0.0000000000
10
98.2394230769
20
213.3885161594
30
0.0000000000
11
99.2394230769
21
213.5681839795
31
0.0000000000
11
98.9304060826
21
213.5593904104
31
0.0000000000
11
98.6516378247
21
213.5338704789
31
0.0000000000
11
98.4304060826
21
213.4941222537
31
0.0000000000
11
98.2883665606
21
213.4440365682
31
0.0000000000
11
98.2394230769
21
213.3885161594
31
0.0000000000
0
SPLINE
5
38E
100
AcDbEntity
8
0
100
AcDbSpline
62
9
6
CONTINUOUS
70
0
71
3
72
10
73
6
74
4
42
0.0000001000
43
0.0000001000
44
0.0000000001
12
0.8052342798
22
0.7062036359
32
0.0000000000
13
0.2107319232
23
1.0501037460
33
0.0000000000
40
0.0000000000
40
0.0000000000
40
0.0000000000
40
0.0000000000
40
0.3716505156
40
0.7019785152
40
1.0000000000
40
1.0000000000
40
1.0000000000
40
1.0000000000
10
163.3016210432
20
176.4174911122
30
0.0000000000
10
163.4013762883
20
176.5049780940
30
0.0000000000
10
163.5773456258
20
176.6857893926
30
0.0000000000
10
163.7714203817
20
176.9885727133
30
0.0000000000
10
163.8455012615
20
177.2032530005
30
0.0000000000
10
163.8664354750
20
177.3075708263
30
0.0000000000
11
163.3016210432
21
176.4174911122
31
0.0000000000
11
163.5765670633
21
176.7053285910
31
0.0000000000
11
163.7644616445
21
177.0051053098
31
0.0000000000
11
163.8664354750
21
177.3075708263
31
0.0000000000
0
SPLINE
5
38F
100
AcDbEntity
8
0
100
AcDbSpline
62
9
6
CONTINUOUS
70
0
71
3
72
14
73
10
74
8
42
0.0000001000
43
0.0000001000
44
0.0000000001
12
3.0121392103
22
-0.0000367839
32
0.0000000000
13
0.0000056125
23
3.0121392105
33
0.0000000000
40
0.0000000000
40
0.0000000000
40
0.0000000000
40
0.0000000000
40
0.1432055664
40
0.2860189439
40
0.4300931849
40
0.5764675687
40
0.7229288864
40
0.8650454552
40
1.0000000000
40
1.0000000000
40
1.0000000000
40
1.0000000000
10
159.8894230769
20
177.4276862630
30
0.0000000000
10
160.0332081108
20
177.4276845071
30
0.0000000000
10
160.3212106361
20
177.4563543962
30
0.0000000000
10
160.7364847552
20
177.5847064461
30
0.0000000000
10
161.1196979204
20
177.7975119005
30
0.0000000000
10
161.4503296377
20
178.0915678990
30
0.0000000000
10
161.7026058124
20
178.4533429653
30
0.0000000000
10
161.8556954604
20
178.8545324048
30
0.0000000000
10
161.8894228244
20
179.1338323741
30
0.0000000000
10
161.8894230769
20
179.2693329995
30
0.0000000000
11
159.8894230769
21
177.4276862630
31
0.0000000000
11
160.3186377978
21
177.4706041755
31
0.0000000000
11
160.7295044875
21
177.5980327407
31
0.0000000000
11
161.1085348051
21
177.8093794445
31
0.0000000000
11
161.4373324837
21
178.1031223847
31
0.0000000000
11
161.6888803011
21
178.4655413384
31
0.0000000000
11
161.8408090371
21
178.8657484973
31
0.0000000000
11
161.8894230769
21
179.2693329995
31
0.0000000000
0
SPLINE
5
390
100
AcDbEntity
8
0
100
AcDbSpline
62
9
6
CONTINUOUS
70
0
71
3
72
16
73
12
74
10
42
0.0000001000
43
0.0000001000
44
0.0000000001
12
-6.2629601189
22
0.0010964537
32
0.0000000000
13
-0.0008712948
23
-6.2629601543
33
0.0000000000
40
0.0000000000
40
0.0000000000
40
0.0000000000
40
0.0000000000
40
0.0771000334
40
0.1673941074
40
0.2678901473
40
0.3775847236
40
0.4953465758
40
0.6197215808
40
0.7477659964
40
0.8758162555
40
1.0000000000
40
1.0000000000
40
1.0000000000
40
1.0000000000
10
103.2276415242
20
217.5687546366
30
0.0000000000
10
103.0666833794
20
217.5687828154
30
0.0000000000
10
102.7170090175
20
217.5449345532
30
0.0000000000
10
102.1664770499
20
217.4372848458
30
0.0000000000
10
101.5734535519
20
217.2246268241
30
0.0000000000
10
100.9725369695
20
216.8896047112
30
0.0000000000
10
100.4014124933
20
216.4210899485
30
0.0000000000
10
99.9039878826
20
215.8232456533
30
0.0000000000
10
99.5234337353
20
215.1198827269
30
0.0000000000
10
99.2909081134
20
214.3554258030
30
0.0000000000
10
99.2394591438
20
213.8274365941
30
0.0000000000
10
99.2394230769
20
213.5681839795
30
0.0000000000
11
103.2276415242
21
217.5687546366
31
0.0000000000
11
102.7457729400
21
217.5376034852
31
0.0000000000
11
102.1909259115
21
217.4283135435
31
0.0000000000
11
101.5983932584
21
217.2160570634
31
0.0000000000
11
100.9983774062
21
216.8814415838
31
0.0000000000
11
100.4281586012
21
216.4136675852
31
0.0000000000
11
99.9299701098
21
215.8148519027
31
0.0000000000
11
99.5483283166
21
215.1095486887
31
0.0000000000
11
99.3150333110
21
214.3422578570
31
0.0000000000
11
99.2394230769
21
213.5681839795
31
0.0000000000
0
SPLINE
5
391
100
AcDbEntity
8
0
100
AcDbSpline
62
9
6
CONTINUOUS
70
0
71
3
72
11
73
7
74
5
42
0.0000001000
43
0.0000001000
44
0.0000000001
12
-0.0000803404
22
-0.8203329573
32
0.0000000000
13
0.0025092686
23
-0.8203290878
33
0.0000000000
40
0.0000000000
40
0.0000000000
40
0.0000000000
40
0.0000000000
40
0.0728801970
40
0.2828053176
40
0.6046739594
40
1.0000000000
40
1.0000000000
40
1.0000000000
40
1.0000000000
10
103.2394944118
20
218.3885161591
30
0.0000000000
10
103.2394924600
20
218.3685874833
30
0.0000000000
10
103.2394911798
20
218.2912559796
30
0.0000000000
10
103.2395097287
20
218.1259113408
30
0.0000000000
10
103.2393426847
20
217.8723956019
30
0.0000000000
10
103.2398487344
20
217.6762831296
30
0.0000000000
10
103.2401793941
20
217.5681839795
30
0.0000000000
11
103.2394944118
21
218.3885161591
31
0.0000000000
11
103.2394924614
21
218.3287301340
31
0.0000000000
11
103.2394888220
21
218.1565216457
31
0.0000000000
11
103.2394838704
21
217.8924822011
31
0.0000000000
11
103.2401793941
21
217.5681839795
31
0.0000000000
0
SPLINE
5
392
100
AcDbEntity
8
0
100
AcDbSpline
62
9
6
CONTINUOUS
70
0
71
3
72
12
73
8
74
6
42
0.0000001000
43
0.0000001000
44
0.0000000001
12
0.0000000000
22
-2.0571703554
32
0.0000000000
13
-2.0571703554
23
0.0000000050
33
0.0000000000
40
0.0000000000
40
0.0000000000
40
0.0000000000
40
0.0000000000
40
0.0659762955
40
0.2100916605
40
0.4276496481
40
0.6994836370
40
1.0000000000
40
1.0000000000
40
1.0000000000
40
1.0000000000
10
161.8894230769
20
197.5754511461
30
0.0000000000
10
161.8894230769
20
197.5302096530
30
0.0000000000
10
161.7283767736
20
197.4434635941
30
0.0000000000
10
161.4678826633
20
197.3846800963
30
0.0000000000
10
161.0250517136
20
197.3179434675
30
0.0000000000
10
160.4892464694
20
197.2808699081
30
0.0000000000
10
160.0954941947
20
197.2712043732
30
0.0000000000
10
159.8894230769
20
197.2712043737
30
0.0000000000
11
161.8894230769
21
197.5754511461
31
0.0000000000
11
161.7915361095
21
197.4814337228
31
0.0000000000
11
161.5074570657
21
197.3966193802
31
0.0000000000
11
161.0649935815
21
197.3293103364
31
0.0000000000
11
160.5074570657
21
197.2860952698
31
0.0000000000
11
159.8894230769
21
197.2712043737
31
0.0000000000
0
SPLINE
5
393
100
AcDbEntity
8
0
100
AcDbSpline
62
9
6
CONTINUOUS
70
0
71
3
72
11
73
7
74
5
42
0.0000001000
43
0.0000001000
44
0.0000000001
12
-0.5135515036
22
-0.0000000006
32
0.0000000000
13
-0.0000000000
23
0.5135515036
33
0.0000000000
40
0.0000000000
40
0.0000000000
40
0.0000000000
40
0.0000000000
40
0.3727557860
40
0.6902458358
40
0.9066990789
40
1.0000000000
40
1.0000000000
40
1.0000000000
40
1.0000000000
10
157.8894230769
20
196.7993894530
30
0.0000000000
10
157.8256133121
20
196.7993894529
30
0.0000000000
10
157.7092462580
20
196.8023380465
30
0.0000000000
10
157.5480651008
20
196.8179455233
30
0.0000000000
10
157.4557182660
20
196.8353301731
30
0.0000000000
10
157.3894230769
20
196.8594795366
30
0.0000000000
10
157.3894230769
20
196.8754511461
30
0.0000000000
11
157.8894230769
21
196.7993894530
31
0.0000000000
11
157.6980813607
21
196.8051793046
31
0.0000000000
11
157.5358696865
21
196.8216674075
31
0.0000000000
11
157.4274833108
21
196.8463435977
31
0.0000000000
11
157.3894230769
21
196.8754511461
31
0.0000000000
0
SPLINE
5
394
100
AcDbEntity
8
0
100
AcDbSpline
62
7
6
CONTINUOUS
70
0
71
3
72
11
73
7
74
5
42
0.0000001000
43
0.0000001000
44
0.0000000001
12
0.3688812933
22
-0.0290172083
32
0.0000000000
13
0.2526224146
23
-0.2703651652
33
0.0000000000
40
0.0000000000
40
0.0000000000
40
0.0000000000
40
0.0000000000
40
0.2856822472
40
0.5504534905
40
0.7939626467
40
1.0000000000
40
1.0000000000
40
1.0000000000
40
1.0000000000
10
131.2372406046
20
198.6402009782
30
0.0000000000
10
131.2723682169
20
198.6374377444
30
0.0000000000
10
131.3398696108
20
198.6295070899
30
0.0000000000
10
131.4358485521
20
198.6085945142
30
0.0000000000
10
131.5185006970
20
198.5776902822
30
0.0000000000
10
131.5661749272
20
198.5468890773
30
0.0000000000
10
131.5835248118
20
198.5283206363
30
0.0000000000
11
131.2372406046
21
198.6402009782
31
0.0000000000
11
131.3421755097
21
198.6274366868
31
0.0000000000
11
131.4377046511
21
198.6057001968
31
0.0000000000
11
131.5215625271
21
198.5727382538
31
0.0000000000
11
131.5835248118
21
198.5283206363
31
0.0000000000
0
SPLINE
5
395
100
AcDbEntity
8
0
100
AcDbSpline
62
9
6
CONTINUOUS
70
0
71
3
72
12
73
8
74
6
42
0.0000001000
43
0.0000001000
44
0.0000000001
12
1.0384749492
22
0.0000000000
32
0.0000000000
13
0.0000000000
23
-1.0384749492
33
0.0000000000
40
0.0000000000
40
0.0000000000
40
0.0000000000
40
0.0000000000
40
0.2976885353
40
0.5672510665
40
0.7836974241
40
0.9287287762
40
1.0000000000
40
1.0000000000
40
1.0000000000
40
1.0000000000
10
192.5394230769
20
203.6059494158
30
0.0000000000
10
192.6424704391
20
203.6059494158
30
0.0000000000
10
192.8392705847
20
203.6002455540
30
0.0000000000
10
193.1082119236
20
203.5782845307
30
0.0000000000
10
193.3280096583
20
203.5388218732
30
0.0000000000
10
193.4639014455
20
203.5035182666
30
0.0000000000
10
193.5394230769
20
203.4509527226
30
0.0000000000
10
193.5394230769
20
203.4262815957
30
0.0000000000
11
192.5394230769
21
203.6059494158
31
0.0000000000
11
192.8484400713
21
203.5971558468
31
0.0000000000
11
193.1272083292
21
203.5716359155
31
0.0000000000
11
193.3484400713
21
203.5318876907
31
0.0000000000
11
193.4904795932
21
203.4818020055
31
0.0000000000
11
193.5394230769
21
203.4262815957
31
0.0000000000
0
SPLINE
5
396
100
AcDbEntity
8
0
100
AcDbSpline
62
9
6
CONTINUOUS
70
0
71
3
72
18
73
14
74
12
42
0.0000001000
43
0.0000001000
44
0.0000000001
12
3.5967136698
22
-0.3443040456
32
0.0000000000
13
3.1361673861
23
1.7942543367
33
0.0000000000
40
0.0000000000
40
0.0000000000
40
0.0000000000
40
0.0000000000
40
0.1323327812
40
0.2520637762
40
0.3603635368
40
0.4600038713
40
0.5523199800
40
0.6379962287
40
0.7184394070
40
0.7947587199
40
0.8671879506
40
0.9356845110
40
1.0000000000
40
1.0000000000
40
1.0000000000
40
1.0000000000
10
128.4772118804
20
176.4174911023
30
0.0000000000
10
128.6358662548
20
176.4023035317
30
0.0000000000
10
128.9405067601
20
176.3950223967
30
0.0000000000
10
129.3731852951
20
176.4381996536
30
0.0000000000
10
129.7605418618
20
176.5163695815
30
0.0000000000
10
130.1086131086
20
176.6154757604
30
0.0000000000
10
130.4241643454
20
176.7265516745
30
0.0000000000
10
130.7128506969
20
176.8431269967
30
0.0000000000
10
130.9796912012
20
176.9617740985
30
0.0000000000
10
131.2291789161
20
177.0799396081
30
0.0000000000
10
131.4631978677
20
177.1970043087
30
0.0000000000
10
131.6820790795
20
177.3118964831
30
0.0000000000
10
131.8221253881
20
177.3892253588
30
0.0000000000
10
131.8893601011
20
177.4276914738
30
0.0000000000
11
128.4772118804
21
176.4174911023
31
0.0000000000
11
128.9551873625
21
176.4049893481
31
0.0000000000
11
129.3857460614
21
176.4470344716
31
0.0000000000
11
129.7694867608
21
176.5235969971
31
0.0000000000
11
130.1159312139
21
176.6215142871
31
0.0000000000
11
130.4307762342
21
176.7316499746
31
0.0000000000
11
130.7179715359
21
176.8471803252
31
0.0000000000
11
130.9837307948
21
176.9648731820
31
0.0000000000
11
131.2329693174
21
177.0828570248
31
0.0000000000
11
131.4670338810
21
177.1999026193
31
0.0000000000
11
131.6861145185
21
177.3150301631
31
0.0000000000
11
131.8893601011
21
177.4276914738
31
0.0000000000
0
SPLINE
5
397
100
AcDbEntity
8
0
100
AcDbSpline
62
9
6
CONTINUOUS
70
0
71
3
72
18
73
14
74
12
42
0.0000001000
43
0.0000001000
44
0.0000000001
12
4.1566065437
22
0.0002129940
32
0.0000000000
13
2.0939319593
23
3.5906582899
33
0.0000000000
40
0.0000000000
40
0.0000000000
40
0.0000000000
40
0.0000000000
40
0.1516123020
40
0.2860497812
40
0.4047626102
40
0.5108647692
40
0.6058343112
40
0.6904617011
40
0.7663003215
40
0.8345711231
40
0.8958875798
40
0.9508226475
40
1.0000000000
40
1.0000000000
40
1.0000000000
40
1.0000000000
10
128.4772200318
20
175.3993369132
30
0.0000000000
10
128.6872842607
20
175.3993476773
30
0.0000000000
10
129.0844349553
20
175.4328325872
30
0.0000000000
10
129.6309184499
20
175.5668008571
30
0.0000000000
10
130.0950338050
20
175.7504462787
30
0.0000000000
10
130.4853640715
20
175.9620630571
30
0.0000000000
10
130.8119274725
20
176.1869530592
30
0.0000000000
10
131.0835684273
20
176.4145306907
30
0.0000000000
10
131.3089811989
20
176.6377706015
30
0.0000000000
10
131.4959709199
20
176.8526499063
30
0.0000000000
10
131.6512439363
20
177.0559569744
30
0.0000000000
10
131.7797989026
20
177.2458385117
30
0.0000000000
10
131.8550984002
20
177.3689346755
30
0.0000000000
10
131.8894230769
20
177.4277943650
30
0.0000000000
11
128.4772200318
21
175.3993369132
31
0.0000000000
11
129.1052056416
21
175.4520331873
31
0.0000000000
11
129.6479907303
21
175.5848711705
31
0.0000000000
11
130.1068566770
21
175.7663307139
31
0.0000000000
11
130.4946095019
21
175.9764514761
31
0.0000000000
11
130.8197519217
21
176.2003058375
31
0.0000000000
11
131.0894346829
21
176.4261558977
31
0.0000000000
11
131.3134372087
21
176.6479523018
31
0.0000000000
11
131.4998277548
21
176.8619306562
31
0.0000000000
11
131.6545314961
21
177.0644760738
31
0.0000000000
11
131.7827123231
21
177.2534480620
31
0.0000000000
11
131.8894230769
21
177.4277943650
31
0.0000000000
0
SPLINE
5
398
100
AcDbEntity
8
0
100
AcDbSpline
62
9
6
CONTINUOUS
70
0
71
3
72
11
73
7
74
5
42
0.0000001000
43
0.0000001000
44
0.0000000001
12
0.0312676088
22
0.8198525339
32
0.0000000000
13
-0.0006436324
23
0.8204536473
33
0.0000000000
40
0.0000000000
40
0.0000000000
40
0.0000000000
40
0.0000000000
40
0.3953556726
40
0.7172097958
40
0.9271282502
40
1.0000000000
40
1.0000000000
40
1.0000000000
40
1.0000000000
10
188.5306774659
20
217.5681839795
30
0.0000000000
10
188.5347980747
20
217.6762284295
30
0.0000000000
10
188.5411107658
20
217.8723207434
30
0.0000000000
10
188.5390956511
20
218.1258910495
30
0.0000000000
10
188.5393579260
20
218.2912487131
30
0.0000000000
10
188.5393705349
20
218.3685868615
30
0.0000000000
10
188.5393549007
20
218.3885161591
30
0.0000000000
11
188.5306774659
21
217.5681839795
31
0.0000000000
11
188.5393658035
21
217.8924365911
31
0.0000000000
11
188.5393602586
21
218.1565013432
31
0.0000000000
11
188.5393567285
21
218.3287286369
31
0.0000000000
11
188.5393549007
21
218.3885161591
31
0.0000000000
0
SPLINE
5
399
100
AcDbEntity
8
0
100
AcDbSpline
62
9
6
CONTINUOUS
70
0
71
3
72
9
73
5
74
3
42
0.0000001000
43
0.0000001000
44
0.0000000001
12
-0.0232260388
22
0.1509023426
32
0.0000000000
13
0.0000098414
23
0.1526792906
33
0.0000000000
40
0.0000000000
40
0.0000000000
40
0.0000000000
40
0.0000000000
40
0.5014105210
40
1.0000000000
40
1.0000000000
40
1.0000000000
40
1.0000000000
10
118.1510615665
20
174.8472660668
30
0.0000000000
10
118.1471796397
20
174.8724874075
30
0.0000000000
10
118.1413602828
20
174.9231031099
30
0.0000000000
10
118.1394214413
20
174.9740146903
30
0.0000000000
10
118.1394230769
20
174.9993894530
30
0.0000000000
11
118.1510615665
21
174.8472660668
31
0.0000000000
11
118.1423194763
21
174.9233202863
31
0.0000000000
11
118.1394230769
21
174.9993894530
31
0.0000000000
0
SPLINE
5
39A
100
AcDbEntity
8
0
100
AcDbSpline
62
9
6
CONTINUOUS
70
0
71
3
72
11
73
7
74
5
42
0.0000001000
43
0.0000001000
44
0.0000000001
12
0.0763291917
22
-0.4959154787
32
0.0000000000
13
0.4961782100
23
0.0746022213
33
0.0000000000
40
0.0000000000
40
0.0000000000
40
0.0000000000
40
0.0000000000
40
0.0928665895
40
0.3084222458
40
0.6255873415
40
1.0000000000
40
1.0000000000
40
1.0000000000
40
1.0000000000
10
117.6568784632
20
174.8472657054
30
0.0000000000
10
117.6592412738
20
174.8319143790
30
0.0000000000
10
117.7264726451
20
174.8183704043
30
0.0000000000
10
117.8180399637
20
174.8152024212
30
0.0000000000
10
117.9760749002
20
174.8237798500
30
0.0000000000
10
118.0891364322
20
174.8379553948
30
0.0000000000
10
118.1510615665
20
174.8472660668
30
0.0000000000
11
117.6568784632
21
174.8472657054
31
0.0000000000
11
117.6977257767
21
174.8248444690
31
0.0000000000
11
117.8055958925
21
174.8169833768
31
0.0000000000
11
117.9645408504
21
174.8248446426
31
0.0000000000
11
118.1510615665
21
174.8472660668
31
0.0000000000
0
SPLINE
5
39B
100
AcDbEntity
8
0
100
AcDbSpline
62
9
6
CONTINUOUS
70
0
71
3
72
11
73
7
74
5
42
0.0000001000
43
0.0000001000
44
0.0000000001
12
0.0000000000
22
-0.5135515043
32
0.0000000000
13
0.5135515043
23
0.0000000000
33
0.0000000000
40
0.0000000000
40
0.0000000000
40
0.0000000000
40
0.0000000000
40
0.0933009227
40
0.3097541650
40
0.6272442146
40
1.0000000000
40
1.0000000000
40
1.0000000000
40
1.0000000000
10
117.6394230769
20
175.0754511461
30
0.0000000000
10
117.6394230769
20
175.0594795363
30
0.0000000000
10
117.7057182645
20
175.0353301703
30
0.0000000000
10
117.7980651014
20
175.0179455239
30
0.0000000000
10
117.9592462577
20
175.0023380462
30
0.0000000000
10
118.0756133121
20
174.9993894530
30
0.0000000000
10
118.1394230769
20
174.9993894530
30
0.0000000000
11
117.6394230769
21
175.0754511461
31
0.0000000000
11
117.6774833107
21
175.0463435961
31
0.0000000000
11
117.7858696863
21
175.0216674070
31
0.0000000000
11
117.9480813608
21
175.0051793046
31
0.0000000000
11
118.1394230769
21
174.9993894530
31
0.0000000000
0
SPLINE
5
39C
100
AcDbEntity
8
0
100
AcDbSpline
62
9
6
CONTINUOUS
70
0
71
3
72
11
73
7
74
5
42
0.0000001000
43
0.0000001000
44
0.0000000001
12
0.0000000000
22
-0.5135515046
32
0.0000000000
13
0.5135515046
23
0.0000000004
33
0.0000000000
40
0.0000000000
40
0.0000000000
40
0.0000000000
40
0.0000000000
40
0.0933009073
40
0.3097541300
40
0.6272441832
40
1.0000000000
40
1.0000000000
40
1.0000000000
40
1.0000000000
10
117.6394230769
20
175.4754008402
30
0.0000000000
10
117.6394230769
20
175.4594292331
30
0.0000000000
10
117.7057182539
20
175.4352798663
30
0.0000000000
10
117.7980650878
20
175.4178952203
30
0.0000000000
10
117.9592462463
20
175.4022877405
30
0.0000000000
10
118.0756133067
20
175.3993391471
30
0.0000000000
10
118.1394230769
20
175.3993391472
30
0.0000000000
11
117.6394230769
21
175.4754008402
31
0.0000000000
11
117.6774833030
21
175.4462932932
31
0.0000000000
11
117.7858696684
21
175.4216171038
31
0.0000000000
11
117.9480813446
21
175.4051289997
31
0.0000000000
11
118.1394230769
21
175.3993391472
31
0.0000000000
0
SPLINE
5
39D
100
AcDbEntity
8
0
100
AcDbSpline
62
9
6
CONTINUOUS
70
0
71
3
72
11
73
7
74
5
42
0.0000001000
43
0.0000001000
44
0.0000000001
12
0.0000000000
22
0.7290255779
32
0.0000000000
13
0.7290255779
23
0.0000000000
33
0.0000000000
40
0.0000000000
40
0.0000000000
40
0.0000000000
40
0.0000000000
40
0.2332175100
40
0.4765997713
40
0.7336719567
40
1.0000000000
40
1.0000000000
40
1.0000000000
40
1.0000000000
10
117.6394230769
20
175.9844752352
30
0.0000000000
10
117.6394230769
20
176.0411490786
30
0.0000000000
10
117.6669548281
20
176.1584358511
30
0.0000000000
10
117.7807978743
20
176.3020045103
30
0.0000000000
10
117.9463966610
20
176.3959237669
30
0.0000000000
10
118.0747030917
20
176.4174879371
30
0.0000000000
10
118.1394230769
20
176.4174879371
30
0.0000000000
11
117.6394230769
21
175.9844752352
31
0.0000000000
11
117.6774833107
21
176.1501820223
31
0.0000000000
11
117.7858696863
21
176.2906614531
31
0.0000000000
11
117.9480813607
21
176.3845268078
31
0.0000000000
11
118.1394230769
21
176.4174879371
31
0.0000000000
0
SPLINE
5
39E
100
AcDbEntity
8
0
100
AcDbSpline
62
9
6
CONTINUOUS
70
0
71
3
72
16
73
12
74
10
42
0.0000001000
43
0.0000001000
44
0.0000000001
12
-0.0008688775
22
6.2695674066
32
0.0000000000
13
-6.2695526914
23
-0.0136114025
33
0.0000000000
40
0.0000000000
40
0.0000000000
40
0.0000000000
40
0.0000000000
40
0.1242934781
40
0.2524598390
40
0.3806068990
40
0.5050563652
40
0.6228560538
40
0.7325553265
40
0.8330171169
40
0.9232351611
40
1.0000000000
40
1.0000000000
40
1.0000000000
40
1.0000000000
10
192.5394230769
20
213.5681839795
30
0.0000000000
10
192.5393870783
20
213.8279394260
30
0.0000000000
10
192.4877363441
20
214.3569643871
30
0.0000000000
10
192.2543159145
20
215.1227736694
30
0.0000000000
10
191.8723802643
20
215.8270726123
30
0.0000000000
10
191.3733466268
20
216.4252538584
30
0.0000000000
10
190.8006707916
20
216.8935115336
30
0.0000000000
10
190.1984882368
20
217.2277996919
30
0.0000000000
10
189.6046257127
20
217.4394459820
30
0.0000000000
10
189.0542091077
20
217.5458780838
30
0.0000000000
10
188.7049874738
20
217.5690964587
30
0.0000000000
10
188.5445604063
20
217.5687481664
30
0.0000000000
11
192.5394230769
21
213.5681839795
31
0.0000000000
11
192.4635192776
21
214.3437448427
31
0.0000000000
11
192.2293228789
21
215.1124065802
31
0.0000000000
11
191.8462932469
21
215.8186520504
31
0.0000000000
11
191.3464950650
21
216.4178039372
31
0.0000000000
11
190.7747427388
21
216.8853078966
31
0.0000000000
11
190.1734588287
21
217.2191957435
31
0.0000000000
11
189.5800853347
21
217.4304335331
31
0.0000000000
11
189.0248982851
21
217.5386116456
31
0.0000000000
11
188.5445604063
21
217.5687481664
31
0.0000000000
0
SPLINE
5
39F
100
AcDbEntity
8
0
100
AcDbSpline
62
9
6
CONTINUOUS
70
0
71
3
72
12
73
8
74
6
42
0.0000001000
43
0.0000001000
44
0.0000000001
12
1.0384749311
22
0.0000000836
32
0.0000000000
13
0.0000000000
23
-1.0384749311
33
0.0000000000
40
0.0000000000
40
0.0000000000
40
0.0000000000
40
0.0000000000
40
0.2976862335
40
0.5672483213
40
0.7836955845
40
0.9287281622
40
1.0000000000
40
1.0000000000
40
1.0000000000
40
1.0000000000
10
192.5394230769
20
213.5681839795
30
0.0000000000
10
192.6424696405
20
213.5681839878
30
0.0000000000
10
192.8392688333
20
213.5624802094
30
0.0000000000
10
193.1082095291
20
213.5405193999
30
0.0000000000
10
193.3280079440
20
213.5010568717
30
0.0000000000
10
193.4639005124
20
213.4657532579
30
0.0000000000
10
193.5394230769
20
213.4131874962
30
0.0000000000
10
193.5394230769
20
213.3885161573
30
0.0000000000
11
192.5394230769
21
213.5681839795
31
0.0000000000
11
192.8484376791
21
213.5593905704
31
0.0000000000
11
193.1272054917
21
213.5338708801
31
0.0000000000
11
193.3484382019
21
213.4941227464
31
0.0000000000
11
193.4904790160
21
213.4440369064
31
0.0000000000
11
193.5394230769
21
213.3885161573
31
0.0000000000
0
SPLINE
5
3A0
100
AcDbEntity
8
0
100
AcDbSpline
62
9
6
CONTINUOUS
70
0
71
3
72
18
73
14
74
12
42
0.0000001000
43
0.0000001000
44
0.0000000001
12
3.1360835897
22
-1.7943928102
32
0.0000000000
13
3.5967129623
23
0.3442698154
33
0.0000000000
40
0.0000000000
40
0.0000000000
40
0.0000000000
40
0.0000000000
40
0.0642082230
40
0.1326558243
40
0.2050700908
40
0.2813951432
40
0.3618474728
40
0.4475471598
40
0.5399316661
40
0.6396857144
40
0.7480550177
40
0.8676732897
40
1.0000000000
40
1.0000000000
40
1.0000000000
40
1.0000000000
10
159.8894861642
20
177.4276914884
30
0.0000000000
10
159.9566069490
20
177.3892865638
30
0.0000000000
10
160.0964872976
20
177.3120467299
30
0.0000000000
10
160.3151825428
20
177.1972445988
30
0.0000000000
10
160.5491328189
20
177.0801999396
30
0.0000000000
10
160.7986141962
20
176.9620219514
30
0.0000000000
10
161.0654900275
20
176.8433415441
30
0.0000000000
10
161.3542807390
20
176.7267007643
30
0.0000000000
10
161.6700589464
20
176.6155243494
30
0.0000000000
10
162.0184211795
20
176.5163317539
30
0.0000000000
10
162.4058668138
20
176.4381700578
30
0.0000000000
10
162.8384866232
20
176.3950260524
30
0.0000000000
10
163.1429831349
20
176.4023039575
30
0.0000000000
10
163.3016301996
20
176.4174893215
30
0.0000000000
11
159.8894861642
21
177.4276914884
31
0.0000000000
11
160.0923893806
21
177.3152124828
31
0.0000000000
11
160.3113096245
21
177.2001605778
31
0.0000000000
11
160.5453200942
21
177.0831283388
31
0.0000000000
11
160.7945709896
21
176.9651228732
31
0.0000000000
11
161.0603534611
21
176.8474015642
31
0.0000000000
11
161.3476192321
21
176.7318203890
31
0.0000000000
11
161.6626910024
21
176.6215855723
31
0.0000000000
11
162.0095299873
21
176.5235549973
31
0.0000000000
11
162.3935218868
21
176.4469695104
31
0.0000000000
11
162.8236771579
21
176.4049886157
31
0.0000000000
11
163.3016301996
21
176.4174893215
31
0.0000000000
0
SPLINE
5
3A1
100
AcDbEntity
8
0
100
AcDbSpline
62
9
6
CONTINUOUS
70
0
71
3
72
18
73
14
74
12
42
0.0000001000
43
0.0000001000
44
0.0000000001
12
2.0936102726
22
-3.5908459679
32
0.0000000000
13
4.1566066336
23
-0.0001807434
33
0.0000000000
40
0.0000000000
40
0.0000000000
40
0.0000000000
40
0.0000000000
40
0.0490945360
40
0.1039833013
40
0.1652800411
40
0.2335459461
40
0.3093855708
40
0.3940282352
40
0.4890634367
40
0.5952845352
40
0.7140743003
40
0.8483841113
40
1.0000000000
40
1.0000000000
40
1.0000000000
40
1.0000000000
10
159.8894230769
20
177.4277945705
30
0.0000000000
10
159.9236846852
20
177.3690309316
30
0.0000000000
10
159.9988941603
20
177.2460894848
30
0.0000000000
10
160.1273105915
20
177.0563638066
30
0.0000000000
10
160.2824985440
20
176.8531154754
30
0.0000000000
10
160.4694318741
20
176.6382306620
30
0.0000000000
10
160.6948219684
20
176.4149453446
30
0.0000000000
10
160.9665145865
20
176.1872522592
30
0.0000000000
10
161.2932829960
20
175.9621691599
30
0.0000000000
10
161.6839311219
20
175.7503724748
30
0.0000000000
10
162.1481536161
20
175.5667339237
30
0.0000000000
10
162.6945779367
20
175.4328195189
30
0.0000000000
10
163.0915569200
20
175.3993460473
30
0.0000000000
10
163.3016261230
20
175.3993369128
30
0.0000000000
11
159.8894230769
21
177.4277945705
31
0.0000000000
11
159.9959475243
21
177.2537378281
31
0.0000000000
11
160.1240014102
21
177.0649122895
31
0.0000000000
11
160.2786283576
21
176.8624113391
31
0.0000000000
11
160.4649721997
21
176.6484192912
31
0.0000000000
11
160.6889430797
21
176.4265849897
31
0.0000000000
11
160.9586399790
21
176.2006529197
31
0.0000000000
11
161.2839826885
21
175.9766081877
31
0.0000000000
11
161.6721673361
21
175.7662466131
31
0.0000000000
11
162.1313473606
21
175.5847116588
31
0.0000000000
11
162.6736257310
21
175.4520354757
31
0.0000000000
11
163.3016261230
21
175.3993369128
31
0.0000000000
0
SPLINE
5
3A2
100
AcDbEntity
8
0
100
AcDbSpline
62
9
6
CONTINUOUS
70
0
71
3
72
14
73
10
74
8
42
0.0000001000
43
0.0000001000
44
0.0000000001
12
-1.6149523368
22
-0.3574835281
32
0.0000000000
13
-1.6540451998
23
0.0000147744
33
0.0000000000
40
0.0000000000
40
0.0000000000
40
0.0000000000
40
0.0000000000
40
0.1942459161
40
0.3702839839
40
0.5278831132
40
0.6686439113
40
0.7939972814
40
0.9047369301
40
1.0000000000
40
1.0000000000
40
1.0000000000
40
1.0000000000
10
131.2319291212
20
198.6406500104
30
0.0000000000
10
131.1273631558
20
198.6175034385
30
0.0000000000
10
130.9278481469
20
198.5742135703
30
0.0000000000
10
130.6429815338
20
198.5145288155
30
0.0000000000
10
130.3861710201
20
198.4648254526
30
0.0000000000
10
130.1557918330
20
198.4259249392
30
0.0000000000
10
129.9499116305
20
198.3975736282
30
0.0000000000
10
129.7680013631
20
198.3800818777
30
0.0000000000
10
129.6544167008
20
198.3754506772
30
0.0000000000
10
129.6018935596
20
198.3754511463
30
0.0000000000
11
131.2319291212
21
198.6406500104
31
0.0000000000
11
130.9179535634
21
198.5724767516
31
0.0000000000
11
130.6328732296
21
198.5132143024
31
0.0000000000
11
130.3768580507
21
198.4641403928
31
0.0000000000
11
130.1472211236
21
198.4257446492
31
0.0000000000
11
129.9417499853
21
198.3979679508
31
0.0000000000
11
129.7593628018
21
198.3810690664
31
0.0000000000
11
129.6018935596
21
198.3754511463
31
0.0000000000
0
SPLINE
5
3A3
100
AcDbEntity
8
0
100
AcDbSpline
62
9
6
CONTINUOUS
70
0
71
3
72
14
73
10
74
8
42
0.0000001000
43
0.0000001000
44
0.0000000001
12
-1.3311315304
22
-0.9093805634
32
0.0000000000
13
-1.6062124132
23
-0.1377165345
33
0.0000000000
40
0.0000000000
40
0.0000000000
40
0.0000000000
40
0.0000000000
40
0.2137887540
40
0.4037420810
40
0.5680988634
40
0.7083216473
40
0.8259274907
40
0.9228441605
40
1.0000000000
40
1.0000000000
40
1.0000000000
40
1.0000000000
10
131.5947694358
20
198.5188905646
30
0.0000000000
10
131.4999091187
20
198.4540854521
30
0.0000000000
10
131.3219985387
20
198.3293675945
30
0.0000000000
10
131.0908627268
20
198.1296028662
30
0.0000000000
10
130.8799575530
20
197.9677854404
30
0.0000000000
10
130.6948095339
20
197.8365314343
30
0.0000000000
10
130.5312454797
20
197.7380259229
30
0.0000000000
10
130.3884991775
20
197.6724772041
30
0.0000000000
10
130.2967591216
20
197.6491713677
30
0.0000000000
10
130.2554495659
20
197.6456294894
30
0.0000000000
11
131.5947694358
21
198.5188905646
31
0.0000000000
11
131.3153211944
21
198.3171671855
31
0.0000000000
11
131.0784509955
21
198.1230895217
31
0.0000000000
11
130.8685942702
21
197.9613359823
31
0.0000000000
11
130.6831729335
21
197.8320328367
31
0.0000000000
11
130.5198802146
21
197.7356948686
31
0.0000000000
11
130.3767980368
21
197.6729382292
31
0.0000000000
11
130.2554495659
21
197.6456294894
31
0.0000000000
0
SPLINE
5
3A4
100
AcDbEntity
8
0
100
AcDbSpline
62
9
6
CONTINUOUS
70
0
71
3
72
10
73
6
74
4
42
0.0000001000
43
0.0000001000
44
0.0000000001
12
-0.3748370427
22
-0.0323834600
32
0.0000000000
13
-0.0007839915
23
-0.3762324846
33
0.0000000000
40
0.0000000000
40
0.0000000000
40
0.0000000000
40
0.0000000000
40
0.5354881229
40
0.8710350376
40
1.0000000000
40
1.0000000000
40
1.0000000000
40
1.0000000000
10
130.2554495659
20
197.6456294894
30
0.0000000000
10
130.1885426377
20
197.6398491700
30
0.0000000000
10
130.0715500671
20
197.6295439153
30
0.0000000000
10
129.9689954397
20
197.6079181730
30
0.0000000000
10
129.8894567794
20
197.5916247488
30
0.0000000000
10
129.8894230769
20
197.5754511461
30
0.0000000000
11
130.2554495659
21
197.6456294894
31
0.0000000000
11
130.0551505060
21
197.6239539561
31
0.0000000000
11
129.9311633213
21
197.6001904074
31
0.0000000000
11
129.8894230769
21
197.5754511461
31
0.0000000000
0
SPLINE
5
3A5
100
AcDbEntity
8
0
100
AcDbSpline
62
9
6
CONTINUOUS
70
0
71
3
72
11
73
7
74
5
42
0.0000001000
43
0.0000001000
44
0.0000000001
12
1.0699145784
22
0.0001162777
32
0.0000000000
13
0.0770796546
23
-1.0671344552
33
0.0000000000
40
0.0000000000
40
0.0000000000
40
0.0000000000
40
0.0000000000
40
0.2279199756
40
0.4688179532
40
0.7276755293
40
1.0000000000
40
1.0000000000
40
1.0000000000
40
1.0000000000
10
129.6018601665
20
198.3754170628
30
0.0000000000
10
129.6831451347
20
198.3754258968
30
0.0000000000
10
129.8523537786
20
198.3355724697
30
0.0000000000
10
130.0619025290
20
198.1713403933
30
0.0000000000
10
130.2063288358
20
197.9308262890
30
0.0000000000
10
130.2484926473
20
197.7425027231
30
0.0000000000
10
130.2554895393
20
197.6456337812
30
0.0000000000
11
129.6018601665
21
198.3754170628
31
0.0000000000
11
129.8395857582
21
198.3210869771
31
0.0000000000
11
130.0450131375
21
198.1654282692
31
0.0000000000
11
130.1902256433
21
197.9295942705
31
0.0000000000
11
130.2554895393
21
197.6456337812
31
0.0000000000
0
SPLINE
5
3A6
100
AcDbEntity
8
0
100
AcDbSpline
62
9
6
CONTINUOUS
70
0
71
3
72
11
73
7
74
5
42
0.0000001000
43
0.0000001000
44
0.0000000001
12
-0.5135516143
22
0.0000000814
32
0.0000000000
13
0.0000000000
23
0.5135516143
33
0.0000000000
40
0.0000000000
40
0.0000000000
40
0.0000000000
40
0.0000000000
40
0.3727666995
40
0.6902584057
40
0.9067047503
40
1.0000000000
40
1.0000000000
40
1.0000000000
40
1.0000000000
10
157.8894230769
20
174.8472660668
30
0.0000000000
10
157.8256114302
20
174.8472660769
30
0.0000000000
10
157.7092421963
20
174.8502147451
30
0.0000000000
10
157.5480602423
20
174.8658230050
30
0.0000000000
10
157.4557144151
20
174.8832074172
30
0.0000000000
10
157.3894230769
20
174.9073571178
30
0.0000000000
10
157.3894230769
20
174.9233277599
30
0.0000000000
11
157.8894230769
21
174.8472660668
31
0.0000000000
11
157.6980757236
21
174.8530562956
31
0.0000000000
11
157.5358632232
21
174.8695450298
31
0.0000000000
11
157.4274804682
21
174.8942212720
31
0.0000000000
11
157.3894230769
21
174.9233277599
31
0.0000000000
0
SPLINE
5
3A7
100
AcDbEntity
8
0
100
AcDbSpline
62
9
6
CONTINUOUS
70
0
71
3
72
9
73
5
74
3
42
0.0000001000
43
0.0000001000
44
0.0000000001
12
0.0229873397
22
-0.0001343437
32
0.0000000000
13
0.0229877322
23
0.0000005903
33
0.0000000000
40
0.0000000000
40
0.0000000000
40
0.0000000000
40
0.0000000000
40
0.5001350121
40
1.0000000000
40
1.0000000000
40
1.0000000000
40
1.0000000000
10
163.8664354750
20
177.3075708263
30
0.0000000000
10
163.8702677328
20
177.3075484297
30
0.0000000000
10
163.8779302373
20
177.3075122866
30
0.0000000000
10
163.8855928228
20
177.3075018553
30
0.0000000000
10
163.8894230769
20
177.3075019536
30
0.0000000000
11
163.8664354750
21
177.3075708263
31
0.0000000000
11
163.8779323266
21
177.3075187083
31
0.0000000000
11
163.8894230769
21
177.3075019536
31
0.0000000000
0
SPLINE
5
3A8
100
AcDbEntity
8
0
100
AcDbSpline
62
9
6
CONTINUOUS
70
0
71
3
72
10
73
6
74
4
42
0.0000001000
43
0.0000001000
44
0.0000000001
12
-0.2682629325
22
0.0015447871
32
0.0000000000
13
-0.0061653166
23
-0.2681965254
33
0.0000000000
40
0.0000000000
40
0.0000000000
40
0.0000000000
40
0.0000000000
40
0.1140034990
40
0.4506135762
40
1.0000000000
40
1.0000000000
40
1.0000000000
40
1.0000000000
10
163.8779308459
20
177.5754841480
30
0.0000000000
10
163.8677365416
20
177.5755428517
30
0.0000000000
10
163.8840070643
20
177.5109888817
30
0.0000000000
10
163.8622523904
20
177.4453224587
30
0.0000000000
10
163.8675682182
20
177.3566845331
30
0.0000000000
10
163.8664391711
20
177.3075700231
30
0.0000000000
11
163.8779308459
21
177.5754841480
31
0.0000000000
11
163.8743004145
21
177.5451169691
31
0.0000000000
11
163.8704306764
21
177.4548984196
31
0.0000000000
11
163.8664391711
21
177.3075700231
31
0.0000000000
0
SPLINE
5
3A9
100
AcDbEntity
8
0
100
AcDbSpline
62
9
6
CONTINUOUS
70
0
71
3
72
15
73
11
74
9
42
0.0000001000
43
0.0000001000
44
0.0000000001
12
0.8399134026
22
-1.8211713349
32
0.0000000000
13
2.0040833670
23
0.0759566516
33
0.0000000000
40
0.0000000000
40
0.0000000000
40
0.0000000000
40
0.0000000000
40
0.1494345205
40
0.2976103268
40
0.4356811832
40
0.5649653978
40
0.6863662585
40
0.7999407241
40
0.9050578522
40
1.0000000000
40
1.0000000000
40
1.0000000000
40
1.0000000000
10
162.2479990730
20
178.2800123185
30
0.0000000000
10
162.2898364252
20
178.1892970301
30
0.0000000000
10
162.3889747672
20
178.0156610507
30
0.0000000000
10
162.5726267299
20
177.7876080738
30
0.0000000000
10
162.7866599077
20
177.6079924862
30
0.0000000000
10
163.0117637925
20
177.4759780757
30
0.0000000000
10
163.2389912220
20
177.3860549338
30
0.0000000000
10
163.4603993691
20
177.3317046177
30
0.0000000000
10
163.6690239726
20
177.3067387571
30
0.0000000000
10
163.8030152407
20
177.3051695296
30
0.0000000000
10
163.8664392338
20
177.3075733588
30
0.0000000000
11
162.2479990730
21
178.2800123185
31
0.0000000000
11
162.3960280354
21
178.0194282159
31
0.0000000000
11
162.5840622593
21
177.7893128807
31
0.0000000000
11
162.7957458747
21
177.6108024610
31
0.0000000000
11
163.0193135696
21
177.4794828749
31
0.0000000000
11
163.2455804882
21
177.3895831574
31
0.0000000000
11
163.4667406189
21
177.3350840091
31
0.0000000000
11
163.6760447618
21
177.3098921320
31
0.0000000000
11
163.8664392338
21
177.3075733588
31
0.0000000000
0
SPLINE
5
3AA
100
AcDbEntity
8
0
100
AcDbSpline
62
9
6
CONTINUOUS
70
0
71
3
72
10
73
6
74
4
42
0.0000001000
43
0.0000001000
44
0.0000000001
12
0.0904537871
22
-0.1298319273
32
0.0000000000
13
-0.0543339269
23
-0.1486137320
33
0.0000000000
40
0.0000000000
40
0.0000000000
40
0.0000000000
40
0.0000000000
40
0.2753305119
40
0.5987013195
40
1.0000000000
40
1.0000000000
40
1.0000000000
40
1.0000000000
10
162.2478788325
20
178.4330063492
30
0.0000000000
10
162.2561803950
20
178.4210907856
30
0.0000000000
10
162.2677429009
20
178.3904121817
30
0.0000000000
10
162.2658712344
20
178.3368896214
30
0.0000000000
10
162.2552671174
20
178.2998918167
30
0.0000000000
10
162.2479990730
20
178.2800123185
30
0.0000000000
11
162.2478788325
21
178.4330063492
31
0.0000000000
11
162.2641327819
21
178.3925850862
31
0.0000000000
11
162.2641756431
21
178.3414166248
31
0.0000000000
11
162.2479990730
21
178.2800123185
31
0.0000000000
0
SPLINE
5
3AB
100
AcDbEntity
8
0
100
AcDbSpline
62
9
6
CONTINUOUS
70
0
71
3
72
10
73
6
74
4
42
0.0000001000
43
0.0000001000
44
0.0000000001
12
0.1018220749
22
-1.1246978873
32
0.0000000000
13
0.5898116661
23
-0.9608880227
33
0.0000000000
40
0.0000000000
40
0.0000000000
40
0.0000000000
40
0.0000000000
40
0.2040484265
40
0.6083519734
40
1.0000000000
40
1.0000000000
40
1.0000000000
40
1.0000000000
10
161.8999227827
20
179.3437540254
30
0.0000000000
10
161.9068483274
20
179.2672564140
30
0.0000000000
10
161.9377164990
20
179.0400230810
30
0.0000000000
10
162.0386317731
20
178.6760389280
30
0.0000000000
10
162.1708354543
20
178.4053868970
30
0.0000000000
10
162.2478349793
20
178.2799435977
30
0.0000000000
11
161.8999227827
21
179.3437540254
31
0.0000000000
11
161.9309893891
21
179.1154757619
31
0.0000000000
11
162.0532946323
21
178.6763506954
31
0.0000000000
11
162.2478349793
21
178.2799435977
31
0.0000000000
0
SPLINE
5
3AC
100
AcDbEntity
8
0
100
AcDbSpline
62
9
6
CONTINUOUS
70
0
71
3
72
9
73
5
74
3
42
0.0000001000
43
0.0000001000
44
0.0000000001
12
0.0232323903
22
0.1509013716
32
0.0000000000
13
-0.0000079418
23
0.1526792973
33
0.0000000000
40
0.0000000000
40
0.0000000000
40
0.0000000000
40
0.0000000000
40
0.5000877701
40
1.0000000000
40
1.0000000000
40
1.0000000000
40
1.0000000000
10
173.6277845874
20
174.8472660668
30
0.0000000000
10
173.6316573321
20
174.8724207102
30
0.0000000000
10
173.6374804871
20
174.9230356651
30
0.0000000000
10
173.6394244003
20
174.9739473703
30
0.0000000000
10
173.6394230769
20
174.9993894530
30
0.0000000000
11
173.6277845874
21
174.8472660668
31
0.0000000000
11
173.6365113583
21
174.9231187637
31
0.0000000000
11
173.6394230769
21
174.9993894530
31
0.0000000000
0
SPLINE
5
3AD
100
AcDbEntity
8
0
100
AcDbSpline
62
9
6
CONTINUOUS
70
0
71
3
72
11
73
7
74
5
42
0.0000001000
43
0.0000001000
44
0.0000000001
12
0.4961764626
22
-0.0746016180
32
0.0000000000
13
0.0763285382
23
0.4959137402
33
0.0000000000
40
0.0000000000
40
0.0000000000
40
0.0000000000
40
0.0000000000
40
0.3744128099
40
0.6915778634
40
0.9071334380
40
1.0000000000
40
1.0000000000
40
1.0000000000
40
1.0000000000
10
173.6277845874
20
174.8472660668
30
0.0000000000
10
173.6897095286
20
174.8379554663
30
0.0000000000
10
173.8027706780
20
174.8237800436
30
0.0000000000
10
173.9608050450
20
174.8152027038
30
0.0000000000
10
174.0523720190
20
174.8183707213
30
0.0000000000
10
174.1196031015
20
174.8319147143
30
0.0000000000
10
174.1219658912
20
174.8472659823
30
0.0000000000
11
173.6277845874
21
174.8472660668
31
0.0000000000
11
173.8143047167
21
174.8248448275
31
0.0000000000
11
173.9732490811
21
174.8169836610
31
0.0000000000
11
174.0811187601
21
174.8248447930
31
0.0000000000
11
174.1219658912
21
174.8472659823
31
0.0000000000
0
SPLINE
5
3AE
100
AcDbEntity
8
0
100
AcDbSpline
62
9
6
CONTINUOUS
70
0
71
3
72
11
73
7
74
5
42
0.0000001000
43
0.0000001000
44
0.0000000001
12
1.4272179823
22
-1.1152873263
32
0.0000000000
13
-0.0003522048
23
-1.8113025328
33
0.0000000000
40
0.0000000000
40
0.0000000000
40
0.0000000000
40
0.0000000000
40
0.2497935651
40
0.4997917999
40
0.7496639632
40
1.0000000000
40
1.0000000000
40
1.0000000000
40
1.0000000000
10
157.1206945903
20
198.3754511461
30
0.0000000000
10
157.2395312129
20
198.2825872803
30
0.0000000000
10
157.4570257196
20
198.0690330236
30
0.0000000000
10
157.7022204137
20
197.6840940916
30
0.0000000000
10
157.8548488233
20
197.2536540360
30
0.0000000000
10
157.8894524668
20
196.9505342188
30
0.0000000000
10
157.8894230769
20
196.7993894530
30
0.0000000000
11
157.1206945903
21
198.3754511461
31
0.0000000000
11
157.4434411629
21
198.0583593393
31
0.0000000000
11
157.6868048281
21
197.6764924872
31
0.0000000000
11
157.8379948296
21
197.2498978384
31
0.0000000000
11
157.8894230769
21
196.7993894530
31
0.0000000000
0
SPLINE
5
3AF
100
AcDbEntity
8
0
100
AcDbSpline
62
9
6
CONTINUOUS
70
0
71
3
72
11
73
7
74
5
42
0.0000001000
43
0.0000001000
44
0.0000000001
12
0.5135515042
22
0.0000000000
32
0.0000000000
13
0.0000000000
23
0.5135515042
33
0.0000000000
40
0.0000000000
40
0.0000000000
40
0.0000000000
40
0.0000000000
40
0.3727557855
40
0.6902458352
40
0.9066990775
40
1.0000000000
40
1.0000000000
40
1.0000000000
40
1.0000000000
10
173.6394230769
20
174.9993894530
30
0.0000000000
10
173.7032328417
20
174.9993894530
30
0.0000000000
10
173.8195998961
20
175.0023380463
30
0.0000000000
10
173.9807810525
20
175.0179455239
30
0.0000000000
10
174.0731278892
20
175.0353301706
30
0.0000000000
10
174.1394230769
20
175.0594795364
30
0.0000000000
10
174.1394230769
20
175.0754511461
30
0.0000000000
11
173.6394230769
21
174.9993894530
31
0.0000000000
11
173.8307647931
21
175.0051793046
31
0.0000000000
11
173.9929764675
21
175.0216674071
31
0.0000000000
11
174.1013628432
21
175.0463435963
31
0.0000000000
11
174.1394230769
21
175.0754511461
31
0.0000000000
0
SPLINE
5
3B0
100
AcDbEntity
8
0
100
AcDbSpline
62
9
6
CONTINUOUS
70
0
71
3
72
11
73
7
74
5
42
0.0000001000
43
0.0000001000
44
0.0000000001
12
0.5135515044
22
0.0000000052
32
0.0000000000
13
0.0000000000
23
0.5135515044
33
0.0000000000
40
0.0000000000
40
0.0000000000
40
0.0000000000
40
0.0000000000
40
0.3727558940
40
0.6902459553
40
0.9066991306
40
1.0000000000
40
1.0000000000
40
1.0000000000
40
1.0000000000
10
173.6394230769
20
175.3993391472
30
0.0000000000
10
173.7032328603
20
175.3993391478
30
0.0000000000
10
173.8195999351
20
175.4022877428
30
0.0000000000
10
173.9807810991
20
175.4178952280
30
0.0000000000
10
174.0731279242
20
175.4352798730
30
0.0000000000
10
174.1394230769
20
175.4594292396
30
0.0000000000
10
174.1394230769
20
175.4754008402
30
0.0000000000
11
173.6394230769
21
175.3993391472
31
0.0000000000
11
173.8307648488
21
175.4051290038
31
0.0000000000
11
173.9929765286
21
175.4216171126
31
0.0000000000
11
174.1013628691
21
175.4462933015
31
0.0000000000
11
174.1394230769
21
175.4754008402
31
0.0000000000
0
SPLINE
5
3B1
100
AcDbEntity
8
0
100
AcDbSpline
62
9
6
CONTINUOUS
70
0
71
3
72
12
73
8
74
6
42
0.0000001000
43
0.0000001000
44
0.0000000001
12
-1.0026282819
22
0.0000000000
32
0.0000000000
13
-0.0000000331
23
-1.0026282819
33
0.0000000000
40
0.0000000000
40
0.0000000000
40
0.0000000000
40
0.0000000000
40
0.0506325767
40
0.1928179279
40
0.4136795463
40
0.6917857045
40
1.0000000000
40
1.0000000000
40
1.0000000000
40
1.0000000000
10
101.1521843022
20
202.3754511461
30
0.0000000000
10
101.1352624177
20
202.3754511461
30
0.0000000000
10
101.1447060132
20
202.2755851558
30
0.0000000000
10
101.1177708151
20
202.1703718084
30
0.0000000000
10
101.1180719259
20
201.9392138634
30
0.0000000000
10
101.1089594984
20
201.6761363231
30
0.0000000000
10
101.1085649182
20
201.4784592692
30
0.0000000000
10
101.1085649148
20
201.3754511461
30
0.0000000000
11
101.1521843022
21
202.3754511461
31
0.0000000000
11
101.1387051708
21
202.3265076625
31
0.0000000000
11
101.1265454718
21
202.1844681409
31
0.0000000000
11
101.1168954809
21
201.9632363992
31
0.0000000000
11
101.1106998059
21
201.6844681411
31
0.0000000000
11
101.1085649148
21
201.3754511461
31
0.0000000000
0
SPLINE
5
3B2
100
AcDbEntity
8
0
100
AcDbSpline
62
9
6
CONTINUOUS
70
0
71
3
72
11
73
7
74
5
42
0.0000001000
43
0.0000001000
44
0.0000000001
12
0.7290255779
22
0.0000000000
32
0.0000000000
13
0.0000000000
23
-0.7290255779
33
0.0000000000
40
0.0000000000
40
0.0000000000
40
0.0000000000
40
0.0000000000
40
0.2663280433
40
0.5234002287
40
0.7667824900
40
1.0000000000
40
1.0000000000
40
1.0000000000
40
1.0000000000
10
173.6394230769
20
176.4174879371
30
0.0000000000
10
173.7041430622
20
176.4174879371
30
0.0000000000
10
173.8324494928
20
176.3959237669
30
0.0000000000
10
173.9980482795
20
176.3020045103
30
0.0000000000
10
174.1118913257
20
176.1584358511
30
0.0000000000
10
174.1394230769
20
176.0411490786
30
0.0000000000
10
174.1394230769
20
175.9844752352
30
0.0000000000
11
173.6394230769
21
176.4174879371
31
0.0000000000
11
173.8307647931
21
176.3845268078
31
0.0000000000
11
173.9929764675
21
176.2906614531
31
0.0000000000
11
174.1013628432
21
176.1501820223
31
0.0000000000
11
174.1394230769
21
175.9844752352
31
0.0000000000
0
SPLINE
5
3B3
100
AcDbEntity
8
0
100
AcDbSpline
62
9
6
CONTINUOUS
70
0
71
3
72
11
73
7
74
5
42
0.0000001000
43
0.0000001000
44
0.0000000001
12
0.6443172709
22
0.0000000501
32
0.0000000000
13
0.1459690286
23
-0.6341982435
33
0.0000000000
40
0.0000000000
40
0.0000000000
40
0.0000000000
40
0.0000000000
40
0.3013478749
40
0.5922198078
40
0.8675976585
40
1.0000000000
40
1.0000000000
40
1.0000000000
40
1.0000000000
10
173.6394230769
20
177.3075019536
30
0.0000000000
10
173.7041442904
20
177.3075019587
30
0.0000000000
10
173.8324525539
20
177.2859370781
30
0.0000000000
10
173.9980518376
20
177.1920156412
30
0.0000000000
10
174.0938630563
20
177.0711842944
30
0.0000000000
10
174.1232398772
20
176.9869223470
30
0.0000000000
10
174.1296820909
20
176.9589325696
30
0.0000000000
11
173.6394230769
21
177.3075019536
31
0.0000000000
11
173.8307683163
21
177.2745395725
31
0.0000000000
11
173.9929805442
21
177.1806719565
31
0.0000000000
11
174.1013646496
21
177.0401922752
31
0.0000000000
11
174.1296820909
21
176.9589325696
31
0.0000000000
0
SPLINE
5
3B4
100
AcDbEntity
8
0
100
AcDbSpline
62
9
6
CONTINUOUS
70
0
71
3
72
8
73
4
74
2
42
0.0000001000
43
0.0000001000
44
0.0000000001
12
0.0191905370
22
-0.0833779945
32
0.0000000000
13
0.0000000000
23
-0.0847083422
33
0.0000000000
40
0.0000000000
40
0.0000000000
40
0.0000000000
40
0.0000000000
40
1.0000000000
40
1.0000000000
40
1.0000000000
40
1.0000000000
10
174.1296820909
20
176.9589325696
30
0.0000000000
10
174.1360789366
20
176.9311399047
30
0.0000000000
10
174.1394230769
20
176.9027253658
30
0.0000000000
10
174.1394230769
20
176.8744892517
30
0.0000000000
11
174.1296820909
21
176.9589325696
31
0.0000000000
11
174.1394230769
21
176.8744892517
31
0.0000000000
0
SPLINE
5
3B5
100
AcDbEntity
8
0
100
AcDbSpline
62
9
6
CONTINUOUS
70
0
71
3
72
13
73
9
74
7
42
0.0000001000
43
0.0000001000
44
0.0000000001
12
-27.0429020372
22
-0.0001400370
32
0.0000000000
13
-27.0010519351
23
1.5039099082
33
0.0000000000
40
0.0000000000
40
0.0000000000
40
0.0000000000
40
0.0000000000
40
0.2051867032
40
0.3944799067
40
0.5675005746
40
0.7250444202
40
0.8686804882
40
1.0000000000
40
1.0000000000
40
1.0000000000
40
1.0000000000
10
189.7449260531
20
198.8754511461
30
0.0000000000
10
187.8953114150
20
198.8754415682
30
0.0000000000
10
184.3393372060
20
198.8879063684
30
0.0000000000
10
179.2239583178
20
198.9416430971
30
0.0000000000
10
174.5384959522
20
199.0245466368
30
0.0000000000
10
170.2652471011
20
199.1336240627
30
0.0000000000
10
166.3688649948
20
199.2689537419
30
0.0000000000
10
163.8928941099
20
199.3839691738
30
0.0000000000
10
162.7109724572
20
199.4498000788
30
0.0000000000
11
189.7449260531
21
198.8754511461
31
0.0000000000
11
184.1961170776
21
198.8951421924
31
0.0000000000
11
179.0773690986
21
198.9495908537
31
0.0000000000
11
174.3991388428
21
199.0334038636
31
0.0000000000
11
170.1401227817
21
199.1436530776
31
0.0000000000
11
166.2582056457
21
199.2807166167
31
0.0000000000
11
162.7109724572
21
199.4498000788
31
0.0000000000
0
SPLINE
5
3B6
100
AcDbEntity
8
0
100
AcDbSpline
62
7
6
CONTINUOUS
70
0
71
3
72
27
73
23
74
21
42
0.0000001000
43
0.0000001000
44
0.0000000001
12
0.8226895704
22
0.4803923453
32
0.0000000000
13
-0.0000000000
23
0.9526777706
33
0.0000000000
40
0.0000000000
40
0.0000000000
40
0.0000000000
40
0.0000000000
40
0.0938523128
40
0.1808434594
40
0.2614221712
40
0.3360494805
40
0.4051841405
40
0.4692524691
40
0.5285929174
40
0.5835292108
40
0.6343858438
40
0.6814578150
40
0.7250215030
40
0.7653606498
40
0.8027689650
40
0.8375773317
40
0.8698572049
40
0.8997065491
40
0.9273220253
40
0.9535087716
40
0.9785228736
40
1.0000000000
40
1.0000000000
40
1.0000000000
40
1.0000000000
10
161.0849844836
20
198.8723322339
30
0.0000000000
10
161.1107215899
20
198.8873608781
30
0.0000000000
10
161.1602506501
20
198.9164282514
30
0.0000000000
10
161.2318693506
20
198.9584115107
30
0.0000000000
10
161.2983465317
20
198.9970930567
30
0.0000000000
10
161.3600704250
20
199.0326675087
30
0.0000000000
10
161.4174098976
20
199.0653479641
30
0.0000000000
10
161.4706698053
20
199.0953810761
30
0.0000000000
10
161.5201106613
20
199.1230062836
30
0.0000000000
10
161.5659628749
20
199.1484521890
30
0.0000000000
10
161.6084454099
20
199.1719409369
30
0.0000000000
10
161.6477587058
20
199.1936979451
30
0.0000000000
10
161.6840919828
20
199.2139419075
30
0.0000000000
10
161.7176354510
20
199.2328871703
30
0.0000000000
10
161.7485908175
20
199.2507585503
30
0.0000000000
10
161.7770915868
20
199.2677585986
30
0.0000000000
10
161.8031988560
20
199.2840726499
30
0.0000000000
10
161.8269043415
20
199.2999105519
30
0.0000000000
10
161.8483189774
20
199.3156267606
30
0.0000000000
10
161.8673943940
20
199.3319669035
30
0.0000000000
10
161.8829156145
20
199.3489242109
30
0.0000000000
10
161.8894230769
20
199.3632557318
30
0.0000000000
10
161.8894230769
20
199.3700759921
30
0.0000000000
11
161.0849844836
21
198.8723322339
31
0.0000000000
11
161.1621336665
21
198.9175244086
31
0.0000000000
11
161.2336494565
21
198.9594013685
31
0.0000000000
11
161.3000076218
21
198.9979959690
31
0.0000000000
11
161.3616111235
21
199.0334870709
31
0.0000000000
11
161.4188333963
21
199.0660992366
31
0.0000000000
11
161.4719978111
21
199.0960824981
31
0.0000000000
11
161.5213453729
21
199.1236636879
31
0.0000000000
11
161.5671025479
21
199.1490683944
31
0.0000000000
11
161.6094955797
21
199.1725254143
31
0.0000000000
11
161.6487226927
21
199.1942568583
31
0.0000000000
11
161.6849661597
21
199.2144766544
31
0.0000000000
11
161.7184147598
21
199.2333994468
31
0.0000000000
11
161.7492617057
21
199.2512470793
31
0.0000000000
11
161.7777193934
21
199.2682712489
31
0.0000000000
11
161.8037666250
21
199.2846189328
31
0.0000000000
11
161.8273681077
21
199.3004815300
31
0.0000000000
11
161.8484866513
21
199.3161707682
31
0.0000000000
11
161.8672970013
21
199.3325582647
31
0.0000000000
11
161.8826805645
21
199.3507580709
31
0.0000000000
11
161.8894230769
21
199.3700759921
31
0.0000000000
0
SPLINE
5
3B7
100
AcDbEntity
8
0
100
AcDbSpline
62
9
6
CONTINUOUS
70
0
71
3
72
14
73
10
74
8
42
0.0000001000
43
0.0000001000
44
0.0000000001
12
-1.6333667730
22
0.1381883889
32
0.0000000000
13
-1.5621821318
23
-0.4965581871
33
0.0000000000
40
0.0000000000
40
0.0000000000
40
0.0000000000
40
0.0000000000
40
0.1844006611
40
0.3505877452
40
0.5020046610
40
0.6408885081
40
0.7690484103
40
0.8881883201
40
1.0000000000
40
1.0000000000
40
1.0000000000
40
1.0000000000
10
162.6894231351
20
199.1412476780
30
0.0000000000
10
162.5890251642
20
199.1497416881
30
0.0000000000
10
162.3970549576
20
199.1548733714
30
0.0000000000
10
162.1231648262
20
199.1344070380
30
0.0000000000
10
161.8766407503
20
199.0949878780
30
0.0000000000
10
161.6535129820
20
199.0445191845
30
0.0000000000
10
161.4501935141
20
198.9878564833
30
0.0000000000
10
161.2628442622
20
198.9294925218
30
0.0000000000
10
161.1427961598
20
198.8905967314
30
0.0000000000
10
161.0845727570
20
198.8720897297
30
0.0000000000
11
162.6894231351
21
199.1412476780
31
0.0000000000
11
162.3872732651
21
199.1497660704
31
0.0000000000
11
162.1155887352
21
199.1298409912
31
0.0000000000
11
161.8704120837
21
199.0912004531
31
0.0000000000
11
161.6482807519
21
199.0413392146
31
0.0000000000
11
161.4457622195
21
198.9854837361
31
0.0000000000
11
161.2591381596
21
198.9279393846
31
0.0000000000
11
161.0845727570
21
198.8720897297
31
0.0000000000
0
SPLINE
5
3B8
100
AcDbEntity
8
0
100
AcDbSpline
62
9
6
CONTINUOUS
70
0
71
3
72
10
73
6
74
4
42
0.0000001000
43
0.0000001000
44
0.0000000001
12
0.0277715130
22
0.3080911982
32
0.0000000000
13
0.0172329498
23
0.3088599501
33
0.0000000000
40
0.0000000000
40
0.0000000000
40
0.0000000000
40
0.0000000000
40
0.3049992217
40
0.6438683376
40
1.0000000000
40
1.0000000000
40
1.0000000000
40
1.0000000000
10
162.6894231351
20
199.1412476780
30
0.0000000000
10
162.6922465651
20
199.1725702032
30
0.0000000000
10
162.6976721225
20
199.2387420359
30
0.0000000000
10
162.7049261947
20
199.3416015380
30
0.0000000000
10
162.7092574776
20
199.4131358470
30
0.0000000000
10
162.7113032106
20
199.4498007828
30
0.0000000000
11
162.6894231351
21
199.1412476780
31
0.0000000000
11
162.6972173281
21
199.2352737470
31
0.0000000000
11
162.7046321070
21
199.3398370649
31
0.0000000000
11
162.7113032106
21
199.4498007828
31
0.0000000000
0
SPLINE
5
3B9
100
AcDbEntity
8
0
100
AcDbSpline
62
9
6
CONTINUOUS
70
0
71
3
72
10
73
6
74
4
42
0.0000001000
43
0.0000001000
44
0.0000000001
12
-0.8267887009
22
0.0459701363
32
0.0000000000
13
-0.8043473031
23
-0.1967694726
33
0.0000000000
40
0.0000000000
40
0.0000000000
40
0.0000000000
40
0.0000000000
40
0.3675432814
40
0.6992449443
40
1.0000000000
40
1.0000000000
40
1.0000000000
40
1.0000000000
10
162.7109724572
20
199.4498000788
30
0.0000000000
10
162.6096789131
20
199.4554320837
30
0.0000000000
10
162.4161526906
20
199.4548867279
30
0.0000000000
10
162.1414076792
20
199.4245684451
30
0.0000000000
10
161.9700602496
20
199.3899632243
30
0.0000000000
10
161.8894230769
20
199.3702367530
30
0.0000000000
11
162.7109724572
21
199.4498000788
31
0.0000000000
11
162.4066231608
21
199.4491522188
31
0.0000000000
11
162.1335700550
21
199.4193859001
31
0.0000000000
11
161.8894230769
21
199.3702367530
31
0.0000000000
0
SPLINE
5
3BA
100
AcDbEntity
8
0
100
AcDbSpline
62
9
6
CONTINUOUS
70
0
71
3
72
11
73
7
74
5
42
0.0000001000
43
0.0000001000
44
0.0000000001
12
0.5012111617
22
0.0000000000
32
0.0000000000
13
0.0000000000
23
0.5012111617
33
0.0000000000
40
0.0000000000
40
0.0000000000
40
0.0000000000
40
0.0000000000
40
0.0777409001
40
0.2944501213
40
0.6182269414
40
1.0000000000
40
1.0000000000
40
1.0000000000
40
1.0000000000
10
190.6484715453
20
198.3754511461
30
0.0000000000
10
190.6614597476
20
198.3754511461
30
0.0000000000
10
190.6498080630
20
198.4528645573
30
0.0000000000
10
190.6708433351
20
198.5305453159
30
0.0000000000
10
190.6671224052
20
198.6974348007
30
0.0000000000
10
190.6702812390
20
198.8116681733
30
0.0000000000
10
190.6702812390
20
198.8754511461
30
0.0000000000
11
190.6484715453
21
198.3754511461
31
0.0000000000
11
190.6568177538
21
198.4135113798
31
0.0000000000
11
190.6638933276
21
198.5218977555
31
0.0000000000
11
190.6686210749
21
198.6841094299
31
0.0000000000
11
190.6702812390
21
198.8754511461
31
0.0000000000
0
SPLINE
5
3BB
100
AcDbEntity
8
0
100
AcDbSpline
62
9
6
CONTINUOUS
70
0
71
3
72
15
73
11
74
9
42
0.0000001000
43
0.0000001000
44
0.0000000001
12
-0.9997752700
22
0.5004475710
32
0.0000000000
13
-1.0003442694
23
0.4993091767
33
0.0000000000
40
0.0000000000
40
0.0000000000
40
0.0000000000
40
0.0000000000
40
0.0201324242
40
0.0786384541
40
0.1712797843
40
0.2922590714
40
0.4367643206
40
0.6034474832
40
0.7913434266
40
1.0000000000
40
1.0000000000
40
1.0000000000
40
1.0000000000
10
317.3184632605
20
211.6754511461
30
0.0000000000
10
317.3117539606
20
211.6788095537
30
0.0000000000
10
317.2855453506
20
211.6919243313
30
0.0000000000
10
317.2284500230
20
211.7204667368
30
0.0000000000
10
317.1377309278
20
211.7658005927
30
0.0000000000
10
317.0183586755
20
211.8254941114
30
0.0000000000
10
316.8743014847
20
211.8975192338
30
0.0000000000
10
316.7079470351
20
211.9807136876
30
0.0000000000
10
316.5201872721
20
212.0745568895
30
0.0000000000
10
316.3880402436
20
212.1407230988
30
0.0000000000
10
316.3184641078
20
212.1754511461
30
0.0000000000
11
317.3184632605
21
211.6754511461
31
0.0000000000
11
317.2983341611
21
211.6855239710
31
0.0000000000
11
317.2398282915
21
211.7147772076
31
0.0000000000
11
317.1471798254
21
211.7610834417
31
0.0000000000
11
317.0261998312
21
211.8215714669
31
0.0000000000
11
316.8816953307
21
211.8938253447
31
0.0000000000
11
316.7150145428
21
211.9771713938
31
0.0000000000
11
316.5271186548
21
212.0711191589
31
0.0000000000
11
316.3184641078
21
212.1754511461
31
0.0000000000
0
SPLINE
5
3BC
100
AcDbEntity
8
0
100
AcDbSpline
62
7
6
CONTINUOUS
70
0
71
3
72
13
73
9
74
7
42
0.0000001000
43
0.0000001000
44
0.0000000001
12
0.5000000000
22
-0.5000000000
32
0.0000000000
13
0.5000000000
23
-0.5000000000
33
0.0000000000
40
0.0000000000
40
0.0000000000
40
0.0000000000
40
0.0000000000
40
0.0529067781
40
0.1831006588
40
0.3600373173
40
0.5645616880
40
0.7825093358
40
1.0000000000
40
1.0000000000
40
1.0000000000
40
1.0000000000
10
313.8184632605
20
215.6754511461
30
0.0000000000
10
313.8272810569
20
215.6666333497
30
0.0000000000
10
313.8577978333
20
215.6361165732
30
0.0000000000
10
313.9178040529
20
215.5761103537
30
0.0000000000
10
314.0030798712
20
215.4908345354
30
0.0000000000
10
314.1029813174
20
215.3909330892
30
0.0000000000
10
314.2096417645
20
215.2842726421
30
0.0000000000
10
314.2822148165
20
215.2116995901
30
0.0000000000
10
314.3184632605
20
215.1754511461
30
0.0000000000
11
313.8184632605
21
215.6754511461
31
0.0000000000
11
313.8449166496
21
215.6489977570
31
0.0000000000
11
313.9100135899
21
215.5839008166
31
0.0000000000
11
313.9984819192
21
215.4954324874
31
0.0000000000
11
314.1007441045
21
215.3931703021
31
0.0000000000
11
314.2097179284
21
215.2841964782
31
0.0000000000
11
314.3184632605
21
215.1754511461
31
0.0000000000
0
SPLINE
5
3BD
100
AcDbEntity
8
0
100
AcDbSpline
62
7
6
CONTINUOUS
70
0
71
3
72
13
73
9
74
7
42
0.0000001000
43
0.0000001000
44
0.0000000001
12
-0.5000000000
22
-0.5000000000
32
0.0000000000
13
-0.5000000000
23
-0.5000000000
33
0.0000000000
40
0.0000000000
40
0.0000000000
40
0.0000000000
40
0.0000000000
40
0.0529067781
40
0.1831006588
40
0.3600373173
40
0.5645616880
40
0.7825093358
40
1.0000000000
40
1.0000000000
40
1.0000000000
40
1.0000000000
10
325.8184632605
20
215.6754511461
30
0.0000000000
10
325.8096454642
20
215.6666333497
30
0.0000000000
10
325.7791286877
20
215.6361165732
30
0.0000000000
10
325.7191224681
20
215.5761103537
30
0.0000000000
10
325.6338466498
20
215.4908345354
30
0.0000000000
10
325.5339452037
20
215.3909330892
30
0.0000000000
10
325.4272847566
20
215.2842726421
30
0.0000000000
10
325.3547117046
20
215.2116995901
30
0.0000000000
10
325.3184632605
20
215.1754511461
30
0.0000000000
11
325.8184632605
21
215.6754511461
31
0.0000000000
11
325.7920098715
21
215.6489977570
31
0.0000000000
11
325.7269129311
21
215.5839008166
31
0.0000000000
11
325.6384446019
21
215.4954324874
31
0.0000000000
11
325.5361824165
21
215.3931703021
31
0.0000000000
11
325.4272085926
21
215.2841964782
31
0.0000000000
11
325.3184632605
21
215.1754511461
31
0.0000000000
0
SPLINE
5
3BE
100
AcDbEntity
8
0
100
AcDbSpline
62
9
6
CONTINUOUS
70
0
71
3
72
15
73
11
74
9
42
0.0000001000
43
0.0000001000
44
0.0000000001
12
-1.0003445292
22
-0.4993086531
32
0.0000000000
13
-0.9997754617
23
-0.5004471850
33
0.0000000000
40
0.0000000000
40
0.0000000000
40
0.0000000000
40
0.0000000000
40
0.2086566368
40
0.3965525653
40
0.5632357149
40
0.7077409528
40
0.8287202304
40
0.9213615544
40
0.9798675701
40
1.0000000000
40
1.0000000000
40
1.0000000000
40
1.0000000000
10
323.3184624117
20
212.1754511461
30
0.0000000000
10
323.2488862367
20
212.1407231246
30
0.0000000000
10
323.1167392136
20
212.0745568645
30
0.0000000000
10
322.9289794359
20
211.9807136631
30
0.0000000000
10
322.7626249998
20
211.8975192153
30
0.0000000000
10
322.6185678200
20
211.8254940995
30
0.0000000000
10
322.4991955788
20
211.7658005817
30
0.0000000000
10
322.4084764885
20
211.7204667411
30
0.0000000000
10
322.3513811734
20
211.6919243228
30
0.0000000000
10
322.3251725636
20
211.6788095520
30
0.0000000000
10
322.3184632605
20
211.6754511461
30
0.0000000000
11
323.3184624117
21
212.1754511461
31
0.0000000000
11
323.1098077995
21
212.0711191317
31
0.0000000000
11
322.9219119293
21
211.9771713686
31
0.0000000000
11
322.7552311542
21
211.8938253268
31
0.0000000000
11
322.6107266654
21
211.8215714544
31
0.0000000000
11
322.4897466808
21
211.7610834342
31
0.0000000000
11
322.3970982203
21
211.7147772048
31
0.0000000000
11
322.3385923679
21
211.6855239693
31
0.0000000000
11
322.3184632605
21
211.6754511461
31
0.0000000000
0
SPLINE
5
3BF
100
AcDbEntity
8
0
100
AcDbSpline
62
9
6
CONTINUOUS
70
0
71
3
72
15
73
11
74
9
42
0.0000001000
43
0.0000001000
44
0.0000000001
12
-0.4993090575
22
-1.0003453394
32
0.0000000000
13
-0.4956387434
23
-1.0021765074
33
0.0000000000
40
0.0000000000
40
0.0000000000
40
0.0000000000
40
0.0000000000
40
0.2086212180
40
0.3965255269
40
0.5632176640
40
0.7077371875
40
0.8287435774
40
0.9213957462
40
0.9797756323
40
1.0000000000
40
1.0000000000
40
1.0000000000
40
1.0000000000
10
323.3184632605
20
212.1754511461
30
0.0000000000
10
323.2837411059
20
212.1058867250
30
0.0000000000
10
323.2175801041
20
211.9737482051
30
0.0000000000
10
323.1237409920
20
211.7859937134
30
0.0000000000
10
323.0405456224
20
211.6196263824
30
0.0000000000
10
322.9685397554
20
211.4755384335
30
0.0000000000
10
322.9088349822
20
211.3561499513
30
0.0000000000
10
322.8635971604
20
211.2654194595
30
0.0000000000
10
322.8348489548
20
211.2084367753
30
0.0000000000
10
322.8218045873
20
211.1822072748
30
0.0000000000
10
322.8184632605
20
211.1754511461
30
0.0000000000
11
323.3184632605
21
212.1754511461
31
0.0000000000
11
323.2141497153
21
211.9668313615
31
0.0000000000
11
323.1201995166
21
211.7789260434
31
0.0000000000
11
323.0368577426
21
211.6122317314
31
0.0000000000
11
322.9646151612
21
211.4677035950
31
0.0000000000
11
322.9041358995
21
211.3466852212
31
0.0000000000
11
322.8578084658
21
211.2540337117
31
0.0000000000
11
322.8285270235
21
211.1956996552
31
0.0000000000
11
322.8184632605
21
211.1754511461
31
0.0000000000
0
SPLINE
5
3C0
100
AcDbEntity
8
0
100
AcDbSpline
62
9
6
CONTINUOUS
70
0
71
3
72
15
73
11
74
9
42
0.0000001000
43
0.0000001000
44
0.0000000001
12
-0.4956391926
22
1.0021762836
32
0.0000000000
13
-0.4993095804
23
1.0003450783
33
0.0000000000
40
0.0000000000
40
0.0000000000
40
0.0000000000
40
0.0000000000
40
0.0202243594
40
0.0786042570
40
0.1712564219
40
0.2922628125
40
0.4367823360
40
0.6034744730
40
0.7913787821
40
1.0000000000
40
1.0000000000
40
1.0000000000
40
1.0000000000
10
316.8184632605
20
211.1754511461
30
0.0000000000
10
316.8151219321
20
211.1822072705
30
0.0000000000
10
316.8020775582
20
211.2084367692
30
0.0000000000
10
316.7733293728
20
211.2654194632
30
0.0000000000
10
316.7280915317
20
211.3561499489
30
0.0000000000
10
316.6683867682
20
211.4755384346
30
0.0000000000
10
316.5963808982
20
211.6196263822
30
0.0000000000
10
316.5131855289
20
211.7859937133
30
0.0000000000
10
316.4193464116
20
211.9737482025
30
0.0000000000
10
316.3531854514
20
212.1058867432
30
0.0000000000
10
316.3184632605
20
212.1754511461
30
0.0000000000
11
316.8184632605
21
211.1754511461
31
0.0000000000
11
316.8083994966
21
211.1956996444
31
0.0000000000
11
316.7791180567
21
211.2540337165
31
0.0000000000
11
316.7327906207
21
211.3466852200
31
0.0000000000
11
316.6723113600
21
211.4677035951
31
0.0000000000
11
316.6000687787
21
211.6122317316
31
0.0000000000
11
316.5167270036
21
211.7789260429
31
0.0000000000
11
316.4227768107
21
211.9668313641
31
0.0000000000
11
316.3184632605
21
212.1754511461
31
0.0000000000
0
SPLINE
5
3C1
100
AcDbEntity
8
0
100
AcDbSpline
62
7
6
CONTINUOUS
70
0
71
3
72
10
73
6
74
4
42
0.0000001000
43
0.0000001000
44
0.0000000001
12
-1.0458571573
22
0.0000599438
32
0.0000000000
13
-0.9057403783
23
-0.5229259643
33
0.0000000000
40
0.0000000000
40
0.0000000000
40
0.0000000000
40
0.0000000000
40
0.3333354070
40
0.6666683573
40
1.0000000000
40
1.0000000000
40
1.0000000000
40
1.0000000000
10
308.6348507083
20
177.5754841457
30
0.0000000000
10
308.5186436346
20
177.5754908061
30
0.0000000000
10
308.2857024003
20
177.5551334895
30
0.0000000000
10
307.9474095872
20
177.4645001068
30
0.0000000000
10
307.7354927554
20
177.3656734456
30
0.0000000000
10
307.6348554460
20
177.3075708553
30
0.0000000000
11
308.6348507083
21
177.5754841457
31
0.0000000000
11
308.2875545856
21
177.5451170677
31
0.0000000000
11
307.9508119104
21
177.4548988021
31
0.0000000000
11
307.6348554460
21
177.3075708553
31
0.0000000000
0
SPLINE
5
3C2
100
AcDbEntity
8
0
100
AcDbSpline
62
7
6
CONTINUOUS
70
0
71
3
72
10
73
6
74
4
42
0.0000001000
43
0.0000001000
44
0.0000000001
12
1.0458519188
22
0.0000597554
32
0.0000000000
13
0.9057370485
23
-0.5229212548
33
0.0000000000
40
0.0000000000
40
0.0000000000
40
0.0000000000
40
0.0000000000
40
0.3333354053
40
0.6666683550
40
1.0000000000
40
1.0000000000
40
1.0000000000
40
1.0000000000
10
331.0020758207
20
177.5754844370
30
0.0000000000
10
331.1182823118
20
177.5754910765
30
0.0000000000
10
331.3512223699
20
177.5551339174
30
0.0000000000
10
331.6895135700
20
177.4645013517
30
0.0000000000
10
331.9014295156
20
177.3656755918
30
0.0000000000
10
332.0020664557
20
177.3075735244
30
0.0000000000
11
331.0020758207
21
177.5754844370
31
0.0000000000
11
331.3493702092
21
177.5451175925
31
0.0000000000
11
331.6861112930
21
177.4549001365
31
0.0000000000
11
332.0020664557
21
177.3075735244
31
0.0000000000
0
SPLINE
5
3C3
100
AcDbEntity
8
0
100
AcDbSpline
62
9
6
CONTINUOUS
70
0
71
3
72
10
73
6
74
4
42
0.0000001000
43
0.0000001000
44
0.0000000001
12
0.0341951288
22
-1.2957054101
32
0.0000000000
13
0.0410330715
23
-1.2955068906
33
0.0000000000
40
0.0000000000
40
0.0000000000
40
0.0000000000
40
0.0000000000
40
0.3533945363
40
0.6932940906
40
1.0000000000
40
1.0000000000
40
1.0000000000
40
1.0000000000
10
307.5629393666
20
179.5754511461
30
0.0000000000
10
307.5669674905
20
179.4228194085
30
0.0000000000
10
307.5774931446
20
179.1234602777
30
0.0000000000
10
307.5908031755
20
178.6916141985
30
0.0000000000
10
307.5997563926
20
178.4123901383
30
0.0000000000
10
307.6039514211
20
178.2799435987
30
0.0000000000
11
307.5629393666
21
179.5754511461
31
0.0000000000
11
307.5773607999
21
179.1176235803
31
0.0000000000
11
307.5913408356
21
178.6772824092
31
0.0000000000
11
307.6039514211
21
178.2799435987
31
0.0000000000
0
SPLINE
5
3C4
100
AcDbEntity
8
0
100
AcDbSpline
62
7
6
CONTINUOUS
70
0
71
3
72
14
73
10
74
8
42
0.0000001000
43
0.0000001000
44
0.0000000001
12
-1.0700055839
22
-0.6397581462
32
0.0000000000
13
-1.1375307818
23
-0.3865659610
33
0.0000000000
40
0.0000000000
40
0.0000000000
40
0.0000000000
40
0.0000000000
40
0.1567808514
40
0.3260966081
40
0.4989796822
40
0.6670274938
40
0.8206253589
40
0.9449355802
40
1.0000000000
40
1.0000000000
40
1.0000000000
40
1.0000000000
10
326.8184632605
20
216.3739994779
30
0.0000000000
10
326.7625444650
20
216.3405655356
30
0.0000000000
10
326.6490347112
20
216.2662709849
30
0.0000000000
10
326.4830469823
20
216.1419243123
30
0.0000000000
10
326.3202272318
20
216.0055713990
30
0.0000000000
10
326.1681523369
20
215.8686770156
30
0.0000000000
10
326.0347363152
20
215.7355795722
30
0.0000000000
10
325.9364655832
20
215.6492082359
30
0.0000000000
10
325.8802471853
20
215.5852986703
30
0.0000000000
10
325.8593680278
20
215.5782033269
30
0.0000000000
11
326.8184632605
21
216.3739994779
31
0.0000000000
11
326.6545611594
21
216.2675158505
31
0.0000000000
11
326.4853691729
21
216.1413030308
31
0.0000000000
11
326.3196999553
21
216.0034386812
31
0.0000000000
11
326.1644415437
21
215.8627773627
31
0.0000000000
11
326.0263170792
21
215.7301544050
31
0.0000000000
11
325.9144540015
21
215.6228986806
31
0.0000000000
11
325.8593680278
21
215.5782033269
31
0.0000000000
0
SPLINE
5
3C5
100
AcDbEntity
8
0
100
AcDbSpline
62
7
6
CONTINUOUS
70
0
71
3
72
8
73
4
74
2
42
0.0000001000
43
0.0000001000
44
0.0000000001
12
-0.0155587796
22
-0.0052873247
32
0.0000000000
13
-0.0170516403
23
0.0000000000
33
0.0000000000
40
0.0000000000
40
0.0000000000
40
0.0000000000
40
0.0000000000
40
1.0000000000
40
1.0000000000
40
1.0000000000
40
1.0000000000
10
325.8593680278
20
215.5782033269
30
0.0000000000
10
325.8541817679
20
215.5764408853
30
0.0000000000
10
325.8487720791
20
215.5754511461
30
0.0000000000
10
325.8430881990
20
215.5754511461
30
0.0000000000
11
325.8593680278
21
215.5782033269
31
0.0000000000
11
325.8430881990
21
215.5754511461
31
0.0000000000
0
SPLINE
5
3C6
100
AcDbEntity
8
0
100
AcDbSpline
62
9
6
CONTINUOUS
70
0
71
3
72
14
73
10
74
8
42
0.0000001000
43
0.0000001000
44
0.0000000001
12
-0.9363187475
22
0.2699399477
32
0.0000000000
13
0.4623404886
23
0.8577888113
33
0.0000000000
40
0.0000000000
40
0.0000000000
40
0.0000000000
40
0.0000000000
40
0.0158510639
40
0.0715396733
40
0.1758009884
40
0.3312475726
40
0.5338901346
40
0.7709559530
40
1.0000000000
40
1.0000000000
40
1.0000000000
40
1.0000000000
10
331.0020758207
20
177.5754841642
30
0.0000000000
10
330.9971286046
20
177.5769104426
30
0.0000000000
10
331.0153617620
20
177.6099354626
30
0.0000000000
10
331.0258008400
20
177.6505568936
30
0.0000000000
10
331.0782169376
20
177.7504504196
30
0.0000000000
10
331.1443195224
20
177.8797710381
30
0.0000000000
10
331.2404143009
20
178.0498342283
30
0.0000000000
10
331.3498470812
20
178.2366733198
30
0.0000000000
10
331.4264383606
20
178.3675031527
30
0.0000000000
10
331.4617371395
20
178.4329936263
30
0.0000000000
11
331.0020758207
21
177.5754841642
31
0.0000000000
11
331.0045218784
21
177.5907353858
31
0.0000000000
11
331.0249875156
21
177.6409942602
31
0.0000000000
11
331.0687384805
21
177.7326892702
31
0.0000000000
11
331.1388196433
21
177.8669780118
31
0.0000000000
11
331.2350594225
21
178.0394038207
31
0.0000000000
11
331.3512420952
21
178.2390712230
31
0.0000000000
11
331.4617371395
21
178.4329936263
31
0.0000000000
0
SPLINE
5
3C7
100
AcDbEntity
8
0
100
AcDbSpline
62
9
6
CONTINUOUS
70
0
71
3
72
14
73
10
74
8
42
0.0000001000
43
0.0000001000
44
0.0000000001
12
0.8714566208
22
-0.5031901762
32
0.0000000000
13
-0.3777086954
23
0.9327235050
33
0.0000000000
40
0.0000000000
40
0.0000000000
40
0.0000000000
40
0.0000000000
40
0.0183305894
40
0.0666487266
40
0.1586854564
40
0.2995890524
40
0.4902572338
40
0.7306197336
40
1.0000000000
40
1.0000000000
40
1.0000000000
40
1.0000000000
10
332.0020664557
20
177.3075735244
30
0.0000000000
10
332.0073912269
20
177.3044989336
30
0.0000000000
10
332.0320585790
20
177.3199889748
30
0.0000000000
10
332.0467601672
20
177.3695152765
30
0.0000000000
10
332.0776656939
20
177.4598775266
30
0.0000000000
10
332.1004632938
20
177.6001568155
30
0.0000000000
10
332.1170541313
20
177.7918343674
30
0.0000000000
10
332.1019474009
20
178.0266867367
30
0.0000000000
10
332.0669103380
20
178.1962624940
30
0.0000000000
10
332.0329945817
20
178.2800149294
30
0.0000000000
11
332.0020664557
21
177.3075735244
31
0.0000000000
11
332.0195610537
21
177.3134212345
31
0.0000000000
11
332.0429965265
21
177.3560231577
31
0.0000000000
11
332.0702572652
21
177.4445367539
31
0.0000000000
11
332.0962995522
21
177.5839157886
31
0.0000000000
11
332.1113468031
21
177.7751939773
31
0.0000000000
11
332.0972274367
21
178.0166579834
31
0.0000000000
11
332.0329945817
21
178.2800149294
31
0.0000000000
0
SPLINE
5
3C8
100
AcDbEntity
8
0
100
AcDbSpline
62
9
6
CONTINUOUS
70
0
71
3
72
10
73
6
74
4
42
0.0000001000
43
0.0000001000
44
0.0000000001
12
0.6121833874
22
1.1424932337
32
0.0000000000
13
0.6183409923
23
1.1391723777
33
0.0000000000
40
0.0000000000
40
0.0000000000
40
0.0000000000
40
0.0000000000
40
0.3061217573
40
0.6457730365
40
1.0000000000
40
1.0000000000
40
1.0000000000
40
1.0000000000
10
331.4617371395
20
178.4329936263
30
0.0000000000
10
331.5242046910
20
178.5495743051
30
0.0000000000
10
331.6559041921
20
178.7955466500
30
0.0000000000
10
331.8603029228
20
179.1761954177
30
0.0000000000
10
332.0009761370
20
179.4409426220
30
0.0000000000
10
332.0739871544
20
179.5754511461
30
0.0000000000
11
331.4617371395
21
178.4329936263
31
0.0000000000
11
331.6491325979
21
178.7827395184
31
0.0000000000
11
331.8570470166
21
179.1707965501
31
0.0000000000
11
332.0739871544
21
179.5754511461
31
0.0000000000
0
SPLINE
5
3C9
100
AcDbEntity
8
0
100
AcDbSpline
62
9
6
CONTINUOUS
70
0
71
3
72
10
73
6
74
4
42
0.0000001000
43
0.0000001000
44
0.0000000001
12
0.0410362937
22
1.2955067892
32
0.0000000000
13
0.0340873897
23
1.2957082496
33
0.0000000000
40
0.0000000000
40
0.0000000000
40
0.0000000000
40
0.0000000000
40
0.3061142756
40
0.6457693610
40
1.0000000000
40
1.0000000000
40
1.0000000000
40
1.0000000000
10
332.0329751000
20
178.2799435985
30
0.0000000000
10
332.0371623651
20
178.4121346393
30
0.0000000000
10
332.0461033719
20
178.6909976720
30
0.0000000000
10
332.0594118762
20
179.1228437632
30
0.0000000000
10
332.0699622218
20
179.4224579590
30
0.0000000000
10
332.0739871544
20
179.5754511461
30
0.0000000000
11
332.0329751000
21
178.2799435985
31
0.0000000000
11
332.0455610585
21
178.6765159546
31
0.0000000000
11
332.0595331643
21
179.1165403481
31
0.0000000000
11
332.0739871544
21
179.5754511461
31
0.0000000000
0
SPLINE
5
3CA
100
AcDbEntity
8
0
100
AcDbSpline
62
9
6
CONTINUOUS
70
0
71
3
72
10
73
6
74
4
42
0.0000001000
43
0.0000001000
44
0.0000000001
12
0.5825584066
22
-0.1051629851
32
0.0000000000
13
0.5570923535
23
-0.2002040465
33
0.0000000000
40
0.0000000000
40
0.0000000000
40
0.0000000000
40
0.0000000000
40
0.3329586509
40
0.6670413742
40
1.0000000000
40
1.0000000000
40
1.0000000000
40
1.0000000000
10
331.4617508629
20
178.4329956448
30
0.0000000000
10
331.5264068166
20
178.4213240029
30
0.0000000000
10
331.6553091116
20
178.3942976817
30
0.0000000000
10
331.8459964878
20
178.3432034310
30
0.0000000000
10
331.9711424088
20
178.3021580773
30
0.0000000000
10
332.0329719769
20
178.2799381892
30
0.0000000000
11
331.4617508629
21
178.4329956448
31
0.0000000000
11
331.6546668452
21
178.3925852509
31
0.0000000000
11
331.8456964989
21
178.3413992799
31
0.0000000000
11
332.0329719769
21
178.2799381892
31
0.0000000000
0
SPLINE
5
3CB
100
AcDbEntity
8
0
100
AcDbSpline
62
9
6
CONTINUOUS
70
0
71
3
72
14
73
10
74
8
42
0.0000001000
43
0.0000001000
44
0.0000000001
12
-1.3703395895
22
0.0811773471
32
0.0000000000
13
-0.4827151201
23
1.2850706071
33
0.0000000000
40
0.0000000000
40
0.0000000000
40
0.0000000000
40
0.0000000000
40
0.1197302349
40
0.2460117919
40
0.3792701702
40
0.5218303509
40
0.6749162980
40
0.8397306588
40
1.0000000000
40
1.0000000000
40
1.0000000000
40
1.0000000000
10
303.0374508894
20
197.6456294894
30
0.0000000000
10
302.9827605290
20
197.6488692837
30
0.0000000000
10
302.8708453613
20
197.6683935643
30
0.0000000000
10
302.7086824405
20
197.7331008796
30
0.0000000000
10
302.5524987567
20
197.8322238678
30
0.0000000000
10
302.4061588632
20
197.9640922414
30
0.0000000000
10
302.2711012879
20
198.1270234783
30
0.0000000000
10
302.1601417472
20
198.3161141388
30
0.0000000000
10
302.0942858210
20
198.4499883173
30
0.0000000000
10
302.0684976763
20
198.5186407904
30
0.0000000000
11
303.0374508894
21
197.6456294894
31
0.0000000000
11
302.8754195116
21
197.6731906693
31
0.0000000000
11
302.7140707447
21
197.7365743140
31
0.0000000000
11
302.5591522295
21
197.8338543460
31
0.0000000000
11
302.4130419091
21
197.9640450237
31
0.0000000000
11
302.2790573186
21
198.1259403582
31
0.0000000000
11
302.1615494930
21
198.3192791247
31
0.0000000000
11
302.0684976763
21
198.5186407904
31
0.0000000000
0
SPLINE
5
3CC
100
AcDbEntity
8
0
100
AcDbSpline
62
9
6
CONTINUOUS
70
0
71
3
72
15
73
11
74
9
42
0.0000001000
43
0.0000001000
44
0.0000000001
12
1.4144473362
22
0.0000000000
32
0.0000000000
13
0.0000000000
23
-1.4144473362
33
0.0000000000
40
0.0000000000
40
0.0000000000
40
0.0000000000
40
0.0000000000
40
0.0391947177
40
0.1486278378
40
0.3100975451
40
0.4999898149
40
0.6898957515
40
0.8513111291
40
0.9601170671
40
1.0000000000
40
1.0000000000
40
1.0000000000
40
1.0000000000
10
321.8184632605
20
211.5754511461
30
0.0000000000
10
321.8369428819
20
211.5754511461
30
0.0000000000
10
321.8772768542
20
211.4989612910
30
0.0000000000
10
321.9928802466
20
211.4236462317
30
0.0000000000
10
322.1422713923
20
211.2581912314
30
0.0000000000
10
322.3260241130
20
211.0830116945
30
0.0000000000
10
322.5014448978
20
210.8994861649
30
0.0000000000
10
322.6655350092
20
210.7493039318
30
0.0000000000
10
322.7435782008
20
210.6361395824
30
0.0000000000
10
322.8184632605
20
210.5942552488
30
0.0000000000
10
322.8184632605
20
210.5754511461
30
0.0000000000
11
321.8184632605
21
211.5754511461
31
0.0000000000
11
321.8592641597
21
211.5379177705
31
0.0000000000
11
321.9713330151
21
211.4311483637
31
0.0000000000
11
322.1341907520
21
211.2710248766
31
0.0000000000
11
322.3245610740
21
211.0815489323
31
0.0000000000
11
322.5140150213
21
210.8911294494
31
0.0000000000
11
322.6741770500
21
210.7284174273
31
0.0000000000
11
322.7809858182
21
210.6176149910
31
0.0000000000
11
322.8184632605
21
210.5754511461
31
0.0000000000
0
SPLINE
5
3CD
100
AcDbEntity
8
0
100
AcDbSpline
62
9
6
CONTINUOUS
70
0
71
3
72
15
73
11
74
9
42
0.0000001000
43
0.0000001000
44
0.0000000001
12
0.0000000000
22
1.4144473362
32
0.0000000000
13
1.4144473362
23
0.0000000000
33
0.0000000000
40
0.0000000000
40
0.0000000000
40
0.0000000000
40
0.0000000000
40
0.0391947177
40
0.1486278378
40
0.3100975451
40
0.4999898149
40
0.6898957515
40
0.8513111291
40
0.9601170671
40
1.0000000000
40
1.0000000000
40
1.0000000000
40
1.0000000000
10
316.8184632605
20
210.5754511461
30
0.0000000000
10
316.8184632605
20
210.5939307674
30
0.0000000000
10
316.8949531155
20
210.6342647397
30
0.0000000000
10
316.9702681749
20
210.7498681321
30
0.0000000000
10
317.1357231751
20
210.8992592779
30
0.0000000000
10
317.3109027121
20
211.0830119985
30
0.0000000000
10
317.4944282417
20
211.2584327834
30
0.0000000000
10
317.6446104748
20
211.4225228948
30
0.0000000000
10
317.7577748242
20
211.5005660864
30
0.0000000000
10
317.7996591578
20
211.5754511461
30
0.0000000000
10
317.8184632605
20
211.5754511461
30
0.0000000000
11
316.8184632605
21
210.5754511461
31
0.0000000000
11
316.8559966361
21
210.6162520452
31
0.0000000000
11
316.9627660429
21
210.7283209006
31
0.0000000000
11
317.1228895300
21
210.8911786376
31
0.0000000000
11
317.3123654743
21
211.0815489596
31
0.0000000000
11
317.5027849572
21
211.2710029069
31
0.0000000000
11
317.6654969793
21
211.4311649355
31
0.0000000000
11
317.7762994155
21
211.5379737037
31
0.0000000000
11
317.8184632605
21
211.5754511461
31
0.0000000000
0
SPLINE
5
3CE
100
AcDbEntity
8
0
100
AcDbSpline
62
9
6
CONTINUOUS
70
0
71
3
72
11
73
7
74
5
42
0.0000001000
43
0.0000001000
44
0.0000000001
12
0.9303584301
22
-0.0000005430
32
0.0000000000
13
0.0468177202
23
-0.9291796971
33
0.0000000000
40
0.0000000000
40
0.0000000000
40
0.0000000000
40
0.0000000000
40
0.1875781264
40
0.4150030152
40
0.6908878890
40
1.0000000000
40
1.0000000000
40
1.0000000000
40
1.0000000000
10
302.5814948711
20
198.3754507958
30
0.0000000000
10
302.6396665015
20
198.3754507618
30
0.0000000000
10
302.7689383267
20
198.3274565815
30
0.0000000000
10
302.9092081825
20
198.1581935384
30
0.0000000000
10
303.0050702400
20
197.9224786199
30
0.0000000000
10
303.0326283734
20
197.7413699465
30
0.0000000000
10
303.0374523481
20
197.6456297139
30
0.0000000000
11
302.5814948711
21
198.3754507958
31
0.0000000000
11
302.7473299043
21
198.3210983437
31
0.0000000000
11
302.8906311088
21
198.1654266363
31
0.0000000000
11
302.9919266188
21
197.9295884675
31
0.0000000000
11
303.0374523481
21
197.6456297139
31
0.0000000000
0
SPLINE
5
3CF
100
AcDbEntity
8
0
100
AcDbSpline
62
9
6
CONTINUOUS
70
0
71
3
72
13
73
9
74
7
42
0.0000001000
43
0.0000001000
44
0.0000000001
12
-0.5984187490
22
-0.0000090979
32
0.0000000000
13
-0.3513974354
23
0.4843808849
33
0.0000000000
40
0.0000000000
40
0.0000000000
40
0.0000000000
40
0.0000000000
40
0.1605191137
40
0.3242390986
40
0.4891205737
40
0.6569016836
40
0.8278218093
40
1.0000000000
40
1.0000000000
40
1.0000000000
40
1.0000000000
10
302.5814779973
20
198.3754511463
30
0.0000000000
10
302.5494587815
20
198.3754506595
30
0.0000000000
10
302.4846719000
20
198.3807429630
30
0.0000000000
10
302.3895213947
20
198.4039815480
30
0.0000000000
10
302.2977446666
20
198.4421705450
30
0.0000000000
10
302.2116429356
20
198.4947004741
30
0.0000000000
10
302.1336545381
20
198.5608808831
30
0.0000000000
10
302.0886263275
20
198.6128895155
30
0.0000000000
10
302.0684586693
20
198.6406894570
30
0.0000000000
11
302.5814779973
21
198.3754511463
31
0.0000000000
11
302.4857309177
21
198.3831691998
31
0.0000000000
11
302.3905339072
21
198.4063264707
31
0.0000000000
11
302.2994177662
21
198.4441848362
31
0.0000000000
11
302.2137025316
21
198.4964699549
31
0.0000000000
11
302.1356700244
21
198.5625948067
31
0.0000000000
11
302.0684586693
21
198.6406894570
31
0.0000000000
0
SPLINE
5
3D0
100
AcDbEntity
8
0
100
AcDbSpline
62
9
6
CONTINUOUS
70
0
71
3
72
17
73
13
74
11
42
0.0000001000
43
0.0000001000
44
0.0000000001
12
0.7309583999
22
-4.9999420166
32
0.0000000000
13
0.7305432671
23
-5.0000026839
33
0.0000000000
40
0.0000000000
40
0.0000000000
40
0.0000000000
40
0.0000000000
40
0.0061146171
40
0.0276445439
40
0.0691053867
40
0.1343199948
40
0.2259019588
40
0.3446857350
40
0.4886039529
40
0.6518008765
40
0.8255198723
40
1.0000000000
40
1.0000000000
40
1.0000000000
40
1.0000000000
10
327.0199360041
20
218.3885162820
30
0.0000000000
10
327.0214258477
20
218.3783253716
30
0.0000000000
10
327.0281603702
20
218.3322514983
30
0.0000000000
10
327.0449855641
20
218.2170753588
30
0.0000000000
10
327.0762084784
20
218.0034000611
30
0.0000000000
10
327.1244893910
20
217.6729712055
30
0.0000000000
10
327.1916012270
20
217.2136709697
30
0.0000000000
10
327.2778740587
20
216.6231973277
30
0.0000000000
10
327.3815856155
20
215.9133652753
30
0.0000000000
10
327.4986790613
20
215.1119751130
30
0.0000000000
10
327.6232099407
20
214.2596477009
30
0.0000000000
10
327.7080083725
20
213.6793165284
30
0.0000000000
10
327.7504968000
20
213.3885161594
30
0.0000000000
11
327.0199360041
21
218.3885162820
31
0.0000000000
11
327.0244048380
21
218.3579434490
31
0.0000000000
11
327.0401334446
21
218.2502937668
31
0.0000000000
11
327.0704233366
21
218.0429895805
31
0.0000000000
11
327.1180683177
21
217.7169167869
31
0.0000000000
11
327.1849761610
21
217.2590071969
31
0.0000000000
11
327.2717534309
21
216.6650880821
31
0.0000000000
11
327.3768916472
21
215.9454965671
31
0.0000000000
11
327.4961159302
21
215.1295117846
31
0.0000000000
11
327.6230265625
21
214.2609165424
31
0.0000000000
11
327.7504968000
21
213.3885161594
31
0.0000000000
0
SPLINE
5
3D1
100
AcDbEntity
8
0
100
AcDbSpline
62
9
6
CONTINUOUS
70
0
71
3
72
14
73
10
74
8
42
0.0000001000
43
0.0000001000
44
0.0000000001
12
-1.7399249098
22
-1.8418070128
32
0.0000000000
13
-1.7397788805
23
-1.8419449731
33
0.0000000000
40
0.0000000000
40
0.0000000000
40
0.0000000000
40
0.0000000000
40
0.2191596993
40
0.4364699767
40
0.6332536773
40
0.7927484779
40
0.9075063258
40
0.9766989236
40
1.0000000000
40
1.0000000000
40
1.0000000000
40
1.0000000000
10
307.0327271836
20
179.2693329995
30
0.0000000000
10
306.9056200436
20
179.1347830425
30
0.0000000000
10
306.6524369201
20
178.8668577264
30
0.0000000000
10
306.2851388963
20
178.4781059693
30
0.0000000000
10
305.9524378143
20
178.1259914302
30
0.0000000000
10
305.6792183353
20
177.8368339328
30
0.0000000000
10
305.4800108558
20
177.6259974935
30
0.0000000000
10
305.3597887645
20
177.4987786058
30
0.0000000000
10
305.3061455597
20
177.4419926737
30
0.0000000000
10
305.2926326528
20
177.4276862402
30
0.0000000000
11
307.0327271836
21
179.2693329995
31
0.0000000000
11
306.6513699326
21
178.8657169805
31
0.0000000000
11
306.2732311951
21
178.4655066175
31
0.0000000000
11
305.9308084459
21
178.1031010327
31
0.0000000000
11
305.6532702835
21
177.8093699647
31
0.0000000000
11
305.4535781117
21
177.5980290671
31
0.0000000000
11
305.3331738907
21
177.4706031626
31
0.0000000000
11
305.2926326528
21
177.4276862402
31
0.0000000000
0
SPLINE
5
3D2
100
AcDbEntity
8
0
100
AcDbSpline
62
9
6
CONTINUOUS
70
0
71
3
72
14
73
10
74
8
42
0.0000001000
43
0.0000001000
44
0.0000000001
12
1.7399248091
22
-1.8418070931
32
0.0000000000
13
1.7397798172
23
-1.8419440734
33
0.0000000000
40
0.0000000000
40
0.0000000000
40
0.0000000000
40
0.0000000000
40
0.2191425751
40
0.4364511148
40
0.6332420757
40
0.7927433270
40
0.9075043372
40
0.9766983797
40
1.0000000000
40
1.0000000000
40
1.0000000000
40
1.0000000000
10
332.6041993374
20
179.2693329995
30
0.0000000000
10
332.7312965385
20
179.1347935497
30
0.0000000000
10
332.9844686791
20
178.8668797747
30
0.0000000000
10
333.3517599705
20
178.4781351400
30
0.0000000000
10
333.6844679830
20
178.1260132399
30
0.0000000000
10
333.9576972524
20
177.8368453897
30
0.0000000000
10
334.1569111663
20
177.6260021835
30
0.0000000000
10
334.2771362599
20
177.4987801486
30
0.0000000000
10
334.3307806413
20
177.4419930181
30
0.0000000000
10
334.3442938709
20
177.4276862577
30
0.0000000000
11
332.6041993374
21
179.2693329995
31
0.0000000000
11
332.9855267519
21
178.8657484835
31
0.0000000000
11
333.3636624502
21
178.4655413098
31
0.0000000000
11
333.7060978235
21
178.1031223480
31
0.0000000000
11
333.9836472168
21
177.8093794080
31
0.0000000000
11
334.1833449102
21
177.5980327063
31
0.0000000000
11
334.3037516688
21
177.4706041644
31
0.0000000000
11
334.3442938709
21
177.4276862577
31
0.0000000000
0
SPLINE
5
3D3
100
AcDbEntity
8
0
100
AcDbSpline
62
7
6
CONTINUOUS
70
0
71
3
72
8
73
4
74
2
42
0.0000001000
43
0.0000001000
44
0.0000000001
12
-0.0856991616
22
0.0000000000
32
0.0000000000
13
-0.0634767015
23
0.0673423278
33
0.0000000000
40
0.0000000000
40
0.0000000000
40
0.0000000000
40
0.0000000000
40
1.0000000000
40
1.0000000000
40
1.0000000000
40
1.0000000000
10
313.7938383221
20
215.5754511461
30
0.0000000000
10
313.7652719349
20
215.5754511461
30
0.0000000000
10
313.7436314201
20
215.6004512379
30
0.0000000000
10
313.7224725195
20
215.6228986806
30
0.0000000000
11
313.7938383221
21
215.5754511461
31
0.0000000000
11
313.7224725195
21
215.6228986806
31
0.0000000000
0
SPLINE
5
3D4
100
AcDbEntity
8
0
100
AcDbSpline
62
7
6
CONTINUOUS
70
0
71
3
72
13
73
9
74
7
42
0.0000001000
43
0.0000001000
44
0.0000000001
12
-0.8725569309
22
0.9256942070
32
0.0000000000
13
-1.0110863473
23
0.6045302351
33
0.0000000000
40
0.0000000000
40
0.0000000000
40
0.0000000000
40
0.0000000000
40
0.1315541756
40
0.2941026798
40
0.4719431751
40
0.6549006991
40
0.8340830268
40
1.0000000000
40
1.0000000000
40
1.0000000000
40
1.0000000000
10
313.7224725195
20
215.6228986806
30
0.0000000000
10
313.6842096836
20
215.6634916600
30
0.0000000000
10
313.6021902058
20
215.7355795722
30
0.0000000000
10
313.4687741841
20
215.8686770156
30
0.0000000000
10
313.3166992892
20
216.0055713990
30
0.0000000000
10
313.1538795387
20
216.1419243123
30
0.0000000000
10
312.9878918098
20
216.2662709849
30
0.0000000000
10
312.8743820560
20
216.3405655356
30
0.0000000000
10
312.8184632605
20
216.3739994779
30
0.0000000000
11
313.7224725195
21
215.6228986806
31
0.0000000000
11
313.6106094419
21
215.7301544050
31
0.0000000000
11
313.4724849773
21
215.8627773627
31
0.0000000000
11
313.3172265657
21
216.0034386812
31
0.0000000000
11
313.1515573482
21
216.1413030308
31
0.0000000000
11
312.9823653616
21
216.2675158505
31
0.0000000000
11
312.8184632605
21
216.3739994779
31
0.0000000000
0
SPLINE
5
3D5
100
AcDbEntity
8
0
100
AcDbSpline
62
9
6
CONTINUOUS
70
0
71
3
72
11
73
7
74
5
42
0.0000001000
43
0.0000001000
44
0.0000000001
12
-0.7799899668
22
0.0000000000
32
0.0000000000
13
-0.0000000000
23
0.7799899668
33
0.0000000000
40
0.0000000000
40
0.0000000000
40
0.0000000000
40
0.0000000000
40
0.2498900216
40
0.4998444812
40
0.7498900416
40
1.0000000000
40
1.0000000000
40
1.0000000000
40
1.0000000000
10
303.8245867764
20
198.3754511461
30
0.0000000000
10
303.7596162065
20
198.3754511461
30
0.0000000000
10
303.6282340214
20
198.4014791729
30
0.0000000000
10
303.4621987469
20
198.5127715117
30
0.0000000000
10
303.3510486757
20
198.6789631077
30
0.0000000000
10
303.3250626656
20
198.8104233934
30
0.0000000000
10
303.3250626656
20
198.8754511461
30
0.0000000000
11
303.8245867764
21
198.3754511461
31
0.0000000000
11
303.6334271751
21
198.4135113798
31
0.0000000000
11
303.4713698903
21
198.5218977555
31
0.0000000000
11
303.3630866744
21
198.6841094299
31
0.0000000000
11
303.3250626656
21
198.8754511461
31
0.0000000000
0
SPLINE
5
3D6
100
AcDbEntity
8
0
100
AcDbSpline
62
9
6
CONTINUOUS
70
0
71
3
72
16
73
12
74
10
42
0.0000001000
43
0.0000001000
44
0.0000000001
12
0.7305493713
22
5.0000527823
32
0.0000000000
13
0.7903627344
23
4.9910471140
33
0.0000000000
40
0.0000000000
40
0.0000000000
40
0.0000000000
40
0.0000000000
40
0.1938664266
40
0.3855493810
40
0.5617334366
40
0.7113424311
40
0.8282374457
40
0.9118787915
40
0.9649575763
40
0.9923092622
40
1.0000000000
40
1.0000000000
40
1.0000000000
40
1.0000000000
10
311.8864297210
20
213.3885161594
30
0.0000000000
10
311.9336393864
20
213.7116302813
30
0.0000000000
10
312.0275335912
20
214.3542184007
30
0.0000000000
10
312.1643176997
20
215.2904517495
30
0.0000000000
10
312.2903521644
20
216.1529178114
30
0.0000000000
10
312.3981235142
20
216.8907436367
30
0.0000000000
10
312.4834739833
20
217.4743127003
30
0.0000000000
10
312.5450445493
20
217.8970375178
30
0.0000000000
10
312.5853675470
20
218.1704378973
30
0.0000000000
10
312.6062795636
20
218.3173904875
30
0.0000000000
10
312.6153043505
20
218.3757211608
30
0.0000000000
10
312.6173305081
20
218.3885161057
30
0.0000000000
11
311.8864297210
21
213.3885161594
31
0.0000000000
11
312.0280624205
21
214.3578579841
31
0.0000000000
11
312.1680969871
21
215.3162827707
31
0.0000000000
11
312.2968143420
21
216.1972114414
31
0.0000000000
11
312.4061136604
21
216.9452639365
31
0.0000000000
11
312.4915126475
21
217.5297449737
31
0.0000000000
11
312.5526174054
21
217.9479560262
31
0.0000000000
11
312.5913941972
21
218.2133527345
31
0.0000000000
11
312.6113771669
21
218.3501124302
31
0.0000000000
11
312.6173305081
21
218.3885161057
31
0.0000000000
0
SPLINE
5
3D7
100
AcDbEntity
8
0
100
AcDbSpline
62
9
6
CONTINUOUS
70
0
71
3
72
12
73
8
74
6
42
0.0000001000
43
0.0000001000
44
0.0000000001
12
-1.5636002845
22
0.0000000000
32
0.0000000000
13
-0.0000000017
23
-1.5636002845
33
0.0000000000
40
0.0000000000
40
0.0000000000
40
0.0000000000
40
0.0000000000
40
0.1999042194
40
0.3998457525
40
0.5998461945
40
0.7999050912
40
1.0000000000
40
1.0000000000
40
1.0000000000
40
1.0000000000
10
304.3241108872
20
202.3754511461
30
0.0000000000
10
304.2199207891
20
202.3754511461
30
0.0000000000
10
304.0100501432
20
202.3422713801
30
0.0000000000
10
303.7271702929
20
202.1978798216
30
0.0000000000
10
303.5024244030
20
201.9729034006
30
0.0000000000
10
303.3581995665
20
201.6897685994
30
0.0000000000
10
303.3250626654
20
201.4797406315
30
0.0000000000
10
303.3250626653
20
201.3754511461
30
0.0000000000
11
304.3241108872
21
202.3754511461
31
0.0000000000
11
304.0153958505
21
202.3265102127
31
0.0000000000
11
303.7368949457
21
202.1844753177
31
0.0000000000
11
303.5158706657
21
201.9632457223
31
0.0000000000
11
303.3739616947
21
201.6844746984
31
0.0000000000
11
303.3250626653
21
201.3754511461
31
0.0000000000
0
SPLINE
5
3D8
100
AcDbEntity
8
0
100
AcDbSpline
62
9
6
CONTINUOUS
70
0
71
3
72
18
73
14
74
12
42
0.0000001000
43
0.0000001000
44
0.0000000001
12
0.2091123532
22
-1.3586247746
32
0.0000000000
13
1.1905564148
23
0.6871423998
33
0.0000000000
40
0.0000000000
40
0.0000000000
40
0.0000000000
40
0.0000000000
40
0.0847116013
40
0.1738094141
40
0.2677119124
40
0.3660748630
40
0.4678553801
40
0.5716933702
40
0.6752049905
40
0.7736602728
40
0.8619299691
40
0.9360587283
40
1.0000000000
40
1.0000000000
40
1.0000000000
40
1.0000000000
10
305.2926318490
20
177.4276914630
30
0.0000000000
10
305.2985365964
20
177.3893277029
30
0.0000000000
10
305.3153019238
20
177.3112568771
30
0.0000000000
10
305.3545452968
20
177.1948013575
30
0.0000000000
10
305.4076223191
20
177.0771122259
30
0.0000000000
10
305.4730807742
20
176.9592120511
30
0.0000000000
10
305.5483874748
20
176.8419441547
30
0.0000000000
10
305.6318611232
20
176.7273958526
30
0.0000000000
10
305.7208824930
20
176.6191244543
30
0.0000000000
10
305.8128388476
20
176.5226133936
30
0.0000000000
10
305.9051696150
20
176.4466590665
30
0.0000000000
10
305.9984190914
20
176.3963452873
30
0.0000000000
10
306.0678252869
20
176.4028434940
30
0.0000000000
10
306.0932005173
20
176.4174890803
30
0.0000000000
11
305.2926318490
21
177.4276914630
31
0.0000000000
11
305.3169485499
21
177.3138121619
31
0.0000000000
11
305.3556652705
21
177.1976167698
31
0.0000000000
11
305.4083388520
21
177.0797724417
31
0.0000000000
11
305.4735343957
21
176.9613164272
31
0.0000000000
11
305.5490009132
21
176.8435048109
31
0.0000000000
11
305.6330453011
21
176.7281327504
31
0.0000000000
11
305.7237192901
21
176.6184763520
31
0.0000000000
11
305.8179931713
21
176.5213730034
31
0.0000000000
11
305.9129591837
21
176.4458464161
31
0.0000000000
11
306.0062259833
21
176.4048008940
31
0.0000000000
11
306.0932005173
21
176.4174890803
31
0.0000000000
0
SPLINE
5
3D9
100
AcDbEntity
8
0
100
AcDbSpline
62
9
6
CONTINUOUS
70
0
71
3
72
18
73
14
74
12
42
0.0000001000
43
0.0000001000
44
0.0000000001
12
1.1905295472
22
-0.6870836117
32
0.0000000000
13
0.2091043430
23
1.3585727313
33
0.0000000000
40
0.0000000000
40
0.0000000000
40
0.0000000000
40
0.0000000000
40
0.0646043217
40
0.1396221601
40
0.2286823459
40
0.3277197136
40
0.4315147142
40
0.5353624223
40
0.6369189832
40
0.7347842555
40
0.8279661766
40
0.9162023367
40
1.0000000000
40
1.0000000000
40
1.0000000000
40
1.0000000000
10
333.5437261029
20
176.4174911023
30
0.0000000000
10
333.5693638875
20
176.4026949121
30
0.0000000000
10
333.6396714017
20
176.3964750565
30
0.0000000000
10
333.7335377799
20
176.4478736146
30
0.0000000000
10
333.8264040797
20
176.5247857506
30
0.0000000000
10
333.9186415144
20
176.6220692446
30
0.0000000000
10
334.0077032059
20
176.7308178240
30
0.0000000000
10
334.0909963790
20
176.8455302050
30
0.0000000000
10
334.1658975423
20
176.9626642780
30
0.0000000000
10
334.2308029009
20
177.0801098440
30
0.0000000000
10
334.2832251923
20
177.1970409382
30
0.0000000000
10
334.3219151035
20
177.3124652574
30
0.0000000000
10
334.3384538553
20
177.3897430670
30
0.0000000000
10
334.3442946737
20
177.4276914738
30
0.0000000000
11
333.5437261029
21
176.4174911023
31
0.0000000000
11
333.6316449026
21
176.4049893481
31
0.0000000000
11
333.7258010982
21
176.4470344716
31
0.0000000000
11
333.8213244886
21
176.5235969971
31
0.0000000000
11
333.9159005536
21
176.6215142871
31
0.0000000000
11
334.0065971668
21
176.7316499746
31
0.0000000000
11
334.0904372658
21
176.8471803252
31
0.0000000000
11
334.1655080413
21
176.9648731820
31
0.0000000000
11
334.2301313976
21
177.0828570248
31
0.0000000000
11
334.2821518793
21
177.1999026193
31
0.0000000000
11
334.3203113521
21
177.3150301631
31
0.0000000000
11
334.3442946737
21
177.4276914738
31
0.0000000000
0
SPLINE
5
3DA
100
AcDbEntity
8
0
100
AcDbSpline
62
9
6
CONTINUOUS
70
0
71
3
72
11
73
7
74
5
42
0.0000001000
43
0.0000001000
44
0.0000000001
12
0.7799899668
22
0.0000000000
32
0.0000000000
13
-0.0000000001
23
0.7799899668
33
0.0000000000
40
0.0000000000
40
0.0000000000
40
0.0000000000
40
0.0000000000
40
0.2498895970
40
0.4998439529
40
0.7498896936
40
1.0000000000
40
1.0000000000
40
1.0000000000
40
1.0000000000
10
335.8123397447
20
198.3754511461
30
0.0000000000
10
335.8773102041
20
198.3754511461
30
0.0000000000
10
336.0086922449
20
198.4014790982
30
0.0000000000
10
336.1747275247
20
198.5127712560
30
0.0000000000
10
336.2858777796
20
198.6789628741
30
0.0000000000
10
336.3118638555
20
198.8104233029
30
0.0000000000
10
336.3118638554
20
198.8754511461
30
0.0000000000
11
335.8123397447
21
198.3754511461
31
0.0000000000
11
336.0034990340
21
198.4135112505
31
0.0000000000
11
336.1655563338
21
198.5218974582
31
0.0000000000
11
336.2738397408
21
198.6841091741
31
0.0000000000
11
336.3118638554
21
198.8754511461
31
0.0000000000
0
SPLINE
5
3DB
100
AcDbEntity
8
0
100
AcDbSpline
62
9
6
CONTINUOUS
70
0
71
3
72
14
73
10
74
8
42
0.0000001000
43
0.0000001000
44
0.0000000001
12
-0.3513480309
22
-0.4845747296
32
0.0000000000
13
-0.5985466626
23
0.0000095670
33
0.0000000000
40
0.0000000000
40
0.0000000000
40
0.0000000000
40
0.0000000000
40
0.1489339374
40
0.2966305292
40
0.4416427924
40
0.5836530665
40
0.7239241055
40
0.8632262414
40
1.0000000000
40
1.0000000000
40
1.0000000000
40
1.0000000000
10
337.5684615908
20
198.6406500104
30
0.0000000000
10
337.5510190423
20
198.6165934695
30
0.0000000000
10
337.5125913115
20
198.5712780343
30
0.0000000000
10
337.4470693566
20
198.5120056005
30
0.0000000000
10
337.3753129800
20
198.4628143919
30
0.0000000000
10
337.2990483591
20
198.4241781082
30
0.0000000000
10
337.2194527688
20
198.3962303210
30
0.0000000000
10
337.1378882567
20
198.3792891560
30
0.0000000000
10
337.0827375253
20
198.3754507101
30
0.0000000000
10
337.0554490330
20
198.3754511463
30
0.0000000000
11
337.5684615908
21
198.6406500104
31
0.0000000000
11
337.5110242886
21
198.5724767516
31
0.0000000000
11
337.4454262250
21
198.5132143024
31
0.0000000000
11
337.3738343104
21
198.4641403928
31
0.0000000000
11
337.2980007510
21
198.4257446492
31
0.0000000000
11
337.2187698934
21
198.3979679508
31
0.0000000000
11
337.1371215208
21
198.3810690664
31
0.0000000000
11
337.0554490330
21
198.3754511463
31
0.0000000000
0
SPLINE
5
3DC
100
AcDbEntity
8
0
100
AcDbSpline
62
9
6
CONTINUOUS
70
0
71
3
72
14
73
10
74
8
42
0.0000001000
43
0.0000001000
44
0.0000000001
12
-0.4831514819
22
-1.2851719405
32
0.0000000000
13
-1.3705839579
23
-0.0812519885
33
0.0000000000
40
0.0000000000
40
0.0000000000
40
0.0000000000
40
0.0000000000
40
0.1621303935
40
0.3277624304
40
0.4809889879
40
0.6229971071
40
0.7554407557
40
0.8809638255
40
1.0000000000
40
1.0000000000
40
1.0000000000
40
1.0000000000
10
337.5684594394
20
198.5188905646
30
0.0000000000
10
337.5423482594
20
198.4494354205
30
0.0000000000
10
337.4761324471
20
198.3143318056
30
0.0000000000
10
337.3639204737
20
198.1244166769
30
0.0000000000
10
337.2284107295
20
197.9615752390
30
0.0000000000
10
337.0820672448
20
197.8304913992
30
0.0000000000
10
336.9264580751
20
197.7322469207
30
0.0000000000
10
336.7651351785
20
197.6681860168
30
0.0000000000
10
336.6538586554
20
197.6488534647
30
0.0000000000
10
336.5994756317
20
197.6456294894
30
0.0000000000
11
337.5684594394
21
198.5188905646
31
0.0000000000
11
337.4743319981
21
198.3171671855
31
0.0000000000
11
337.3558005563
21
198.1230895217
31
0.0000000000
11
337.2212831372
21
197.9613359823
31
0.0000000000
11
337.0753508049
21
197.8320328367
31
0.0000000000
11
336.9211231219
21
197.7356948686
31
0.0000000000
11
336.7606134556
21
197.6729382292
31
0.0000000000
11
336.5994756317
21
197.6456294894
31
0.0000000000
0
SPLINE
5
3DD
100
AcDbEntity
8
0
100
AcDbSpline
62
9
6
CONTINUOUS
70
0
71
3
72
10
73
6
74
4
42
0.0000001000
43
0.0000001000
44
0.0000000001
12
-1.1776874316
22
-0.0703090253
32
0.0000000000
13
-1.1776904141
23
-0.0702590512
33
0.0000000000
40
0.0000000000
40
0.0000000000
40
0.0000000000
40
0.0000000000
40
0.3088199418
40
0.6475611426
40
1.0000000000
40
1.0000000000
40
1.0000000000
40
1.0000000000
10
336.5994756317
20
197.6456294894
30
0.0000000000
10
336.4782445103
20
197.6383918797
30
0.0000000000
10
336.2240338462
20
197.6232566153
30
0.0000000000
10
335.8314683855
20
197.5998703139
30
0.0000000000
10
335.5601350269
20
197.5837051526
30
0.0000000000
10
335.4217804056
20
197.5754511461
30
0.0000000000
11
336.5994756317
21
197.6456294894
31
0.0000000000
11
336.2357800429
21
197.6239539561
31
0.0000000000
11
335.8368456267
21
197.6001904074
31
0.0000000000
11
335.4217804056
21
197.5754511461
31
0.0000000000
0
SPLINE
5
3DE
100
AcDbEntity
8
0
100
AcDbSpline
62
9
6
CONTINUOUS
70
0
71
3
72
12
73
8
74
6
42
0.0000001000
43
0.0000001000
44
0.0000000001
12
1.5636002844
22
0.0000000000
32
0.0000000000
13
-0.0000000023
23
-1.5636002844
33
0.0000000000
40
0.0000000000
40
0.0000000000
40
0.0000000000
40
0.0000000000
40
0.1999094280
40
0.3998534605
40
0.5998534717
40
0.7999094462
40
1.0000000000
40
1.0000000000
40
1.0000000000
40
1.0000000000
10
335.3128156339
20
202.3754511461
30
0.0000000000
10
335.4170084467
20
202.3754511461
30
0.0000000000
10
335.6268832236
20
202.3422698424
30
0.0000000000
10
335.9097651255
20
202.1978735634
30
0.0000000000
10
336.1345080061
20
201.9728948089
30
0.0000000000
10
336.2787283043
20
201.6897624420
30
0.0000000000
10
336.3118638556
20
201.4797383617
30
0.0000000000
10
336.3118638554
20
201.3754511461
30
0.0000000000
11
335.3128156339
21
202.3754511461
31
0.0000000000
11
335.6215385122
21
202.3265076625
31
0.0000000000
11
335.9000414442
21
202.1844681409
31
0.0000000000
11
336.1210626229
21
201.9632363992
31
0.0000000000
11
336.2629669552
21
201.6844681411
31
0.0000000000
11
336.3118638554
21
201.3754511461
31
0.0000000000
0
SPLINE
5
3DF
100
AcDbEntity
8
0
100
AcDbSpline
62
9
6
CONTINUOUS
70
0
71
3
72
13
73
9
74
7
42
0.0000001000
43
0.0000001000
44
0.0000000001
12
-0.3779484690
22
0.6574898695
32
0.0000000000
13
-0.2942583437
23
-0.6005551942
33
0.0000000000
40
0.0000000000
40
0.0000000000
40
0.0000000000
40
0.0000000000
40
0.0580678846
40
0.2167699817
40
0.4447280033
40
0.6974908973
40
0.9254254778
40
1.0000000000
40
1.0000000000
40
1.0000000000
40
1.0000000000
10
314.3854505586
20
216.3254511461
30
0.0000000000
10
314.3781350026
20
216.3381774947
30
0.0000000000
10
314.3557849849
20
216.2292782228
30
0.0000000000
10
314.2986243548
20
216.1838152201
30
0.0000000000
10
314.2181181320
20
216.0177526054
30
0.0000000000
10
314.1353659827
20
215.8741520166
30
0.0000000000
10
314.0453270668
20
215.7415972396
30
0.0000000000
10
314.0290098879
20
215.6873398287
30
0.0000000000
10
314.0216951628
20
215.6724111231
30
0.0000000000
11
314.3854505586
21
216.3254511461
31
0.0000000000
11
314.3657653685
21
216.2860583920
31
0.0000000000
11
314.3076967618
21
216.1806370164
31
0.0000000000
11
314.2222282204
21
216.0303636238
31
0.0000000000
11
314.1264353638
21
215.8643251795
31
0.0000000000
11
314.0390443131
21
215.7151822212
31
0.0000000000
11
314.0216951628
21
215.6724111231
31
0.0000000000
0
SPLINE
5
3E0
100
AcDbEntity
8
0
100
AcDbSpline
62
9
6
CONTINUOUS
70
0
71
3
72
13
73
9
74
7
42
0.0000001000
43
0.0000001000
44
0.0000000001
12
1.7496182211
22
0.0032536300
32
0.0000000000
13
0.1783352943
23
1.7405088418
33
0.0000000000
40
0.0000000000
40
0.0000000000
40
0.0000000000
40
0.0000000000
40
0.1611600520
40
0.3231123518
40
0.4904770951
40
0.6624125594
40
0.8343458811
40
1.0000000000
40
1.0000000000
40
1.0000000000
40
1.0000000000
10
332.4645869513
20
173.5754511461
30
0.0000000000
10
332.5585764725
20
173.5756259311
30
0.0000000000
10
332.7488051593
20
173.6174436509
30
0.0000000000
10
332.9896183953
20
173.7805511483
30
0.0000000000
10
333.1791906066
20
174.0068094951
30
0.0000000000
10
333.3185655195
20
174.2724218852
30
0.0000000000
10
333.4101027774
20
174.5563549315
30
0.0000000000
10
333.4431011364
20
174.7511585806
30
0.0000000000
10
333.4529484618
20
174.8472660668
30
0.0000000000
11
332.4645869513
21
173.5754511461
31
0.0000000000
11
332.7404804655
21
173.6336689665
31
0.0000000000
11
332.9779785726
21
173.7882160782
31
0.0000000000
11
333.1687464447
21
174.0103737866
31
0.0000000000
11
333.3105734732
21
174.2756640697
31
0.0000000000
11
333.4040587635
21
174.5615872858
31
0.0000000000
11
333.4529484618
21
174.8472660668
31
0.0000000000
0
SPLINE
5
3E1
100
AcDbEntity
8
0
100
AcDbSpline
62
9
6
CONTINUOUS
70
0
71
3
72
11
73
7
74
5
42
0.0000001000
43
0.0000001000
44
0.0000000001
12
-0.2333222815
22
0.4041260540
32
0.0000000000
13
-0.4372986616
23
-0.1628712226
33
0.0000000000
40
0.0000000000
40
0.0000000000
40
0.0000000000
40
0.0000000000
40
0.1888464301
40
0.4135949965
40
0.6865115055
40
1.0000000000
40
1.0000000000
40
1.0000000000
40
1.0000000000
10
314.3854505586
20
216.3254511461
30
0.0000000000
10
314.3707631986
20
216.3508904003
30
0.0000000000
10
314.3199422660
20
216.3963410676
30
0.0000000000
10
314.2138319164
20
216.4225385005
30
0.0000000000
10
314.0866764856
20
216.4156825175
30
0.0000000000
10
313.9981338900
20
216.3910188948
30
0.0000000000
10
313.9524378570
20
216.3739994766
30
0.0000000000
11
314.3854505586
21
216.3254511461
31
0.0000000000
11
314.3216213836
21
216.3862105420
31
0.0000000000
11
314.2210542665
21
216.4159693480
31
0.0000000000
11
314.0937689486
21
216.4117567908
31
0.0000000000
11
313.9524378570
21
216.3739994766
31
0.0000000000
0
SPLINE
5
3E2
100
AcDbEntity
8
0
100
AcDbSpline
62
9
6
CONTINUOUS
70
0
71
3
72
9
73
5
74
3
42
0.0000001000
43
0.0000001000
44
0.0000000001
12
0.0234138213
22
0.2281851006
32
0.0000000000
13
0.0234212222
23
0.2281843410
33
0.0000000000
40
0.0000000000
40
0.0000000000
40
0.0000000000
40
0.0000000000
40
0.4985559913
40
1.0000000000
40
1.0000000000
40
1.0000000000
40
1.0000000000
10
333.4529484618
20
174.8472660668
30
0.0000000000
10
333.4568394954
20
174.8851870831
30
0.0000000000
10
333.4646432478
20
174.9612488710
30
0.0000000000
10
333.4724476798
20
175.0373105892
30
0.0000000000
10
333.4763624903
20
175.0754511461
30
0.0000000000
11
333.4529484618
21
174.8472660668
31
0.0000000000
11
333.4646208793
21
174.9610291859
31
0.0000000000
11
333.4763624903
21
175.0754511461
31
0.0000000000
0
SPLINE
5
3E3
100
AcDbEntity
8
0
100
AcDbSpline
62
9
6
CONTINUOUS
70
0
71
3
72
11
73
7
74
5
42
0.0000001000
43
0.0000001000
44
0.0000000001
12
0.4961760950
22
-0.0746015598
32
0.0000000000
13
0.0763180964
23
0.4959149707
33
0.0000000000
40
0.0000000000
40
0.0000000000
40
0.0000000000
40
0.0000000000
40
0.3744134146
40
0.6915786907
40
0.9071339681
40
1.0000000000
40
1.0000000000
40
1.0000000000
40
1.0000000000
10
333.4529484618
20
174.8472657054
30
0.0000000000
10
333.5148734571
20
174.8379550971
30
0.0000000000
10
333.6279346264
20
174.8237796208
30
0.0000000000
10
333.7859690876
20
174.8152025435
30
0.0000000000
10
333.8775356829
20
174.8183702349
30
0.0000000000
10
333.9447667641
20
174.8319148483
30
0.0000000000
10
333.9471292170
20
174.8472660668
30
0.0000000000
11
333.4529484618
21
174.8472657054
31
0.0000000000
11
333.6394687566
21
174.8248444690
31
0.0000000000
11
333.7984131184
21
174.8169833768
31
0.0000000000
11
333.9062825577
21
174.8248446426
31
0.0000000000
11
333.9471292170
21
174.8472660668
31
0.0000000000
0
SPLINE
5
3E4
100
AcDbEntity
8
0
100
AcDbSpline
62
9
6
CONTINUOUS
70
0
71
3
72
10
73
6
74
4
42
0.0000001000
43
0.0000001000
44
0.0000000001
12
-0.2549196137
22
0.4415337632
32
0.0000000000
13
-0.5088505608
23
-0.0317361042
33
0.0000000000
40
0.0000000000
40
0.0000000000
40
0.0000000000
40
0.0000000000
40
0.3263633978
40
0.6587505202
40
1.0000000000
40
1.0000000000
40
1.0000000000
40
1.0000000000
10
313.4830145524
20
217.8885161594
30
0.0000000000
10
313.4552824086
20
217.9365496458
30
0.0000000000
10
313.3793779326
20
218.0233361918
30
0.0000000000
10
313.2245241254
20
218.1018266569
30
0.0000000000
10
313.1078835136
20
218.1143483562
30
0.0000000000
10
313.0500018506
20
218.1107383798
30
0.0000000000
11
313.4830145524
21
217.8885161594
31
0.0000000000
11
313.3736644393
21
218.0139320328
31
0.0000000000
11
313.2228956836
21
218.0913066501
31
0.0000000000
11
313.0500018506
21
218.1107383798
31
0.0000000000
0
SPLINE
5
3E5
100
AcDbEntity
8
0
100
AcDbSpline
62
9
6
CONTINUOUS
70
0
71
3
72
9
73
5
74
3
42
0.0000001000
43
0.0000001000
44
0.0000000001
12
0.1829814900
22
-0.3521834557
32
0.0000000000
13
0.1829993649
23
-0.3521741676
33
0.0000000000
40
0.0000000000
40
0.0000000000
40
0.0000000000
40
0.0000000000
40
0.8136898124
40
1.0000000000
40
1.0000000000
40
1.0000000000
40
1.0000000000
10
313.0500018505
20
218.1107383816
30
0.0000000000
10
313.0996319086
20
218.0152156849
30
0.0000000000
10
313.1606483420
20
217.8978329450
30
0.0000000000
10
313.2216502495
20
217.7804426569
30
0.0000000000
10
313.2330151315
20
217.7585714452
30
0.0000000000
11
313.0500018505
21
218.1107383816
31
0.0000000000
11
313.1989191916
21
217.8241844081
31
0.0000000000
11
313.2330151315
21
217.7585714452
31
0.0000000000
0
SPLINE
5
3E6
100
AcDbEntity
8
0
100
AcDbSpline
62
9
6
CONTINUOUS
70
0
71
3
72
8
73
4
74
2
42
0.0000001000
43
0.0000001000
44
0.0000000001
12
0.0601107397
22
-0.1156804546
32
0.0000000000
13
0.0601051747
23
-0.1156833464
33
0.0000000000
40
0.0000000000
40
0.0000000000
40
0.0000000000
40
0.0000000000
40
1.0000000000
40
1.0000000000
40
1.0000000000
40
1.0000000000
10
313.2330151315
20
217.7585714452
30
0.0000000000
10
313.2530520447
20
217.7200112936
30
0.0000000000
10
313.2730877307
20
217.6814505044
30
0.0000000000
10
313.2931227890
20
217.6428893889
30
0.0000000000
11
313.2330151315
21
217.7585714452
31
0.0000000000
11
313.2931227890
21
217.6428893889
31
0.0000000000
0
SPLINE
5
3E7
100
AcDbEntity
8
0
100
AcDbSpline
62
9
6
CONTINUOUS
70
0
71
3
72
10
73
6
74
4
42
0.0000001000
43
0.0000001000
44
0.0000000001
12
0.6592820800
22
-1.2689083350
32
0.0000000000
13
0.6593259225
23
-1.2688855542
33
0.0000000000
40
0.0000000000
40
0.0000000000
40
0.0000000000
40
0.0000000000
40
0.1625392180
40
0.5450035332
40
1.0000000000
40
1.0000000000
40
1.0000000000
40
1.0000000000
10
313.2931227890
20
217.6428893889
30
0.0000000000
10
313.3288425202
20
217.5741402661
30
0.0000000000
10
313.4486061840
20
217.3436169475
30
0.0000000000
10
313.6683835241
20
216.9206561523
30
0.0000000000
10
313.8524433383
20
216.5664456259
30
0.0000000000
10
313.9524403267
20
216.3739994779
30
0.0000000000
11
313.2931227890
21
217.6428893889
31
0.0000000000
11
313.4002793940
21
217.4366406752
31
0.0000000000
11
313.6524436250
21
216.9513349411
31
0.0000000000
11
313.9524403267
21
216.3739994779
31
0.0000000000
0
SPLINE
5
3E8
100
AcDbEntity
8
0
100
AcDbSpline
62
9
6
CONTINUOUS
70
0
71
3
72
11
73
7
74
5
42
0.0000001000
43
0.0000001000
44
0.0000000001
12
0.5390836504
22
0.0001156026
32
0.0000000000
13
0.2485776500
23
-0.4783516985
33
0.0000000000
40
0.0000000000
40
0.0000000000
40
0.0000000000
40
0.0000000000
40
0.2077604345
40
0.4421449572
40
0.7080247064
40
1.0000000000
40
1.0000000000
40
1.0000000000
40
1.0000000000
10
312.6173305081
20
218.3885161057
30
0.0000000000
10
312.6546639259
20
218.3885241116
30
0.0000000000
10
312.7344358819
20
218.3784006548
30
0.0000000000
10
312.8536371966
20
218.3297341722
30
0.0000000000
10
312.9669562222
20
218.2404531471
30
0.0000000000
10
313.0258090064
20
218.1572940075
30
0.0000000000
10
313.0500018505
20
218.1107383816
30
0.0000000000
11
312.6173305081
21
218.3885161057
31
0.0000000000
11
312.7284547229
21
218.3745351819
31
0.0000000000
11
312.8455541048
21
218.3270717037
31
0.0000000000
11
312.9584667570
21
218.2387844932
31
0.0000000000
11
313.0500018505
21
218.1107383816
31
0.0000000000
0
SPLINE
5
3E9
100
AcDbEntity
8
0
100
AcDbSpline
62
9
6
CONTINUOUS
70
0
71
3
72
11
73
7
74
5
42
0.0000001000
43
0.0000001000
44
0.0000000001
12
-0.9303555379
22
0.0001449367
32
0.0000000000
13
-0.0468205720
23
-0.9291766688
33
0.0000000000
40
0.0000000000
40
0.0000000000
40
0.0000000000
40
0.0000000000
40
0.1875780573
40
0.4149997234
40
0.6908844814
40
1.0000000000
40
1.0000000000
40
1.0000000000
40
1.0000000000
10
337.0554316518
20
198.3754170628
30
0.0000000000
10
336.9972602237
20
198.3754261251
30
0.0000000000
10
336.8679814224
20
198.3274500129
30
0.0000000000
10
336.7277008049
20
198.1581956054
30
0.0000000000
10
336.6318321626
20
197.9224839210
30
0.0000000000
10
336.6042720811
20
197.7413747572
30
0.0000000000
10
336.5994477593
20
197.6456337812
30
0.0000000000
11
337.0554316518
21
198.3754170628
31
0.0000000000
11
336.8895899261
21
198.3210869771
31
0.0000000000
11
336.7462799949
21
198.1654282692
31
0.0000000000
11
336.6449770634
21
197.9295942705
31
0.0000000000
11
336.5994477593
21
197.6456337812
31
0.0000000000
0
SPLINE
5
3EA
100
AcDbEntity
8
0
100
AcDbSpline
62
9
6
CONTINUOUS
70
0
71
3
72
13
73
9
74
7
42
0.0000001000
43
0.0000001000
44
0.0000000001
12
-0.2971520177
22
0.6008945872
32
0.0000000000
13
0.3793262207
23
0.6570120986
33
0.0000000000
40
0.0000000000
40
0.0000000000
40
0.0000000000
40
0.0000000000
40
0.0750170828
40
0.3028351609
40
0.5554124288
40
0.7833497057
40
0.9418135834
40
1.0000000000
40
1.0000000000
40
1.0000000000
40
1.0000000000
10
325.6152625784
20
215.6722190232
30
0.0000000000
10
325.6078320859
20
215.6872448096
30
0.0000000000
10
325.5913251141
20
215.7414057180
30
0.0000000000
10
325.5000207008
20
215.8722682703
30
0.0000000000
10
325.4222825368
20
216.0239358545
30
0.0000000000
10
325.3283626743
20
216.1660754248
30
0.0000000000
10
325.2998785431
20
216.2622981449
30
0.0000000000
10
325.2441187515
20
216.3127080866
30
0.0000000000
10
325.2514759627
20
216.3254511465
30
0.0000000000
11
325.6152625784
21
215.6722190232
31
0.0000000000
11
325.5976120750
21
215.7151327445
31
0.0000000000
11
325.5099943183
21
215.8641124868
31
0.0000000000
11
325.4146346857
21
216.0303175437
31
0.0000000000
11
325.3292999978
21
216.1807206459
31
0.0000000000
11
325.2710490847
21
216.2858844929
31
0.0000000000
11
325.2514759627
21
216.3254511465
31
0.0000000000
0
SPLINE
5
3EB
100
AcDbEntity
8
0
100
AcDbSpline
62
9
6
CONTINUOUS
70
0
71
3
72
12
73
8
74
6
42
0.0000001000
43
0.0000001000
44
0.0000000001
12
0.2335941040
22
0.4045968611
32
0.0000000000
13
0.4457079847
23
-0.1400329169
33
0.0000000000
40
0.0000000000
40
0.0000000000
40
0.0000000000
40
0.0000000000
40
0.1822865935
40
0.3734557624
40
0.5715335375
40
0.7699510258
40
1.0000000000
40
1.0000000000
40
1.0000000000
40
1.0000000000
10
325.2514759627
20
216.3254511465
30
0.0000000000
10
325.2656696538
20
216.3500353411
30
0.0000000000
10
325.3105014818
20
216.3922847520
30
0.0000000000
10
325.3979956253
20
216.4164874702
30
0.0000000000
10
325.4898121832
20
216.4203168989
30
0.0000000000
10
325.5870529050
20
216.4065030700
30
0.0000000000
10
325.6503104427
20
216.3847376197
30
0.0000000000
10
325.6844886643
20
216.3739994767
30
0.0000000000
11
325.2514759627
21
216.3254511465
31
0.0000000000
11
325.3123749809
21
216.3849818191
31
0.0000000000
11
325.3972340527
21
216.4128308427
31
0.0000000000
11
325.4896563835
21
216.4174881619
31
0.0000000000
11
325.5814485738
21
216.4045587084
31
0.0000000000
11
325.6844886643
21
216.3739994767
31
0.0000000000
0
SPLINE
5
3EC
100
AcDbEntity
8
0
100
AcDbSpline
62
9
6
CONTINUOUS
70
0
71
3
72
9
73
5
74
3
42
0.0000001000
43
0.0000001000
44
0.0000000001
12
0.0234163346
22
-0.2281848426
32
0.0000000000
13
0.0234112828
23
-0.2281853610
33
0.0000000000
40
0.0000000000
40
0.0000000000
40
0.0000000000
40
0.0000000000
40
0.5014610407
40
1.0000000000
40
1.0000000000
40
1.0000000000
40
1.0000000000
10
306.1605640307
20
175.0754511461
30
0.0000000000
10
306.1644781572
20
175.0373092098
30
0.0000000000
10
306.1722822130
20
174.9612474531
30
0.0000000000
10
306.1800875804
20
174.8851858309
30
0.0000000000
10
306.1839780593
20
174.8472660668
30
0.0000000000
11
306.1605640307
21
175.0754511461
31
0.0000000000
11
306.1723053469
21
174.9610252283
31
0.0000000000
11
306.1839780593
21
174.8472660668
31
0.0000000000
0
SPLINE
5
3ED
100
AcDbEntity
8
0
100
AcDbSpline
62
9
6
CONTINUOUS
70
0
71
3
72
13
73
9
74
7
42
0.0000001000
43
0.0000001000
44
0.0000000001
12
0.1783362781
22
-1.7405088255
32
0.0000000000
13
1.7496182496
23
-0.0032833818
33
0.0000000000
40
0.0000000000
40
0.0000000000
40
0.0000000000
40
0.0000000000
40
0.1656541168
40
0.3375874475
40
0.5095228838
40
0.6768876335
40
0.8388397665
40
1.0000000000
40
1.0000000000
40
1.0000000000
40
1.0000000000
10
306.1839780593
20
174.8472660668
30
0.0000000000
10
306.1938254388
20
174.7511585827
30
0.0000000000
10
306.2268231926
20
174.5563547872
30
0.0000000000
10
306.3183613753
20
174.2724220557
30
0.0000000000
10
306.4577357551
20
174.0068093245
30
0.0000000000
10
306.6473081800
20
173.7805515581
30
0.0000000000
10
306.8881211137
20
173.6174426065
30
0.0000000000
10
307.0783499412
20
173.5756275296
30
0.0000000000
10
307.1723395697
20
173.5754511461
30
0.0000000000
11
306.1839780593
21
174.8472660668
31
0.0000000000
11
306.2328675105
21
174.5615872330
31
0.0000000000
11
306.3263531838
21
174.2756641105
31
0.0000000000
11
306.4681800403
21
174.0103737745
31
0.0000000000
11
306.6589479742
21
173.7882160858
31
0.0000000000
11
306.8964457043
21
173.6336689048
31
0.0000000000
11
307.1723395697
21
173.5754511461
31
0.0000000000
0
SPLINE
5
3EE
100
AcDbEntity
8
0
100
AcDbSpline
62
9
6
CONTINUOUS
70
0
71
3
72
10
73
6
74
4
42
0.0000001000
43
0.0000001000
44
0.0000000001
12
0.6593259200
22
1.2688855563
32
0.0000000000
13
0.6592821770
23
1.2689082854
33
0.0000000000
40
0.0000000000
40
0.0000000000
40
0.0000000000
40
0.0000000000
40
0.4549964656
40
0.8374607786
40
1.0000000000
40
1.0000000000
40
1.0000000000
40
1.0000000000
10
325.6844861976
20
216.3739994779
30
0.0000000000
10
325.7844831854
20
216.5664456257
30
0.0000000000
10
325.9685430054
20
216.9206561475
30
0.0000000000
10
326.1883203189
20
217.3436169568
30
0.0000000000
10
326.3080840003
20
217.5741402670
30
0.0000000000
10
326.3438037375
20
217.6428893886
30
0.0000000000
11
325.6844861976
21
216.3739994779
31
0.0000000000
11
325.9844828967
21
216.9513349409
31
0.0000000000
11
326.2366471175
21
217.4366406771
31
0.0000000000
11
326.3438037375
21
217.6428893886
31
0.0000000000
0
SPLINE
5
3EF
100
AcDbEntity
8
0
100
AcDbSpline
62
9
6
CONTINUOUS
70
0
71
3
72
8
73
4
74
2
42
0.0000001000
43
0.0000001000
44
0.0000000001
12
0.0601051740
22
0.1156833235
32
0.0000000000
13
0.0601107378
23
0.1156804324
33
0.0000000000
40
0.0000000000
40
0.0000000000
40
0.0000000000
40
0.0000000000
40
1.0000000000
40
1.0000000000
40
1.0000000000
40
1.0000000000
10
326.3438037375
20
217.6428893886
30
0.0000000000
10
326.3638387955
20
217.6814504964
30
0.0000000000
10
326.3838744813
20
217.7200112781
30
0.0000000000
10
326.4039113939
20
217.7585714222
30
0.0000000000
11
326.3438037375
21
217.6428893886
31
0.0000000000
11
326.4039113939
21
217.7585714222
31
0.0000000000
0
SPLINE
5
3F0
100
AcDbEntity
8
0
100
AcDbSpline
62
9
6
CONTINUOUS
70
0
71
3
72
9
73
5
74
3
42
0.0000001000
43
0.0000001000
44
0.0000000001
12
0.1829993964
22
0.3521741720
32
0.0000000000
13
0.1829814199
23
0.3521835129
33
0.0000000000
40
0.0000000000
40
0.0000000000
40
0.0000000000
40
0.0000000000
40
0.1863102434
40
1.0000000000
40
1.0000000000
40
1.0000000000
40
1.0000000000
10
326.4039113939
20
217.7585714222
30
0.0000000000
10
326.4152762813
20
217.7804426408
30
0.0000000000
10
326.4762781985
20
217.8978329307
30
0.0000000000
10
326.5372946348
20
218.0152156760
30
0.0000000000
10
326.5869246705
20
218.1107383816
30
0.0000000000
11
326.4039113939
21
217.7585714222
31
0.0000000000
11
326.4380073493
21
217.8241844058
31
0.0000000000
11
326.5869246705
21
218.1107383816
31
0.0000000000
0
SPLINE
5
3F1
100
AcDbEntity
8
0
100
AcDbSpline
62
9
6
CONTINUOUS
70
0
71
3
72
11
73
7
74
5
42
0.0000001000
43
0.0000001000
44
0.0000000001
12
-0.4961081200
22
-0.0745904488
32
0.0000000000
13
-0.0763967424
23
0.4958331772
33
0.0000000000
40
0.0000000000
40
0.0000000000
40
0.0000000000
40
0.0000000000
40
0.3744083546
40
0.6915693173
40
0.9071254539
40
1.0000000000
40
1.0000000000
40
1.0000000000
40
1.0000000000
10
306.1839780611
20
174.8472693648
30
0.0000000000
10
306.1220623861
20
174.8379602691
30
0.0000000000
10
306.0090175467
20
174.8237874722
30
0.0000000000
10
305.8510084661
20
174.8152127206
30
0.0000000000
10
305.7594490896
20
174.8183826282
30
0.0000000000
10
305.6922306861
20
174.8319264088
30
0.0000000000
10
305.6898655818
20
174.8472765026
30
0.0000000000
11
306.1839780611
21
174.8472693648
31
0.0000000000
11
305.9974857954
21
174.8248522841
31
0.0000000000
11
305.8385653322
21
174.8169939913
31
0.0000000000
11
305.7307104116
21
174.8248561602
31
0.0000000000
11
305.6898655818
21
174.8472765026
31
0.0000000000
0
SPLINE
5
3F2
100
AcDbEntity
8
0
100
AcDbSpline
62
9
6
CONTINUOUS
70
0
71
3
72
10
73
6
74
4
42
0.0000001000
43
0.0000001000
44
0.0000000001
12
-1.1776904303
22
0.0702587798
32
0.0000000000
13
-1.1776871240
23
0.0703141787
33
0.0000000000
40
0.0000000000
40
0.0000000000
40
0.0000000000
40
0.0000000000
40
0.3524386440
40
0.6911918130
40
1.0000000000
40
1.0000000000
40
1.0000000000
40
1.0000000000
10
304.2151461154
20
197.5754511461
30
0.0000000000
10
304.0767915760
20
197.5837051158
30
0.0000000000
10
303.8054536154
20
197.5998707618
30
0.0000000000
10
303.4128881823
20
197.6232575265
30
0.0000000000
10
303.1586773646
20
197.6383916247
30
0.0000000000
10
303.0374508894
20
197.6456294894
30
0.0000000000
11
304.2151461154
21
197.5754511461
31
0.0000000000
11
303.8000811582
21
197.6001906032
31
0.0000000000
11
303.4011326496
21
197.6239550332
31
0.0000000000
11
303.0374508894
21
197.6456294894
31
0.0000000000
0
SPLINE
5
3F3
100
AcDbEntity
8
0
100
AcDbSpline
62
9
6
CONTINUOUS
70
0
71
3
72
10
73
6
74
4
42
0.0000001000
43
0.0000001000
44
0.0000000001
12
0.2549611178
22
0.4415170574
32
0.0000000000
13
0.5088555432
23
-0.0317571997
33
0.0000000000
40
0.0000000000
40
0.0000000000
40
0.0000000000
40
0.0000000000
40
0.3263596040
40
0.6587473939
40
1.0000000000
40
1.0000000000
40
1.0000000000
40
1.0000000000
10
326.1538886306
20
217.8885296354
30
0.0000000000
10
326.1816249671
20
217.9365607461
30
0.0000000000
10
326.2575376135
20
218.0233411708
30
0.0000000000
10
326.4123989277
20
218.1018207146
30
0.0000000000
10
326.5290419097
20
218.1143364483
30
0.0000000000
10
326.5869246698
20
218.1107240392
30
0.0000000000
11
326.1538886306
21
217.8885296354
31
0.0000000000
11
326.2632495161
21
218.0139362712
31
0.0000000000
11
326.4140261033
21
218.0913009492
31
0.0000000000
11
326.5869246698
21
218.1107240392
31
0.0000000000
0
SPLINE
5
3F4
100
AcDbEntity
8
0
100
AcDbSpline
62
9
6
CONTINUOUS
70
0
71
3
72
11
73
7
74
5
42
0.0000001000
43
0.0000001000
44
0.0000000001
12
0.2486300012
22
0.4785486660
32
0.0000000000
13
0.5392871241
23
-0.0001720518
33
0.0000000000
40
0.0000000000
40
0.0000000000
40
0.0000000000
40
0.0000000000
40
0.3018186416
40
0.5670739020
40
0.7965665454
40
1.0000000000
40
1.0000000000
40
1.0000000000
40
1.0000000000
10
326.5869246705
20
218.1107383816
30
0.0000000000
10
326.6119383936
20
218.1588833511
30
0.0000000000
10
326.6722711280
20
218.2432717607
30
0.0000000000
10
326.7871881038
20
218.3318599828
30
0.0000000000
10
326.9051167996
20
218.3788768810
30
0.0000000000
10
326.9832472182
20
218.3885278636
30
0.0000000000
10
327.0198168991
20
218.3885161965
30
0.0000000000
11
326.5869246705
21
218.1107383816
31
0.0000000000
11
326.6822450088
21
218.2426726567
31
0.0000000000
11
326.7958520073
21
218.3295981942
31
0.0000000000
11
326.9109249910
21
218.3751513381
31
0.0000000000
11
327.0198168991
21
218.3885161965
31
0.0000000000
0
SPLINE
5
3F5
100
AcDbEntity
8
0
100
AcDbSpline
62
9
6
CONTINUOUS
70
0
71
3
72
13
73
9
74
7
42
0.0000001000
43
0.0000001000
44
0.0000000001
12
0.4618620726
22
-0.8577905827
32
0.0000000000
13
-0.9347597922
23
-0.2744911449
33
0.0000000000
40
0.0000000000
40
0.0000000000
40
0.0000000000
40
0.0000000000
40
0.2116179332
40
0.4323299576
40
0.6428117982
40
0.8247480893
40
0.9531580172
40
1.0000000000
40
1.0000000000
40
1.0000000000
40
1.0000000000
10
308.1751892431
20
178.4329938797
30
0.0000000000
10
308.2077686755
20
178.3724859230
30
0.0000000000
10
308.2782341473
20
178.2514399996
30
0.0000000000
10
308.3854031890
20
178.0703126522
30
0.0000000000
10
308.4782819941
20
177.9007091867
30
0.0000000000
10
308.5727558903
20
177.7405478169
30
0.0000000000
10
308.5903257452
20
177.6584979021
30
0.0000000000
10
308.6494460424
20
177.5797700674
30
0.0000000000
10
308.6348507083
20
177.5754841642
30
0.0000000000
11
308.1751892431
21
178.4329938797
31
0.0000000000
11
308.2771381766
21
178.2538009526
31
0.0000000000
11
308.3853874651
21
178.0680123832
31
0.0000000000
11
308.4859827456
21
177.8893251315
31
0.0000000000
11
308.5683647286
21
177.7323859868
31
0.0000000000
11
308.6214499896
21
177.6191070414
31
0.0000000000
11
308.6348507083
21
177.5754841642
31
0.0000000000
0
SPLINE
5
3F6
100
AcDbEntity
8
0
100
AcDbSpline
62
9
6
CONTINUOUS
70
0
71
3
72
13
73
9
74
7
42
0.0000001000
43
0.0000001000
44
0.0000000001
12
-0.3781674987
22
-0.9298944657
32
0.0000000000
13
0.8698755587
23
0.5010298262
33
0.0000000000
40
0.0000000000
40
0.0000000000
40
0.0000000000
40
0.0000000000
40
0.2522593493
40
0.4784020971
40
0.6782977714
40
0.8438004278
40
0.9569180535
40
1.0000000000
40
1.0000000000
40
1.0000000000
40
1.0000000000
10
307.6039173609
20
178.2800027257
30
0.0000000000
10
307.5721185985
20
178.2018112015
30
0.0000000000
10
307.5376296156
20
178.0437807628
30
0.0000000000
10
307.5210532947
20
177.8160644567
30
0.0000000000
10
307.5311424537
20
177.6213443055
30
0.0000000000
10
307.5645427632
20
177.4538323098
30
0.0000000000
10
307.5822690082
20
177.3696876841
30
0.0000000000
10
307.6223533893
20
177.3004042386
30
0.0000000000
10
307.6348453668
20
177.3075993520
30
0.0000000000
11
307.6039173609
21
178.2800027257
31
0.0000000000
11
307.5420855153
21
178.0344370427
31
0.0000000000
11
307.5253926779
21
177.8080382598
31
0.0000000000
11
307.5374968994
21
177.6077384307
31
0.0000000000
11
307.5667542312
21
177.4441950320
31
0.0000000000
11
307.6026363597
21
177.3364602646
31
0.0000000000
11
307.6348453668
21
177.3075993520
31
0.0000000000
0
SPLINE
5
3F7
100
AcDbEntity
8
0
100
AcDbSpline
62
9
6
CONTINUOUS
70
0
71
3
72
10
73
6
74
4
42
0.0000001000
43
0.0000001000
44
0.0000000001
12
-0.5825927869
22
-0.1052282442
32
0.0000000000
13
-0.5572150711
23
-0.1999967581
33
0.0000000000
40
0.0000000000
40
0.0000000000
40
0.0000000000
40
0.0000000000
40
0.3329558285
40
0.6670403293
40
1.0000000000
40
1.0000000000
40
1.0000000000
40
1.0000000000
10
308.1752028316
20
178.4330092962
30
0.0000000000
10
308.1105436102
20
178.4213305105
30
0.0000000000
10
307.9816334225
20
178.3942951725
30
0.0000000000
10
307.7909275721
20
178.3432134248
30
0.0000000000
10
307.6657607431
20
178.3021996773
30
0.0000000000
10
307.6039173609
20
178.2800027257
30
0.0000000000
11
308.1752028316
21
178.4330092962
31
0.0000000000
11
307.9822755314
21
178.3925873055
31
0.0000000000
11
307.7912253831
21
178.3414151188
31
0.0000000000
11
307.6039173609
21
178.2800027257
31
0.0000000000
0
SPLINE
5
3F8
100
AcDbEntity
8
0
100
AcDbSpline
62
9
6
CONTINUOUS
70
0
71
3
72
10
73
6
74
4
42
0.0000001000
43
0.0000001000
44
0.0000000001
12
0.6182461103
22
-1.1392235453
32
0.0000000000
13
0.6121867112
23
-1.1424911246
33
0.0000000000
40
0.0000000000
40
0.0000000000
40
0.0000000000
40
0.0000000000
40
0.3533909545
40
0.6932867633
40
1.0000000000
40
1.0000000000
40
1.0000000000
40
1.0000000000
10
307.5629393666
20
179.5754511461
30
0.0000000000
10
307.6357668943
20
179.4412540474
30
0.0000000000
10
307.7763339697
20
179.1767400903
30
0.0000000000
10
307.9807311819
20
178.7960905767
30
0.0000000000
10
308.1126006539
20
178.5497995966
30
0.0000000000
10
308.1751892431
20
178.4329938797
30
0.0000000000
11
307.5629393666
21
179.5754511461
31
0.0000000000
11
307.7793660656
21
179.1717509172
31
0.0000000000
11
307.9874319238
21
178.7834155572
31
0.0000000000
11
308.1751892431
21
178.4329938797
31
0.0000000000
0
SPLINE
5
3F9
100
AcDbEntity
8
0
100
AcDbSpline
62
7
6
CONTINUOUS
70
0
71
3
72
12
73
8
74
6
42
0.0000001000
43
0.0000001000
44
0.0000000001
12
-0.4175537143
22
0.5699803152
32
0.0000000000
13
-0.6803519680
23
0.1884648853
33
0.0000000000
40
0.0000000000
40
0.0000000000
40
0.0000000000
40
0.0000000000
40
0.1655660699
40
0.3548125526
40
0.5535729551
40
0.7666917650
40
1.0000000000
40
1.0000000000
40
1.0000000000
40
1.0000000000
10
192.5523591657
20
103.8210969000
30
0.0000000000
10
192.5293149232
20
103.8525533669
30
0.0000000000
10
192.4751285677
20
103.9161407565
30
0.0000000000
10
192.3792864642
20
104.0046245682
30
0.0000000000
10
192.2647460404
20
104.0878851959
30
0.0000000000
10
192.1315740825
20
104.1613290513
30
0.0000000000
10
192.0328405800
20
104.1982112353
30
0.0000000000
10
191.9799300077
20
104.2128680385
30
0.0000000000
11
192.5523591657
21
103.8210969000
31
0.0000000000
11
192.4771677464
21
103.9104001932
31
0.0000000000
11
192.3793266867
21
104.0011347094
31
0.0000000000
11
192.2659602393
21
104.0835297720
31
0.0000000000
11
192.1342401018
21
104.1558547953
31
0.0000000000
11
191.9799300077
21
104.2128680385
31
0.0000000000
0
SPLINE
5
3FA
100
AcDbEntity
8
0
100
AcDbSpline
62
7
6
CONTINUOUS
70
0
71
3
72
9
73
5
74
3
42
0.0000001000
43
0.0000001000
44
0.0000000001
12
-0.2268354487
22
0.0628358833
32
0.0000000000
13
-0.2359475287
23
-0.0000565825
33
0.0000000000
40
0.0000000000
40
0.0000000000
40
0.0000000000
40
0.0000000000
40
0.7783102737
40
1.0000000000
40
1.0000000000
40
1.0000000000
40
1.0000000000
10
191.9799300077
20
104.2128680385
30
0.0000000000
10
191.9210805543
20
104.2291699764
30
0.0000000000
10
191.8433845925
20
104.2427747446
30
0.0000000000
10
191.7647379430
20
104.2452657144
30
0.0000000000
10
191.7473022287
20
104.2452615332
30
0.0000000000
11
191.9799300077
21
104.2128680385
31
0.0000000000
11
191.7995615286
21
104.2436150671
31
0.0000000000
11
191.7473022287
21
104.2452615332
31
0.0000000000
0
SPLINE
5
3FB
100
AcDbEntity
8
0
100
AcDbSpline
62
7
6
CONTINUOUS
70
0
71
3
72
9
73
5
74
3
42
0.0000001000
43
0.0000001000
44
0.0000000001
12
0.1865768982
22
-0.2548403977
32
0.0000000000
13
0.0000503273
23
-0.3145450403
33
0.0000000000
40
0.0000000000
40
0.0000000000
40
0.0000000000
40
0.0000000000
40
0.4550569417
40
1.0000000000
40
1.0000000000
40
1.0000000000
40
1.0000000000
10
192.5525583350
20
103.8211031655
30
0.0000000000
10
192.5808593726
20
103.7824475348
30
0.0000000000
10
192.6308651162
20
103.6885292872
30
0.0000000000
10
192.6491754116
20
103.5827977144
30
0.0000000000
10
192.6491845534
20
103.5256613356
30
0.0000000000
11
192.5525583350
21
103.8211031655
31
0.0000000000
11
192.6198069014
21
103.6945249679
31
0.0000000000
11
192.6491845534
21
103.5256613356
31
0.0000000000
0
SPLINE
5
3FC
100
AcDbEntity
8
0
100
AcDbSpline
62
7
6
CONTINUOUS
70
0
71
3
72
8
73
4
74
2
42
0.0000001000
43
0.0000001000
44
0.0000000001
12
0.0506869422
22
-0.0000136678
32
0.0000000000
13
0.0505659445
23
0.0030276430
33
0.0000000000
40
0.0000000000
40
0.0000000000
40
0.0000000000
40
0.0000000000
40
1.0000000000
40
1.0000000000
40
1.0000000000
40
1.0000000000
10
191.7473022291
20
114.5381119755
30
0.0000000000
10
191.7641978765
20
114.5381074195
30
0.0000000000
10
191.7810926578
20
114.5386114322
30
0.0000000000
10
191.7979479727
20
114.5396206466
30
0.0000000000
11
191.7473022291
21
114.5381119755
31
0.0000000000
11
191.7979479727
21
114.5396206466
31
0.0000000000
0
SPLINE
5
3FD
100
AcDbEntity
8
0
100
AcDbSpline
62
7
6
CONTINUOUS
70
0
71
3
72
8
73
4
74
2
42
0.0000001000
43
0.0000001000
44
0.0000000001
12
0.1829476480
22
0.0109540160
32
0.0000000000
13
0.1765927950
23
0.0480376019
33
0.0000000000
40
0.0000000000
40
0.0000000000
40
0.0000000000
40
0.0000000000
40
1.0000000000
40
1.0000000000
40
1.0000000000
40
1.0000000000
10
191.7979479727
20
114.5396206466
30
0.0000000000
10
191.8589305220
20
114.5432719852
30
0.0000000000
10
191.9193964569
20
114.5535363791
30
0.0000000000
10
191.9782607220
20
114.5695489131
30
0.0000000000
11
191.7979479727
21
114.5396206466
31
0.0000000000
11
191.9782607220
21
114.5695489131
31
0.0000000000
0
SPLINE
5
3FE
100
AcDbEntity
8
0
100
AcDbSpline
62
7
6
CONTINUOUS
70
0
71
3
72
12
73
8
74
6
42
0.0000001000
43
0.0000001000
44
0.0000000001
12
0.6833596003
22
0.1858906897
32
0.0000000000
13
0.4188200185
23
0.5716262366
33
0.0000000000
40
0.0000000000
40
0.0000000000
40
0.0000000000
40
0.0000000000
40
0.2320740518
40
0.4448594627
40
0.6438670432
40
0.8327403583
40
1.0000000000
40
1.0000000000
40
1.0000000000
40
1.0000000000
10
191.9782607220
20
114.5695489131
30
0.0000000000
10
192.0311240657
20
114.5839290483
30
0.0000000000
10
192.1299809212
20
114.6203805982
30
0.0000000000
10
192.2634636304
20
114.6936285882
30
0.0000000000
10
192.3782922945
20
114.7770792583
30
0.0000000000
10
192.4746205547
20
114.8661760008
30
0.0000000000
10
192.5291199033
20
114.9302630636
30
0.0000000000
10
192.5524704654
20
114.9621330634
30
0.0000000000
11
191.9782607220
21
114.5695489131
31
0.0000000000
11
192.1324625676
21
114.6258138704
31
0.0000000000
11
192.2645447567
21
114.6979632244
31
0.0000000000
11
192.3784276940
21
114.7806889606
31
0.0000000000
11
192.4763185686
21
114.8715939957
31
0.0000000000
11
192.5524704654
21
114.9621330634
31
0.0000000000
0
SPLINE
5
3FF
100
AcDbEntity
8
0
100
AcDbSpline
62
7
6
CONTINUOUS
70
0
71
3
72
8
73
4
74
2
42
0.0000001000
43
0.0000001000
44
0.0000000001
12
0.0000000000
22
-0.0937252259
32
0.0000000000
13
-0.0176703600
23
-0.0927071345
33
0.0000000000
40
0.0000000000
40
0.0000000000
40
0.0000000000
40
0.0000000000
40
1.0000000000
40
1.0000000000
40
1.0000000000
40
1.0000000000
10
192.6491848942
20
115.2577121433
30
0.0000000000
10
192.6491848942
20
115.2264704013
30
0.0000000000
10
192.6461866725
20
115.1950714896
30
0.0000000000
10
192.6402965525
20
115.1641691114
30
0.0000000000
11
192.6491848942
21
115.2577121433
31
0.0000000000
11
192.6402965525
21
115.1641691114
31
0.0000000000
0
SPLINE
5
400
100
AcDbEntity
8
0
100
AcDbSpline
62
7
6
CONTINUOUS
70
0
71
3
72
9
73
5
74
3
42
0.0000001000
43
0.0000001000
44
0.0000000001
12
-0.0415091302
22
-0.2177766903
32
0.0000000000
13
-0.1306305284
23
-0.1786434971
33
0.0000000000
40
0.0000000000
40
0.0000000000
40
0.0000000000
40
0.0000000000
40
0.4160903731
40
1.0000000000
40
1.0000000000
40
1.0000000000
40
1.0000000000
10
192.6402965525
20
115.1641691114
30
0.0000000000
10
192.6345393693
20
115.1339641833
30
0.0000000000
10
192.6140630067
20
115.0625120264
30
0.0000000000
10
192.5782020769
20
114.9973256784
30
0.0000000000
10
192.5527766025
20
114.9625551258
30
0.0000000000
11
192.6402965525
21
115.1641691114
31
0.0000000000
11
192.6148357861
21
115.0755878810
31
0.0000000000
11
192.5527766025
21
114.9625551258
31
0.0000000000
0
SPLINE
5
401
100
AcDbEntity
8
0
100
AcDbSpline
62
7
6
CONTINUOUS
70
0
71
3
72
12
73
8
74
6
42
0.0000001000
43
0.0000001000
44
0.0000000001
12
0.4175537143
22
-0.5699803152
32
0.0000000000
13
0.6803519680
23
-0.1884648853
33
0.0000000000
40
0.0000000000
40
0.0000000000
40
0.0000000000
40
0.0000000000
40
0.1655660699
40
0.3548125526
40
0.5535729551
40
0.7666917650
40
1.0000000000
40
1.0000000000
40
1.0000000000
40
1.0000000000
10
99.2264869881
20
114.9622765790
30
0.0000000000
10
99.2495312306
20
114.9308201121
30
0.0000000000
10
99.3037175862
20
114.8672327225
30
0.0000000000
10
99.3995596896
20
114.7787489108
30
0.0000000000
10
99.5141001134
20
114.6954882830
30
0.0000000000
10
99.6472720713
20
114.6220444277
30
0.0000000000
10
99.7460055738
20
114.5851622437
30
0.0000000000
10
99.7989161461
20
114.5705054404
30
0.0000000000
11
99.2264869881
21
114.9622765790
31
0.0000000000
11
99.3016784075
21
114.8729732858
31
0.0000000000
11
99.3995194672
21
114.7822387696
31
0.0000000000
11
99.5128859146
21
114.6998437070
31
0.0000000000
11
99.6446060521
21
114.6275186837
31
0.0000000000
11
99.7989161461
21
114.5705054404
31
0.0000000000
0
SPLINE
5
402
100
AcDbEntity
8
0
100
AcDbSpline
62
7
6
CONTINUOUS
70
0
71
3
72
9
73
5
74
3
42
0.0000001000
43
0.0000001000
44
0.0000000001
12
0.2268354487
22
-0.0628358833
32
0.0000000000
13
0.2359475287
23
0.0000565825
33
0.0000000000
40
0.0000000000
40
0.0000000000
40
0.0000000000
40
0.0000000000
40
0.7783102737
40
1.0000000000
40
1.0000000000
40
1.0000000000
40
1.0000000000
10
99.7989161461
20
114.5705054404
30
0.0000000000
10
99.8577655995
20
114.5542035026
30
0.0000000000
10
99.9354615614
20
114.5405987343
30
0.0000000000
10
100.0141082108
20
114.5381077645
30
0.0000000000
10
100.0315439252
20
114.5381119458
30
0.0000000000
11
99.7989161461
21
114.5705054404
31
0.0000000000
11
99.9792846252
21
114.5397584118
31
0.0000000000
11
100.0315439252
21
114.5381119458
31
0.0000000000
0
SPLINE
5
403
100
AcDbEntity
8
0
100
AcDbSpline
62
7
6
CONTINUOUS
70
0
71
3
72
9
73
5
74
3
42
0.0000001000
43
0.0000001000
44
0.0000000001
12
-0.1865768982
22
0.2548403977
32
0.0000000000
13
-0.0000503273
23
0.3145450403
33
0.0000000000
40
0.0000000000
40
0.0000000000
40
0.0000000000
40
0.0000000000
40
0.4550569417
40
1.0000000000
40
1.0000000000
40
1.0000000000
40
1.0000000000
10
99.2262878189
20
114.9622703135
30
0.0000000000
10
99.1979867813
20
115.0009259441
30
0.0000000000
10
99.1479810377
20
115.0948441918
30
0.0000000000
10
99.1296707423
20
115.2005757646
30
0.0000000000
10
99.1296616004
20
115.2577121433
30
0.0000000000
11
99.2262878189
21
114.9622703135
31
0.0000000000
11
99.1590392524
21
115.0888485110
31
0.0000000000
11
99.1296616004
21
115.2577121433
31
0.0000000000
0
SPLINE
5
404
100
AcDbEntity
8
0
100
AcDbSpline
62
7
6
CONTINUOUS
70
0
71
3
72
8
73
4
74
2
42
0.0000001000
43
0.0000001000
44
0.0000000001
12
-0.0506869422
22
0.0000136678
32
0.0000000000
13
-0.0505659445
23
-0.0030276430
33
0.0000000000
40
0.0000000000
40
0.0000000000
40
0.0000000000
40
0.0000000000
40
1.0000000000
40
1.0000000000
40
1.0000000000
40
1.0000000000
10
100.0315439248
20
104.2452615035
30
0.0000000000
10
100.0146482774
20
104.2452660594
30
0.0000000000
10
99.9977534960
20
104.2447620467
30
0.0000000000
10
99.9808981812
20
104.2437528324
30
0.0000000000
11
100.0315439248
21
104.2452615035
31
0.0000000000
11
99.9808981812
21
104.2437528324
31
0.0000000000
0
SPLINE
5
405
100
AcDbEntity
8
0
100
AcDbSpline
62
7
6
CONTINUOUS
70
0
71
3
72
8
73
4
74
2
42
0.0000001000
43
0.0000001000
44
0.0000000001
12
-0.1829476480
22
-0.0109540160
32
0.0000000000
13
-0.1765927950
23
-0.0480376019
33
0.0000000000
40
0.0000000000
40
0.0000000000
40
0.0000000000
40
0.0000000000
40
1.0000000000
40
1.0000000000
40
1.0000000000
40
1.0000000000
10
99.9808981812
20
104.2437528324
30
0.0000000000
10
99.9199156318
20
104.2401014937
30
0.0000000000
10
99.8594496969
20
104.2298370999
30
0.0000000000
10
99.8005854319
20
104.2138245659
30
0.0000000000
11
99.9808981812
21
104.2437528324
31
0.0000000000
11
99.8005854319
21
104.2138245659
31
0.0000000000
0
SPLINE
5
406
100
AcDbEntity
8
0
100
AcDbSpline
62
7
6
CONTINUOUS
70
0
71
3
72
12
73
8
74
6
42
0.0000001000
43
0.0000001000
44
0.0000000001
12
-0.6833596003
22
-0.1858906897
32
0.0000000000
13
-0.4188200185
23
-0.5716262366
33
0.0000000000
40
0.0000000000
40
0.0000000000
40
0.0000000000
40
0.0000000000
40
0.2320740518
40
0.4448594627
40
0.6438670432
40
0.8327403583
40
1.0000000000
40
1.0000000000
40
1.0000000000
40
1.0000000000
10
99.8005854319
20
104.2138245659
30
0.0000000000
10
99.7477220881
20
104.1994444307
30
0.0000000000
10
99.6488652326
20
104.1629928808
30
0.0000000000
10
99.5153825235
20
104.0897448908
30
0.0000000000
10
99.4005538594
20
104.0062942207
30
0.0000000000
10
99.3042255992
20
103.9171974781
30
0.0000000000
10
99.2497262505
20
103.8531104154
30
0.0000000000
10
99.2263756884
20
103.8212404156
30
0.0000000000
11
99.8005854319
21
104.2138245659
31
0.0000000000
11
99.6463835863
21
104.1575596086
31
0.0000000000
11
99.5143013972
21
104.0854102545
31
0.0000000000
11
99.4004184598
21
104.0026845183
31
0.0000000000
11
99.3025275852
21
103.9117794833
31
0.0000000000
11
99.2263756884
21
103.8212404156
31
0.0000000000
0
SPLINE
5
407
100
AcDbEntity
8
0
100
AcDbSpline
62
7
6
CONTINUOUS
70
0
71
3
72
8
73
4
74
2
42
0.0000001000
43
0.0000001000
44
0.0000000001
12
0.0000000000
22
0.0937252259
32
0.0000000000
13
0.0176703600
23
0.0927071345
33
0.0000000000
40
0.0000000000
40
0.0000000000
40
0.0000000000
40
0.0000000000
40
1.0000000000
40
1.0000000000
40
1.0000000000
40
1.0000000000
10
99.1296612597
20
103.5256613357
30
0.0000000000
10
99.1296612597
20
103.5569030777
30
0.0000000000
10
99.1326594813
20
103.5883019894
30
0.0000000000
10
99.1385496013
20
103.6192043676
30
0.0000000000
11
99.1296612597
21
103.5256613357
31
0.0000000000
11
99.1385496013
21
103.6192043676
31
0.0000000000
0
SPLINE
5
408
100
AcDbEntity
8
0
100
AcDbSpline
62
7
6
CONTINUOUS
70
0
71
3
72
9
73
5
74
3
42
0.0000001000
43
0.0000001000
44
0.0000000001
12
0.0415091302
22
0.2177766903
32
0.0000000000
13
0.1306305284
23
0.1786434971
33
0.0000000000
40
0.0000000000
40
0.0000000000
40
0.0000000000
40
0.0000000000
40
0.4160903731
40
1.0000000000
40
1.0000000000
40
1.0000000000
40
1.0000000000
10
99.1385496013
20
103.6192043676
30
0.0000000000
10
99.1443067845
20
103.6494092957
30
0.0000000000
10
99.1647831471
20
103.7208614526
30
0.0000000000
10
99.2006440769
20
103.7860478006
30
0.0000000000
10
99.2260695513
20
103.8208183531
30
0.0000000000
11
99.1385496013
21
103.6192043676
31
0.0000000000
11
99.1640103678
21
103.7077855979
31
0.0000000000
11
99.2260695513
21
103.8208183531
31
0.0000000000
0
SPLINE
5
409
100
AcDbEntity
8
0
100
AcDbSpline
62
9
6
CONTINUOUS
70
0
71
3
72
10
73
6
74
4
42
0.0000001000
43
0.0000001000
44
0.0000000001
12
0.4352046372
22
-0.0322749828
32
0.0000000000
13
0.2532250567
23
-0.3543544178
33
0.0000000000
40
0.0000000000
40
0.0000000000
40
0.0000000000
40
0.0000000000
40
0.4298731624
40
0.7967164284
40
1.0000000000
40
1.0000000000
40
1.0000000000
40
1.0000000000
10
192.1491848914
20
103.9586740376
30
0.0000000000
10
192.2115458227
20
103.9540493213
30
0.0000000000
10
192.3288679598
20
103.9497152627
30
0.0000000000
10
192.4657611837
20
103.8995072786
30
0.0000000000
10
192.5360350041
20
103.8458229143
30
0.0000000000
10
192.5531938354
20
103.8218114370
30
0.0000000000
11
192.1491848914
21
103.9586740376
31
0.0000000000
11
192.3357457581
21
103.9389888475
31
0.0000000000
11
192.4849333761
21
103.8809202407
31
0.0000000000
11
192.5531938354
21
103.8218114370
31
0.0000000000
0
SPLINE
5
40A
100
AcDbEntity
8
0
100
AcDbSpline
62
9
6
CONTINUOUS
70
0
71
3
72
11
73
7
74
5
42
0.0000001000
43
0.0000001000
44
0.0000000001
12
0.5819227399
22
-0.1879584696
32
0.0000000000
13
0.1633727364
23
-0.5892977265
33
0.0000000000
40
0.0000000000
40
0.0000000000
40
0.0000000000
40
0.0000000000
40
0.2381322957
40
0.4915305250
40
0.7494672121
40
1.0000000000
40
1.0000000000
40
1.0000000000
40
1.0000000000
10
192.1491848914
20
103.9586740376
30
0.0000000000
10
192.1953764241
20
103.9437543769
30
0.0000000000
10
192.2862670838
20
103.8982354509
30
0.0000000000
10
192.4029638977
20
103.7976196159
30
0.0000000000
10
192.4955630009
20
103.6713671311
30
0.0000000000
10
192.5366261325
20
103.5748741367
30
0.0000000000
10
192.5502695415
20
103.5256613359
30
0.0000000000
11
192.1491848914
21
103.9586740376
31
0.0000000000
11
192.2800746239
21
103.8948448625
31
0.0000000000
11
192.3979670852
21
103.7942777455
31
0.0000000000
11
192.4911264619
21
103.6669924276
31
0.0000000000
11
192.5502695415
21
103.5256613359
31
0.0000000000
0
SPLINE
5
40B
100
AcDbEntity
8
0
100
AcDbSpline
62
9
6
CONTINUOUS
70
0
71
3
72
11
73
7
74
5
42
0.0000001000
43
0.0000001000
44
0.0000000001
12
2.2863837808
22
0.4593965977
32
0.0000000000
13
1.8427883044
23
1.4292401100
33
0.0000000000
40
0.0000000000
40
0.0000000000
40
0.0000000000
40
0.0000000000
40
0.2645485255
40
0.5214915762
40
0.7676120245
40
1.0000000000
40
1.0000000000
40
1.0000000000
40
1.0000000000
10
190.0184430227
20
103.0562380314
30
0.0000000000
10
190.2200628420
20
103.0967489289
30
0.0000000000
10
190.6142583032
20
103.1942094209
30
0.0000000000
10
191.1777844698
20
103.3936022282
30
0.0000000000
10
191.6936014259
20
103.6430261686
30
0.0000000000
10
192.0059479479
20
103.8477924952
30
0.0000000000
10
192.1486952290
20
103.9585052338
30
0.0000000000
11
190.0184430227
21
103.0562380314
31
0.0000000000
11
190.6170855311
21
103.2054101007
31
0.0000000000
11
191.1814293433
21
103.4068318227
31
0.0000000000
11
191.6970791326
21
103.6589225703
31
0.0000000000
11
192.1486952290
21
103.9585052338
31
0.0000000000
0
SPLINE
5
40C
100
AcDbEntity
8
0
100
AcDbSpline
62
9
6
CONTINUOUS
70
0
71
3
72
10
73
6
74
4
42
0.0000001000
43
0.0000001000
44
0.0000000001
12
0.2922937443
22
-0.3636932979
32
0.0000000000
13
0.0823096329
23
-0.4592750507
33
0.0000000000
40
0.0000000000
40
0.0000000000
40
0.0000000000
40
0.0000000000
40
0.2733138716
40
0.6189292207
40
1.0000000000
40
1.0000000000
40
1.0000000000
40
1.0000000000
10
190.0184430238
20
103.0562380316
30
0.0000000000
10
190.0450723354
20
103.0231038905
30
0.0000000000
10
190.0922862889
20
102.9379769087
30
0.0000000000
10
190.1461004914
20
102.7918760226
30
0.0000000000
10
190.1723233068
20
102.6815640967
30
0.0000000000
10
190.1827785721
20
102.6232253296
30
0.0000000000
11
190.0184430238
21
103.0562380316
31
0.0000000000
11
190.0840590322
21
102.9468878448
31
0.0000000000
11
190.1412783035
21
102.7961190734
31
0.0000000000
11
190.1827785721
21
102.6232253296
31
0.0000000000
0
SPLINE
5
40D
100
AcDbEntity
8
0
100
AcDbSpline
62
9
6
CONTINUOUS
70
0
71
3
72
11
73
7
74
5
42
0.0000001000
43
0.0000001000
44
0.0000000001
12
2.5105062335
22
0.4539240222
32
0.0000000000
13
2.0919496902
23
1.4602859514
33
0.0000000000
40
0.0000000000
40
0.0000000000
40
0.0000000000
40
0.0000000000
40
0.2668129587
40
0.5250064799
40
0.7704995634
40
1.0000000000
40
1.0000000000
40
1.0000000000
40
1.0000000000
10
190.1827785722
20
102.6232253295
30
0.0000000000
10
190.4060571042
20
102.6635962666
30
0.0000000000
10
190.8424810068
20
102.7606225984
30
0.0000000000
10
191.4678619004
20
102.9594271821
30
0.0000000000
10
192.0407488270
20
103.2084258021
30
0.0000000000
10
192.3902350848
20
103.4139517179
30
0.0000000000
10
192.5502695405
20
103.5256638057
30
0.0000000000
11
190.1827785722
21
102.6232253295
31
0.0000000000
11
190.8469861183
21
102.7721426707
31
0.0000000000
11
191.4741612101
21
102.9735028734
31
0.0000000000
11
192.0474598973
21
103.2256671043
31
0.0000000000
11
192.5502695405
21
103.5256638057
31
0.0000000000
0
SPLINE
5
40E
100
AcDbEntity
8
0
100
AcDbSpline
62
9
6
CONTINUOUS
70
0
71
3
72
11
73
7
74
5
42
0.0000001000
43
0.0000001000
44
0.0000000001
12
1.6279905893
22
0.4875908057
32
0.0000000000
13
1.6723286607
23
0.3023491414
33
0.0000000000
40
0.0000000000
40
0.0000000000
40
0.0000000000
40
0.0000000000
40
0.2240787097
40
0.4690041579
40
0.7325527112
40
1.0000000000
40
1.0000000000
40
1.0000000000
40
1.0000000000
10
188.5401563968
20
102.1905539806
30
0.0000000000
10
188.6617557403
20
102.2269735535
30
0.0000000000
10
188.9162564705
20
102.3032324525
30
0.0000000000
10
189.3148346135
20
102.4188068213
30
0.0000000000
10
189.7397101394
20
102.5315766032
30
0.0000000000
10
190.0336919835
20
102.5962711768
30
0.0000000000
10
190.1827785722
20
102.6232253295
30
0.0000000000
11
188.5401563968
21
102.1905539806
31
0.0000000000
11
188.9050998639
21
102.2993259283
31
0.0000000000
11
189.3051125245
21
102.4144018840
31
0.0000000000
11
189.7383688802
21
102.5279359742
31
0.0000000000
11
190.1827785722
21
102.6232253295
31
0.0000000000
0
SPLINE
5
40F
100
AcDbEntity
8
0
100
AcDbSpline
62
9
6
CONTINUOUS
70
0
71
3
72
11
73
7
74
5
42
0.0000001000
43
0.0000001000
44
0.0000000001
12
1.4291578938
22
0.9507741338
32
0.0000000000
13
1.5926556368
23
0.6402435174
33
0.0000000000
40
0.0000000000
40
0.0000000000
40
0.0000000000
40
0.0000000000
40
0.2304693414
40
0.4791561209
40
0.7416891356
40
1.0000000000
40
1.0000000000
40
1.0000000000
40
1.0000000000
10
188.5393549007
20
102.1901903866
30
0.0000000000
10
188.6491472602
20
102.2632318161
30
0.0000000000
10
188.8771715870
20
102.4154380267
30
0.0000000000
10
189.2339987422
20
102.6452809613
30
0.0000000000
10
189.6131653310
20
102.8692980953
30
0.0000000000
10
189.8813096046
20
103.0011107459
30
0.0000000000
10
190.0184430227
20
103.0562380314
30
0.0000000000
11
188.5393549007
21
102.1901903866
31
0.0000000000
11
188.8690800582
21
102.4087905562
31
0.0000000000
11
189.2287435029
21
102.6387179213
31
0.0000000000
11
189.6181704729
21
102.8654941887
31
0.0000000000
11
190.0184430227
21
103.0562380314
31
0.0000000000
0
SPLINE
5
410
100
AcDbEntity
8
0
100
AcDbSpline
62
9
6
CONTINUOUS
70
0
71
3
72
12
73
8
74
6
42
0.0000001000
43
0.0000001000
44
0.0000000001
12
0.5742370869
22
0.2116759709
32
0.0000000000
13
0.1393649164
23
0.5959298354
33
0.0000000000
40
0.0000000000
40
0.0000000000
40
0.0000000000
40
0.0000000000
40
0.2277656580
40
0.4499590654
40
0.6461592470
40
0.8199526826
40
1.0000000000
40
1.0000000000
40
1.0000000000
40
1.0000000000
10
192.1491848920
20
114.8246994417
30
0.0000000000
10
192.1927820546
20
114.8407702806
30
0.0000000000
10
192.2764722614
20
114.8804273662
30
0.0000000000
10
192.3802016239
20
114.9636054536
30
0.0000000000
10
192.4574819161
20
115.0574312859
30
0.0000000000
10
192.5138376025
20
115.1546162456
30
0.0000000000
10
192.5419054483
20
115.2219469539
30
0.0000000000
10
192.5502695415
20
115.2577121433
30
0.0000000000
11
192.1491848920
21
114.8246994417
31
0.0000000000
11
192.2745729682
21
114.8855984599
31
0.0000000000
11
192.3808305899
21
114.9704575316
31
0.0000000000
11
192.4574884170
21
115.0628798625
31
0.0000000000
11
192.5112221190
21
115.1546720528
31
0.0000000000
11
192.5502695415
21
115.2577121433
31
0.0000000000
0
SPLINE
5
411
100
AcDbEntity
8
0
100
AcDbSpline
62
9
6
CONTINUOUS
70
0
71
3
72
11
73
7
74
5
42
0.0000001000
43
0.0000001000
44
0.0000000001
12
-2.0919497146
22
1.4602859150
32
0.0000000000
13
-2.5105063087
23
0.4539236017
33
0.0000000000
40
0.0000000000
40
0.0000000000
40
0.0000000000
40
0.0000000000
40
0.2295004361
40
0.4749935191
40
0.7331870412
40
1.0000000000
40
1.0000000000
40
1.0000000000
40
1.0000000000
10
192.5502695405
20
115.2577096766
30
0.0000000000
10
192.3902350833
20
115.3694217613
30
0.0000000000
10
192.0407488300
20
115.5749476838
30
0.0000000000
10
191.4678618917
20
115.8239462756
30
0.0000000000
10
190.8424810152
20
116.0227509053
30
0.0000000000
10
190.4060571110
20
116.1197772497
30
0.0000000000
10
190.1827785722
20
116.1601481495
30
0.0000000000
11
192.5502695405
21
115.2577096766
31
0.0000000000
11
192.0474598975
21
115.5577063754
31
0.0000000000
11
191.4741612075
21
115.8098705960
31
0.0000000000
11
190.8469861227
21
116.0112308282
31
0.0000000000
11
190.1827785722
21
116.1601481495
31
0.0000000000
0
SPLINE
5
412
100
AcDbEntity
8
0
100
AcDbSpline
62
9
6
CONTINUOUS
70
0
71
3
72
11
73
7
74
5
42
0.0000001000
43
0.0000001000
44
0.0000000001
12
-1.8428115972
22
1.4292580909
32
0.0000000000
13
-2.2864127003
23
0.4594020432
33
0.0000000000
40
0.0000000000
40
0.0000000000
40
0.0000000000
40
0.0000000000
40
0.2323976608
40
0.4785150075
40
0.7354548068
40
1.0000000000
40
1.0000000000
40
1.0000000000
40
1.0000000000
10
192.1487197538
20
114.8248519860
30
0.0000000000
10
192.0059647189
20
114.9355707317
30
0.0000000000
10
191.6936101290
20
115.1403427715
30
0.0000000000
10
191.1777845026
20
115.3897713045
30
0.0000000000
10
190.6142583004
20
115.5891640592
30
0.0000000000
10
190.2200628526
20
115.6866245801
30
0.0000000000
10
190.0184430227
20
115.7271354476
30
0.0000000000
11
192.1487197538
21
114.8248519860
31
0.0000000000
11
191.6970791328
21
115.1244509095
31
0.0000000000
11
191.1814293297
21
115.3765416496
31
0.0000000000
11
190.6170855484
21
115.5779633925
31
0.0000000000
11
190.0184430227
21
115.7271354476
31
0.0000000000
0
SPLINE
5
413
100
AcDbEntity
8
0
100
AcDbSpline
62
9
6
CONTINUOUS
70
0
71
3
72
11
73
7
74
5
42
0.0000001000
43
0.0000001000
44
0.0000000001
12
-1.5926180246
22
0.6403856298
32
0.0000000000
13
-1.4291116700
23
0.9508763126
33
0.0000000000
40
0.0000000000
40
0.0000000000
40
0.0000000000
40
0.0000000000
40
0.2490820014
40
0.5113434688
40
0.7647601827
40
1.0000000000
40
1.0000000000
40
1.0000000000
40
1.0000000000
10
190.0184430227
20
115.7271354476
30
0.0000000000
10
189.8862121944
20
115.7803049590
30
0.0000000000
10
189.6226627882
20
115.9090186826
30
0.0000000000
10
189.2453901188
20
116.1309352231
30
0.0000000000
10
188.8839666243
20
116.3634034227
30
0.0000000000
10
188.6514130648
20
116.5186220728
30
0.0000000000
10
188.5393517421
20
116.5931833962
30
0.0000000000
11
190.0184430227
21
115.7271354476
31
0.0000000000
11
189.6321350726
21
115.9103677261
31
0.0000000000
11
189.2426290590
21
116.1360894416
31
0.0000000000
11
188.8759282500
21
116.3700905158
31
0.0000000000
11
188.5393517421
21
116.5931833962
31
0.0000000000
0
SPLINE
5
414
100
AcDbEntity
8
0
100
AcDbSpline
62
9
6
CONTINUOUS
70
0
71
3
72
10
73
6
74
4
42
0.0000001000
43
0.0000001000
44
0.0000000001
12
0.2922725811
22
0.3637326116
32
0.0000000000
13
0.0823116450
23
0.4592923552
33
0.0000000000
40
0.0000000000
40
0.0000000000
40
0.0000000000
40
0.0000000000
40
0.2733187861
40
0.6189344245
40
1.0000000000
40
1.0000000000
40
1.0000000000
40
1.0000000000
10
190.0184430232
20
115.7271140376
30
0.0000000000
10
190.0450708856
20
115.7602523562
30
0.0000000000
10
190.0922826212
20
115.8453851241
30
0.0000000000
10
190.1460956814
20
115.9914926077
30
0.0000000000
10
190.1723185607
20
116.1018079804
30
0.0000000000
10
190.1827739388
20
116.1601481490
30
0.0000000000
11
190.0184430232
21
115.7271140376
31
0.0000000000
11
190.0840563201
21
115.8364740679
31
0.0000000000
11
190.1412740474
21
115.9872499974
31
0.0000000000
11
190.1827739388
21
116.1601481490
31
0.0000000000
0
SPLINE
5
415
100
AcDbEntity
8
0
100
AcDbSpline
62
9
6
CONTINUOUS
70
0
71
3
72
11
73
7
74
5
42
0.0000001000
43
0.0000001000
44
0.0000000001
12
-1.6734961457
22
0.3026328994
32
0.0000000000
13
-1.6291327857
23
0.4879573632
33
0.0000000000
40
0.0000000000
40
0.0000000000
40
0.0000000000
40
0.0000000000
40
0.2579602628
40
0.5212348307
40
0.7707103765
40
1.0000000000
40
1.0000000000
40
1.0000000000
40
1.0000000000
10
190.1827785722
20
116.1601481495
30
0.0000000000
10
190.0388800704
20
116.1861705702
30
0.0000000000
10
189.7500278753
20
116.2493411223
30
0.0000000000
10
189.3275769662
20
116.3609671627
30
0.0000000000
10
188.9235060681
20
116.4779635035
30
0.0000000000
10
188.6635252240
20
116.5558649306
30
0.0000000000
10
188.5390108097
20
116.5931594506
30
0.0000000000
11
190.1827785722
21
116.1601481495
31
0.0000000000
11
189.7537436336
21
116.2517152201
31
0.0000000000
11
189.3204987237
21
116.3647005519
31
0.0000000000
11
188.9127112234
21
116.4818019803
31
0.0000000000
11
188.5390108097
21
116.5931594506
31
0.0000000000
0
SPLINE
5
416
100
AcDbEntity
8
0
100
AcDbSpline
62
7
6
CONTINUOUS
70
0
71
3
72
10
73
6
74
4
42
0.0000001000
43
0.0000001000
44
0.0000000001
12
0.1737171215
22
-0.3903320679
32
0.0000000000
13
0.0007565986
23
-0.4281760280
33
0.0000000000
40
0.0000000000
40
0.0000000000
40
0.0000000000
40
0.0000000000
40
0.4089723593
40
0.8129000995
40
1.0000000000
40
1.0000000000
40
1.0000000000
40
1.0000000000
10
192.5502695405
20
116.3916867395
30
0.0000000000
10
192.5739513742
20
116.3384750639
30
0.0000000000
10
192.6148654174
20
116.2297595497
30
0.0000000000
10
192.6443230633
20
116.0897022691
30
0.0000000000
10
192.6491426967
20
116.0053374532
30
0.0000000000
10
192.6491898832
20
115.9786335558
30
0.0000000000
11
192.5502695405
21
116.3916867395
31
0.0000000000
11
192.6108245256
21
116.2277846384
31
0.0000000000
11
192.6448294536
21
116.0585926518
31
0.0000000000
11
192.6491898832
21
115.9786335558
31
0.0000000000
0
SPLINE
5
417
100
AcDbEntity
8
0
100
AcDbSpline
62
9
6
CONTINUOUS
70
0
71
3
72
10
73
6
74
4
42
0.0000001000
43
0.0000001000
44
0.0000000001
12
-0.4352046372
22
0.0322749828
32
0.0000000000
13
-0.2532250567
23
0.3543544178
33
0.0000000000
40
0.0000000000
40
0.0000000000
40
0.0000000000
40
0.0000000000
40
0.4298731624
40
0.7967164284
40
1.0000000000
40
1.0000000000
40
1.0000000000
40
1.0000000000
10
99.6296612624
20
114.8246994414
30
0.0000000000
10
99.5673003312
20
114.8293241577
30
0.0000000000
10
99.4499781941
20
114.8336582163
30
0.0000000000
10
99.3130849701
20
114.8838662004
30
0.0000000000
10
99.2428111498
20
114.9375505647
30
0.0000000000
10
99.2256523184
20
114.9615620419
30
0.0000000000
11
99.6296612624
21
114.8246994414
31
0.0000000000
11
99.4431003957
21
114.8443846315
31
0.0000000000
11
99.2939127778
21
114.9024532382
31
0.0000000000
11
99.2256523184
21
114.9615620419
31
0.0000000000
0
SPLINE
5
418
100
AcDbEntity
8
0
100
AcDbSpline
62
9
6
CONTINUOUS
70
0
71
3
72
11
73
7
74
5
42
0.0000001000
43
0.0000001000
44
0.0000000001
12
-0.5819227399
22
0.1879584696
32
0.0000000000
13
-0.1633727364
23
0.5892977265
33
0.0000000000
40
0.0000000000
40
0.0000000000
40
0.0000000000
40
0.0000000000
40
0.2381322957
40
0.4915305250
40
0.7494672121
40
1.0000000000
40
1.0000000000
40
1.0000000000
40
1.0000000000
10
99.6296612624
20
114.8246994414
30
0.0000000000
10
99.5834697298
20
114.8396191020
30
0.0000000000
10
99.4925790700
20
114.8851380281
30
0.0000000000
10
99.3758822561
20
114.9857538631
30
0.0000000000
10
99.2832831529
20
115.1120063478
30
0.0000000000
10
99.2422200214
20
115.2084993423
30
0.0000000000
10
99.2285766123
20
115.2577121430
30
0.0000000000
11
99.6296612624
21
114.8246994414
31
0.0000000000
11
99.4987715300
21
114.8885286164
31
0.0000000000
11
99.3808790687
21
114.9890957335
31
0.0000000000
11
99.2877196919
21
115.1163810514
31
0.0000000000
11
99.2285766123
21
115.2577121430
31
0.0000000000
0
SPLINE
5
419
100
AcDbEntity
8
0
100
AcDbSpline
62
9
6
CONTINUOUS
70
0
71
3
72
11
73
7
74
5
42
0.0000001000
43
0.0000001000
44
0.0000000001
12
-2.2863837811
22
-0.4593965965
32
0.0000000000
13
-1.8427883045
23
-1.4292401100
33
0.0000000000
40
0.0000000000
40
0.0000000000
40
0.0000000000
40
0.0000000000
40
0.2645485248
40
0.5214915753
40
0.7676120239
40
1.0000000000
40
1.0000000000
40
1.0000000000
40
1.0000000000
10
101.7604031311
20
115.7271354476
30
0.0000000000
10
101.5587833123
20
115.6866245503
30
0.0000000000
10
101.1645878519
20
115.5891640582
30
0.0000000000
10
100.6010616856
20
115.3897712515
30
0.0000000000
10
100.0852447290
20
115.1403473110
30
0.0000000000
10
99.7728982063
20
114.9355809840
30
0.0000000000
10
99.6301509248
20
114.8248682452
30
0.0000000000
11
101.7604031311
21
115.7271354476
31
0.0000000000
11
101.1617606242
21
115.5779633787
31
0.0000000000
11
100.5974168126
21
115.3765416571
31
0.0000000000
11
100.0817670224
21
115.1244509093
31
0.0000000000
11
99.6301509248
21
114.8248682452
31
0.0000000000
0
SPLINE
5
41A
100
AcDbEntity
8
0
100
AcDbSpline
62
9
6
CONTINUOUS
70
0
71
3
72
10
73
6
74
4
42
0.0000001000
43
0.0000001000
44
0.0000000001
12
-0.2922936850
22
0.3636933409
32
0.0000000000
13
-0.0823096844
23
0.4592750378
33
0.0000000000
40
0.0000000000
40
0.0000000000
40
0.0000000000
40
0.0000000000
40
0.2733136846
40
0.6189290111
40
1.0000000000
40
1.0000000000
40
1.0000000000
40
1.0000000000
10
101.7604031313
20
115.7271354476
30
0.0000000000
10
101.7337738433
20
115.7602695700
30
0.0000000000
10
101.6865599067
20
115.8453965203
30
0.0000000000
10
101.6327456930
20
115.9914974013
30
0.0000000000
10
101.6065228597
20
116.1018093518
30
0.0000000000
10
101.5960675821
20
116.1601481494
30
0.0000000000
11
101.7604031313
21
115.7271354476
31
0.0000000000
11
101.6947871715
21
115.8364855607
31
0.0000000000
11
101.6375678920
21
115.9872543164
31
0.0000000000
11
101.5960675821
21
116.1601481494
31
0.0000000000
0
SPLINE
5
41B
100
AcDbEntity
8
0
100
AcDbSpline
62
9
6
CONTINUOUS
70
0
71
3
72
11
73
7
74
5
42
0.0000001000
43
0.0000001000
44
0.0000000001
12
-2.5105062336
22
-0.4539240212
32
0.0000000000
13
-2.0919496902
23
-1.4602859514
33
0.0000000000
40
0.0000000000
40
0.0000000000
40
0.0000000000
40
0.0000000000
40
0.2668129585
40
0.5250064794
40
0.7704995632
40
1.0000000000
40
1.0000000000
40
1.0000000000
40
1.0000000000
10
101.5960675816
20
116.1601481495
30
0.0000000000
10
101.3727890498
20
116.1197772125
30
0.0000000000
10
100.9363651476
20
116.0227508806
30
0.0000000000
10
100.3109842542
20
115.8239462972
30
0.0000000000
10
99.7380973274
20
115.5749476772
30
0.0000000000
10
99.3886110692
20
115.3694217612
30
0.0000000000
10
99.2285766133
20
115.2577096733
30
0.0000000000
11
101.5960675816
21
116.1601481495
31
0.0000000000
11
100.9318600361
21
116.0112308084
31
0.0000000000
11
100.3046849448
21
115.8098706060
31
0.0000000000
11
99.7313862572
21
115.5577063750
31
0.0000000000
11
99.2285766133
21
115.2577096733
31
0.0000000000
0
SPLINE
5
41C
100
AcDbEntity
8
0
100
AcDbSpline
62
9
6
CONTINUOUS
70
0
71
3
72
11
73
7
74
5
42
0.0000001000
43
0.0000001000
44
0.0000000001
12
-1.6279864598
22
-0.4876222911
32
0.0000000000
13
-1.6723210370
23
-0.3024198428
33
0.0000000000
40
0.0000000000
40
0.0000000000
40
0.0000000000
40
0.0000000000
40
0.2289699571
40
0.4786293889
40
0.7419388395
40
1.0000000000
40
1.0000000000
40
1.0000000000
40
1.0000000000
10
103.2386904236
20
116.5928194919
30
0.0000000000
10
103.1144370936
20
116.5556025402
30
0.0000000000
10
102.8547124769
20
116.4777779604
30
0.0000000000
10
102.4509781012
20
116.3608868671
30
0.0000000000
10
102.0286464233
20
116.2493019371
30
0.0000000000
10
101.7399212841
20
116.1861624213
30
0.0000000000
10
101.5960675816
20
116.1601481495
30
0.0000000000
11
103.2386904236
21
116.5928194919
31
0.0000000000
11
102.8657730971
21
116.4816952771
31
0.0000000000
11
102.4579698567
21
116.3645958952
31
0.0000000000
11
102.0249696651
21
116.2516832430
31
0.0000000000
11
101.5960675816
21
116.1601481495
31
0.0000000000
0
SPLINE
5
41D
100
AcDbEntity
8
0
100
AcDbSpline
62
9
6
CONTINUOUS
70
0
71
3
72
11
73
7
74
5
42
0.0000001000
43
0.0000001000
44
0.0000000001
12
-1.4291208329
22
-0.9508580561
32
0.0000000000
13
-1.5926160126
23
-0.6403839740
33
0.0000000000
40
0.0000000000
40
0.0000000000
40
0.0000000000
40
0.0000000000
40
0.2354646367
40
0.4888872932
40
0.7509953089
40
1.0000000000
40
1.0000000000
40
1.0000000000
40
1.0000000000
10
103.2394912532
20
116.5931833273
30
0.0000000000
10
103.1273221139
20
116.5185521784
30
0.0000000000
10
102.8946610419
20
116.3632574972
30
0.0000000000
10
102.5331951886
20
116.1307742353
30
0.0000000000
10
102.1560251732
20
115.9089382932
30
0.0000000000
10
101.8925927506
20
115.7802883188
30
0.0000000000
10
101.7604031311
20
115.7271354476
30
0.0000000000
11
103.2394912532
21
116.5931833273
31
0.0000000000
11
102.9025929732
21
116.3698784537
31
0.0000000000
11
102.5358786009
21
116.1358808422
31
0.0000000000
11
102.1465933828
21
115.9103047638
31
0.0000000000
11
101.7604031311
21
115.7271354476
31
0.0000000000
0
SPLINE
5
41E
100
AcDbEntity
8
0
100
AcDbSpline
62
9
6
CONTINUOUS
70
0
71
3
72
12
73
8
74
6
42
0.0000001000
43
0.0000001000
44
0.0000000001
12
-0.5742370869
22
-0.2116759709
32
0.0000000000
13
-0.1393649164
23
-0.5959298354
33
0.0000000000
40
0.0000000000
40
0.0000000000
40
0.0000000000
40
0.0000000000
40
0.2277656580
40
0.4499590654
40
0.6461592470
40
0.8199526826
40
1.0000000000
40
1.0000000000
40
1.0000000000
40
1.0000000000
10
99.6296612619
20
103.9586740373
30
0.0000000000
10
99.5860640992
20
103.9426031984
30
0.0000000000
10
99.5023738924
20
103.9029461128
30
0.0000000000
10
99.3986445299
20
103.8197680254
30
0.0000000000
10
99.3213642378
20
103.7259421931
30
0.0000000000
10
99.2650085513
20
103.6287572333
30
0.0000000000
10
99.2369407055
20
103.5614265251
30
0.0000000000
10
99.2285766124
20
103.5256613357
30
0.0000000000
11
99.6296612619
21
103.9586740373
31
0.0000000000
11
99.5042731856
21
103.8977750191
31
0.0000000000
11
99.3980155639
21
103.8129159473
31
0.0000000000
11
99.3213577369
21
103.7204936165
31
0.0000000000
11
99.2676240349
21
103.6287014262
31
0.0000000000
11
99.2285766124
21
103.5256613357
31
0.0000000000
0
SPLINE
5
41F
100
AcDbEntity
8
0
100
AcDbSpline
62
9
6
CONTINUOUS
70
0
71
3
72
11
73
7
74
5
42
0.0000001000
43
0.0000001000
44
0.0000000001
12
2.0919497146
22
-1.4602859151
32
0.0000000000
13
2.5105063088
23
-0.4539236009
33
0.0000000000
40
0.0000000000
40
0.0000000000
40
0.0000000000
40
0.0000000000
40
0.2295004363
40
0.4749935195
40
0.7331870415
40
1.0000000000
40
1.0000000000
40
1.0000000000
40
1.0000000000
10
99.2285766133
20
103.5256638024
30
0.0000000000
10
99.3886110707
20
103.4139517175
30
0.0000000000
10
99.7380973244
20
103.2084257949
30
0.0000000000
10
100.3109842629
20
102.9594272030
30
0.0000000000
10
100.9363651392
20
102.7606225736
30
0.0000000000
10
101.3727890431
20
102.6635962291
30
0.0000000000
10
101.5960675816
20
102.6232253295
30
0.0000000000
11
99.2285766133
21
103.5256638024
31
0.0000000000
11
99.7313862570
21
103.2256671033
31
0.0000000000
11
100.3046849474
21
102.9735028825
31
0.0000000000
11
100.9318600318
21
102.7721426507
31
0.0000000000
11
101.5960675816
21
102.6232253295
31
0.0000000000
0
SPLINE
5
420
100
AcDbEntity
8
0
100
AcDbSpline
62
9
6
CONTINUOUS
70
0
71
3
72
11
73
7
74
5
42
0.0000001000
43
0.0000001000
44
0.0000000001
12
1.8428115973
22
-1.4292580909
32
0.0000000000
13
2.2864127004
23
-0.4594020429
33
0.0000000000
40
0.0000000000
40
0.0000000000
40
0.0000000000
40
0.0000000000
40
0.2323976614
40
0.4785150084
40
0.7354548074
40
1.0000000000
40
1.0000000000
40
1.0000000000
40
1.0000000000
10
99.6301264001
20
103.9585214929
30
0.0000000000
10
99.7728814353
20
103.8478027470
30
0.0000000000
10
100.0852360259
20
103.6430307068
30
0.0000000000
10
100.6010616528
20
103.3936021737
30
0.0000000000
10
101.1645878547
20
103.1942094195
30
0.0000000000
10
101.5587833018
20
103.0967488987
30
0.0000000000
10
101.7604031311
20
103.0562380314
30
0.0000000000
11
99.6301264001
21
103.9585214929
31
0.0000000000
11
100.0817670222
21
103.6589225688
31
0.0000000000
11
100.5974168261
21
103.4068318285
31
0.0000000000
11
101.1617606069
21
103.2054100860
31
0.0000000000
11
101.7604031311
21
103.0562380314
31
0.0000000000
0
SPLINE
5
421
100
AcDbEntity
8
0
100
AcDbSpline
62
9
6
CONTINUOUS
70
0
71
3
72
11
73
7
74
5
42
0.0000001000
43
0.0000001000
44
0.0000000001
12
1.5926580033
22
-0.6402442859
32
0.0000000000
13
1.4291504306
23
-0.9507898337
33
0.0000000000
40
0.0000000000
40
0.0000000000
40
0.0000000000
40
0.0000000000
40
0.2583855157
40
0.5210725102
40
0.7697430701
40
1.0000000000
40
1.0000000000
40
1.0000000000
40
1.0000000000
10
101.7604031311
20
103.0562380314
30
0.0000000000
10
101.8975763843
20
103.0010947481
30
0.0000000000
10
102.1658363883
20
102.8692185455
30
0.0000000000
10
102.5450997298
20
102.6451248863
30
0.0000000000
10
102.9018860345
20
102.4152965481
30
0.0000000000
10
103.1298038149
20
102.2631656335
30
0.0000000000
10
103.2394944118
20
102.1901903175
30
0.0000000000
11
101.7604031311
21
103.0562380314
31
0.0000000000
11
102.1607891979
21
102.8654330386
31
0.0000000000
11
102.5504377586
21
102.6385107659
31
0.0000000000
11
102.9100730630
21
102.4085899262
31
0.0000000000
11
103.2394944118
21
102.1901903175
31
0.0000000000
0
SPLINE
5
422
100
AcDbEntity
8
0
100
AcDbSpline
62
9
6
CONTINUOUS
70
0
71
3
72
10
73
6
74
4
42
0.0000001000
43
0.0000001000
44
0.0000000001
12
-0.2922709449
22
-0.3637359762
32
0.0000000000
13
-0.0823117430
23
-0.4592939609
33
0.0000000000
40
0.0000000000
40
0.0000000000
40
0.0000000000
40
0.0000000000
40
0.2733192004
40
0.6189348871
40
1.0000000000
40
1.0000000000
40
1.0000000000
40
1.0000000000
10
101.7604031292
20
103.0562613694
30
0.0000000000
10
101.7337753756
20
103.0231226940
30
0.0000000000
10
101.6865638067
20
102.9379894122
30
0.0000000000
10
101.6327508300
20
102.7918813301
30
0.0000000000
10
101.6065279503
20
102.6815656319
30
0.0000000000
10
101.5960725724
20
102.6232253302
30
0.0000000000
11
101.7604031292
21
103.0562613694
31
0.0000000000
11
101.6947900332
21
102.9469004839
31
0.0000000000
11
101.6375724188
21
102.7961238967
31
0.0000000000
11
101.5960725724
21
102.6232253302
31
0.0000000000
0
SPLINE
5
423
100
AcDbEntity
8
0
100
AcDbSpline
62
9
6
CONTINUOUS
70
0
71
3
72
11
73
7
74
5
42
0.0000001000
43
0.0000001000
44
0.0000000001
12
1.6735038069
22
-0.3025613288
32
0.0000000000
13
1.6291376121
23
-0.4879231395
33
0.0000000000
40
0.0000000000
40
0.0000000000
40
0.0000000000
40
0.0000000000
40
0.2673367682
40
0.5308509748
40
0.7755860253
40
1.0000000000
40
1.0000000000
40
1.0000000000
40
1.0000000000
10
101.5960675816
20
102.6232253295
30
0.0000000000
10
101.7451972814
20
102.5962634069
30
0.0000000000
10
102.0393048221
20
102.5315378452
30
0.0000000000
10
102.4642929301
20
102.4187289749
30
0.0000000000
10
102.8632093177
20
102.3030492238
30
0.0000000000
10
103.1179674597
20
102.2267128992
30
0.0000000000
10
103.2398345420
20
102.1902139755
30
0.0000000000
11
101.5960675816
21
102.6232253295
31
0.0000000000
11
102.0406050341
21
102.5279049912
31
0.0000000000
11
102.4741072433
21
102.4142979927
31
0.0000000000
11
102.8740881692
21
102.2992250090
31
0.0000000000
11
103.2398345420
21
102.1902139755
31
0.0000000000
0
SPLINE
5
424
100
AcDbEntity
8
0
100
AcDbSpline
62
7
6
CONTINUOUS
70
0
71
3
72
10
73
6
74
4
42
0.0000001000
43
0.0000001000
44
0.0000000001
12
-0.1737171215
22
0.3903320679
32
0.0000000000
13
-0.0007565986
23
0.4281760280
33
0.0000000000
40
0.0000000000
40
0.0000000000
40
0.0000000000
40
0.0000000000
40
0.4089723593
40
0.8129000995
40
1.0000000000
40
1.0000000000
40
1.0000000000
40
1.0000000000
10
99.2285766133
20
102.3916867395
30
0.0000000000
10
99.2048947796
20
102.4448984151
30
0.0000000000
10
99.1639807365
20
102.5536139293
30
0.0000000000
10
99.1345230906
20
102.6936712099
30
0.0000000000
10
99.1297034571
20
102.7780360257
30
0.0000000000
10
99.1296562706
20
102.8047399232
30
0.0000000000
11
99.2285766133
21
102.3916867395
31
0.0000000000
11
99.1680216282
21
102.5555888406
31
0.0000000000
11
99.1340167003
21
102.7247808271
31
0.0000000000
11
99.1296562706
21
102.8047399232
31
0.0000000000
0
SPLINE
5
425
100
AcDbEntity
8
0
100
AcDbSpline
62
7
6
CONTINUOUS
70
0
71
3
72
10
73
6
74
4
42
0.0000001000
43
0.0000001000
44
0.0000000001
12
0.0007565986
22
0.4281760280
32
0.0000000000
13
0.1737171215
23
0.3903320679
33
0.0000000000
40
0.0000000000
40
0.0000000000
40
0.0000000000
40
0.0000000000
40
0.1870999005
40
0.5910276407
40
1.0000000000
40
1.0000000000
40
1.0000000000
40
1.0000000000
10
99.1296562706
20
115.9786335558
30
0.0000000000
10
99.1297034571
20
116.0053374532
30
0.0000000000
10
99.1345230906
20
116.0897022691
30
0.0000000000
10
99.1639807365
20
116.2297595497
30
0.0000000000
10
99.2048947796
20
116.3384750639
30
0.0000000000
10
99.2285766133
20
116.3916867395
30
0.0000000000
11
99.1296562706
21
115.9786335558
31
0.0000000000
11
99.1340167003
21
116.0585926518
31
0.0000000000
11
99.1680216282
21
116.2277846384
31
0.0000000000
11
99.2285766133
21
116.3916867395
31
0.0000000000
0
SPLINE
5
426
100
AcDbEntity
8
0
100
AcDbSpline
62
9
6
CONTINUOUS
70
0
71
3
72
10
73
6
74
4
42
0.0000001000
43
0.0000001000
44
0.0000000001
12
0.2542987907
22
0.3534391430
32
0.0000000000
13
0.4356533915
23
-0.0078800656
33
0.0000000000
40
0.0000000000
40
0.0000000000
40
0.0000000000
40
0.0000000000
40
0.2018287896
40
0.5696066192
40
1.0000000000
40
1.0000000000
40
1.0000000000
40
1.0000000000
10
99.2260094695
20
103.8224162997
30
0.0000000000
10
99.2431177419
20
103.8461943645
30
0.0000000000
10
99.3133967414
20
103.8997561303
30
0.0000000000
10
99.4499646427
20
103.9476238582
30
0.0000000000
10
99.5671604832
20
103.9598045467
30
0.0000000000
10
99.6296612619
20
103.9586740373
30
0.0000000000
11
99.2260094695
21
103.8224162997
31
0.0000000000
11
99.2938646790
21
103.8808500022
31
0.0000000000
11
99.4431524917
21
103.9391009153
31
0.0000000000
11
99.6296612619
21
103.9586740373
31
0.0000000000
0
SPLINE
5
427
100
AcDbEntity
8
0
100
AcDbSpline
62
7
6
CONTINUOUS
70
0
71
3
72
12
73
8
74
6
42
0.0000001000
43
0.0000001000
44
0.0000000001
12
-0.0218200776
22
-1.0000000000
32
0.0000000000
13
-0.0218200776
23
-1.0000000000
33
0.0000000000
40
0.0000000000
40
0.0000000000
40
0.0000000000
40
0.0000000000
40
0.3089776046
40
0.5877340598
40
0.8089800211
40
0.9510437757
40
1.0000000000
40
1.0000000000
40
1.0000000000
40
1.0000000000
10
129.9112431545
20
92.6416867395
30
0.0000000000
10
129.9089958494
20
92.5386942046
30
0.0000000000
10
129.9047210485
20
92.3427828514
30
0.0000000000
10
129.8988370462
20
92.0731228443
30
0.0000000000
10
129.8941670683
20
91.8591007873
30
0.0000000000
10
129.8911685101
20
91.7216788072
30
0.0000000000
10
129.8897791531
20
91.6580054809
30
0.0000000000
10
129.8894230769
20
91.6416867395
30
0.0000000000
11
129.9112431545
21
92.6416867395
31
0.0000000000
11
129.9045012392
21
92.3327091349
31
0.0000000000
11
129.8984187517
21
92.0539526797
31
0.0000000000
11
129.8935911477
21
91.8327067184
31
0.0000000000
11
129.8904913055
21
91.6906429638
31
0.0000000000
11
129.8894230769
21
91.6416867395
31
0.0000000000
0
SPLINE
5
428
100
AcDbEntity
8
0
100
AcDbSpline
62
9
6
CONTINUOUS
70
0
71
3
72
12
73
8
74
6
42
0.0000001000
43
0.0000001000
44
0.0000000001
12
-1.5516427153
22
0.0000000105
32
0.0000000000
13
-0.0000000072
23
1.5516427153
33
0.0000000000
40
0.0000000000
40
0.0000000000
40
0.0000000000
40
0.0000000000
40
0.2015499777
40
0.4025102717
40
0.6025126217
40
0.8015533949
40
1.0000000000
40
1.0000000000
40
1.0000000000
40
1.0000000000
10
99.2394230769
20
98.6564247674
30
0.0000000000
10
99.1351785587
20
98.6564247681
30
0.0000000000
10
98.9255659957
20
98.6889387185
30
0.0000000000
10
98.6425961729
20
98.8306326841
30
0.0000000000
10
98.4174433172
20
99.0517436500
30
0.0000000000
10
98.2727244561
20
99.3304388175
30
0.0000000000
10
98.2394230774
20
99.5375126920
30
0.0000000000
10
98.2394230769
20
99.6401521017
30
0.0000000000
11
99.2394230769
21
98.6564247674
31
0.0000000000
11
98.9304174334
21
98.7045681837
31
0.0000000000
11
98.6516539597
21
98.8442884406
31
0.0000000000
11
98.4304188146
21
99.0619144464
31
0.0000000000
11
98.2883712997
21
99.3361492936
31
0.0000000000
11
98.2394230769
21
99.6401521017
31
0.0000000000
0
SPLINE
5
429
100
AcDbEntity
8
0
100
AcDbSpline
62
9
6
CONTINUOUS
70
0
71
3
72
12
73
8
74
6
42
0.0000001000
43
0.0000001000
44
0.0000000001
12
-1.5516427265
22
-0.0000000000
32
0.0000000000
13
0.0000000000
23
1.5516427265
33
0.0000000000
40
0.0000000000
40
0.0000000000
40
0.0000000000
40
0.0000000000
40
0.2015575643
40
0.4025228957
40
0.6025262600
40
0.8015630079
40
1.0000000000
40
1.0000000000
40
1.0000000000
40
1.0000000000
10
99.2394230769
20
100.4759258626
30
0.0000000000
10
99.1351746341
20
100.4759258626
30
0.0000000000
10
98.9255553795
20
100.5084420963
30
0.0000000000
10
98.6425811634
20
100.6501438581
30
0.0000000000
10
98.4174320982
20
100.8712603036
30
0.0000000000
10
98.2727216300
20
101.1499521514
30
0.0000000000
10
98.2394230769
20
101.3570187615
30
0.0000000000
10
98.2394230769
20
101.4596532000
30
0.0000000000
11
99.2394230769
21
100.4759258626
31
0.0000000000
11
98.9304060826
21
100.5240729054
31
0.0000000000
11
98.6516378247
21
100.6638010661
31
0.0000000000
11
98.4304060826
21
100.8814327786
31
0.0000000000
11
98.2883665606
21
101.1556647347
31
0.0000000000
11
98.2394230769
21
101.4596532000
31
0.0000000000
0
SPLINE
5
42A
100
AcDbEntity
8
0
100
AcDbSpline
62
9
6
CONTINUOUS
70
0
71
3
72
16
73
12
74
10
42
0.0000001000
43
0.0000001000
44
0.0000000001
12
-4.1559334123
22
0.0001328846
32
0.0000000000
13
-0.0031656170
23
-4.1559322087
33
0.0000000000
40
0.0000000000
40
0.0000000000
40
0.0000000000
40
0.0000000000
40
0.1159552194
40
0.2495487834
40
0.3924287072
40
0.5375513851
40
0.6762887999
40
0.7990174275
40
0.8959379917
40
0.9614224865
40
1.0000000000
40
1.0000000000
40
1.0000000000
40
1.0000000000
10
103.2276415242
20
101.2065895149
30
0.0000000000
10
103.0670074674
20
101.2065946511
30
0.0000000000
10
102.7212978322
20
101.2023089659
30
0.0000000000
10
102.1779425855
20
101.1831016659
30
0.0000000000
10
101.5950216266
20
101.1453764113
30
0.0000000000
10
101.0066180963
20
101.0866965053
30
0.0000000000
10
100.4490880363
20
101.0047037336
30
0.0000000000
10
99.9626320820
20
100.9039477128
30
0.0000000000
10
99.5854546182
20
100.7803964373
30
0.0000000000
10
99.3350822280
20
100.6608738486
30
0.0000000000
10
99.2394637841
20
100.5293677062
30
0.0000000000
10
99.2394230769
20
100.4759258626
30
0.0000000000
11
103.2276415242
21
101.2065895149
31
0.0000000000
11
102.7457729400
21
101.2009000731
31
0.0000000000
11
102.1909259115
21
101.1809393738
31
0.0000000000
11
101.5983932584
21
101.1421728806
31
0.0000000000
11
100.9983774062
21
101.0810587573
31
0.0000000000
11
100.4281586012
21
100.9956245811
31
0.0000000000
11
99.9299701098
21
100.8862569706
31
0.0000000000
11
99.5483283166
21
100.7574404925
31
0.0000000000
11
99.3150333110
21
100.6173026048
31
0.0000000000
11
99.2394230769
21
100.4759258626
31
0.0000000000
0
SPLINE
5
42B
100
AcDbEntity
8
0
100
AcDbSpline
62
9
6
CONTINUOUS
70
0
71
3
72
11
73
7
74
5
42
0.0000001000
43
0.0000001000
44
0.0000000001
12
-0.0000031306
22
-0.9837070430
32
0.0000000000
13
0.0164728355
23
-0.9835691089
33
0.0000000000
40
0.0000000000
40
0.0000000000
40
0.0000000000
40
0.0000000000
40
0.3462026797
40
0.6510281261
40
0.8780064796
40
1.0000000000
40
1.0000000000
40
1.0000000000
40
1.0000000000
10
103.2394944118
20
102.1901903175
30
0.0000000000
10
103.2394940505
20
102.0766696461
30
0.0000000000
10
103.2394887104
20
101.8631965272
30
0.0000000000
10
103.2395010159
20
101.5752941601
30
0.0000000000
10
103.2394604682
20
101.3609170885
30
0.0000000000
10
103.2395095344
20
101.2464816429
30
0.0000000000
10
103.2401793941
20
101.2064852902
30
0.0000000000
11
103.2394944118
21
102.1901903175
31
0.0000000000
11
103.2394924614
21
101.8496283032
31
0.0000000000
11
103.2394888220
21
101.5497693647
31
0.0000000000
11
103.2394838704
21
101.3264891598
31
0.0000000000
11
103.2401793941
21
101.2064852902
31
0.0000000000
0
SPLINE
5
42C
100
AcDbEntity
8
0
100
AcDbSpline
62
9
6
CONTINUOUS
70
0
71
3
72
17
73
13
74
11
42
0.0000001000
43
0.0000001000
44
0.0000000001
12
-5.1448275882
22
-0.0000107388
32
0.0000000000
13
-0.0022369267
23
-5.1448271019
33
0.0000000000
40
0.0000000000
40
0.0000000000
40
0.0000000000
40
0.0000000000
40
0.1073912793
40
0.2270546730
40
0.3552625779
40
0.4870891568
40
0.6164833245
40
0.7365224451
40
0.8396294840
40
0.9189669383
40
0.9710845601
40
1.0000000000
40
1.0000000000
40
1.0000000000
40
1.0000000000
10
103.2398345420
20
102.1902139755
30
0.0000000000
10
103.0556646699
20
102.1902135911
30
0.0000000000
10
102.6662720702
20
102.1870854653
30
0.0000000000
10
102.0571783480
20
102.1716340529
30
0.0000000000
10
101.4066414785
20
102.1420460273
30
0.0000000000
10
100.7403159042
20
102.0956736246
30
0.0000000000
10
100.0895794652
20
102.0313488210
30
0.0000000000
10
99.4903995571
20
101.9477274595
30
0.0000000000
10
98.9810751810
20
101.8510838699
30
0.0000000000
10
98.5927421440
20
101.7349565492
30
0.0000000000
10
98.3427859672
20
101.6306202103
30
0.0000000000
10
98.2394446375
20
101.5092415129
30
0.0000000000
10
98.2394230769
20
101.4596532000
30
0.0000000000
11
103.2398345420
21
102.1902139755
31
0.0000000000
11
102.6873429984
21
102.1857451620
31
0.0000000000
11
102.0718964193
21
102.1700165554
31
0.0000000000
11
101.4129846925
21
102.1397266634
31
0.0000000000
11
100.7364352608
21
102.0920816823
31
0.0000000000
11
100.0740954274
21
102.0251738390
31
0.0000000000
11
99.4626418501
21
101.9383965691
31
0.0000000000
11
98.9426974405
21
101.8332583528
31
0.0000000000
11
98.5523201089
21
101.7140340698
31
0.0000000000
11
98.3161195547
21
101.5871234375
31
0.0000000000
11
98.2394230769
21
101.4596532000
31
0.0000000000
0
SPLINE
5
42D
100
AcDbEntity
8
0
100
AcDbSpline
62
7
6
CONTINUOUS
70
0
71
3
72
12
73
8
74
6
42
0.0000001000
43
0.0000001000
44
0.0000000001
12
0.0218200776
22
-1.0000000000
32
0.0000000000
13
0.0218200776
23
-1.0000000000
33
0.0000000000
40
0.0000000000
40
0.0000000000
40
0.0000000000
40
0.0000000000
40
0.3089776046
40
0.5877340598
40
0.8089800211
40
0.9510437757
40
1.0000000000
40
1.0000000000
40
1.0000000000
40
1.0000000000
10
161.8676029993
20
92.6416867395
30
0.0000000000
10
161.8698503044
20
92.5386942046
30
0.0000000000
10
161.8741251053
20
92.3427828514
30
0.0000000000
10
161.8800091076
20
92.0731228443
30
0.0000000000
10
161.8846790855
20
91.8591007873
30
0.0000000000
10
161.8876776438
20
91.7216788072
30
0.0000000000
10
161.8890670007
20
91.6580054809
30
0.0000000000
10
161.8894230769
20
91.6416867395
30
0.0000000000
11
161.8676029993
21
92.6416867395
31
0.0000000000
11
161.8743449146
21
92.3327091349
31
0.0000000000
11
161.8804274021
21
92.0539526797
31
0.0000000000
11
161.8852550062
21
91.8327067184
31
0.0000000000
11
161.8883548483
21
91.6906429638
31
0.0000000000
11
161.8894230769
21
91.6416867395
31
0.0000000000
0
SPLINE
5
42E
100
AcDbEntity
8
0
100
AcDbSpline
62
7
6
CONTINUOUS
70
0
71
3
72
10
73
6
74
4
42
0.0000001000
43
0.0000001000
44
0.0000000001
12
-0.0007565986
22
-0.4281760280
32
0.0000000000
13
-0.1737171215
23
-0.3903320679
33
0.0000000000
40
0.0000000000
40
0.0000000000
40
0.0000000000
40
0.0000000000
40
0.1870999005
40
0.5910276407
40
1.0000000000
40
1.0000000000
40
1.0000000000
40
1.0000000000
10
192.6491898832
20
102.8047399232
30
0.0000000000
10
192.6491426967
20
102.7780360257
30
0.0000000000
10
192.6443230633
20
102.6936712099
30
0.0000000000
10
192.6148654174
20
102.5536139293
30
0.0000000000
10
192.5739513742
20
102.4448984151
30
0.0000000000
10
192.5502695405
20
102.3916867395
30
0.0000000000
11
192.6491898832
21
102.8047399232
31
0.0000000000
11
192.6448294536
21
102.7247808271
31
0.0000000000
11
192.6108245256
21
102.5555888406
31
0.0000000000
11
192.5502695405
21
102.3916867395
31
0.0000000000
0
SPLINE
5
42F
100
AcDbEntity
8
0
100
AcDbSpline
62
9
6
CONTINUOUS
70
0
71
3
72
12
73
8
74
6
42
0.0000001000
43
0.0000001000
44
0.0000000001
12
1.5516427264
22
0.0000000000
32
0.0000000000
13
0.0000000000
23
1.5516427264
33
0.0000000000
40
0.0000000000
40
0.0000000000
40
0.0000000000
40
0.0000000000
40
0.2015575643
40
0.4025228958
40
0.6025262601
40
0.8015630081
40
1.0000000000
40
1.0000000000
40
1.0000000000
40
1.0000000000
10
192.5394230769
20
98.6564247674
30
0.0000000000
10
192.6436715198
20
98.6564247674
30
0.0000000000
10
192.8532907744
20
98.6889410012
30
0.0000000000
10
193.1362649906
20
98.8306427631
30
0.0000000000
10
193.3614140557
20
99.0517592086
30
0.0000000000
10
193.5061245238
20
99.3304510564
30
0.0000000000
10
193.5394230769
20
99.5375176664
30
0.0000000000
10
193.5394230769
20
99.6401521048
30
0.0000000000
11
192.5394230769
21
98.6564247674
31
0.0000000000
11
192.8484400713
21
98.7045718103
31
0.0000000000
11
193.1272083292
21
98.8442999710
31
0.0000000000
11
193.3484400713
21
99.0619316836
31
0.0000000000
11
193.4904795932
21
99.3361636397
31
0.0000000000
11
193.5394230769
21
99.6401521048
31
0.0000000000
0
SPLINE
5
430
100
AcDbEntity
8
0
100
AcDbSpline
62
9
6
CONTINUOUS
70
0
71
3
72
11
73
7
74
5
42
0.0000001000
43
0.0000001000
44
0.0000000001
12
0.2011403017
22
0.9632427069
32
0.0000000000
13
-0.0000027656
23
0.9840192748
33
0.0000000000
40
0.0000000000
40
0.0000000000
40
0.0000000000
40
0.0000000000
40
0.1222450008
40
0.3491536356
40
0.6539029014
40
1.0000000000
40
1.0000000000
40
1.0000000000
40
1.0000000000
10
188.5306774659
20
101.2064852902
30
0.0000000000
10
188.5388735980
20
101.2457358253
30
0.0000000000
10
188.5397979403
20
101.3612592778
30
0.0000000000
10
188.5391601729
20
101.5750631812
30
0.0000000000
10
188.5394294734
20
101.8632651198
30
0.0000000000
10
188.5393552197
20
102.0766683146
30
0.0000000000
10
188.5393549007
20
102.1901903866
30
0.0000000000
11
188.5306774659
21
101.2064852902
31
0.0000000000
11
188.5393658035
21
101.3264625489
31
0.0000000000
11
188.5393602586
21
101.5497450191
31
0.0000000000
11
188.5393567285
21
101.8496241706
31
0.0000000000
11
188.5393549007
21
102.1901903866
31
0.0000000000
0
SPLINE
5
431
100
AcDbEntity
8
0
100
AcDbSpline
62
9
6
CONTINUOUS
70
0
71
3
72
16
73
12
74
10
42
0.0000001000
43
0.0000001000
44
0.0000000001
12
-0.0031585303
22
4.1625517371
32
0.0000000000
13
-4.1625526082
23
-0.0016505231
33
0.0000000000
40
0.0000000000
40
0.0000000000
40
0.0000000000
40
0.0000000000
40
0.0386069713
40
0.1042039621
40
0.2012995439
40
0.3242138968
40
0.4630932860
40
0.6082850269
40
0.7511363991
40
0.8845974043
40
1.0000000000
40
1.0000000000
40
1.0000000000
40
1.0000000000
10
192.5394230769
20
100.4759258626
30
0.0000000000
10
192.5393824298
20
100.5294937010
30
0.0000000000
10
192.4432944780
20
100.6613084786
30
0.0000000000
10
192.1920484432
20
100.7809445679
30
0.0000000000
10
191.8135518479
20
100.9046633495
30
0.0000000000
10
191.3255887315
20
101.0054505497
30
0.0000000000
10
190.7665864162
20
101.0873953544
30
0.0000000000
10
190.1769694603
20
101.1459426831
30
0.0000000000
10
189.5932324687
20
101.1834882907
30
0.0000000000
10
189.0499943316
20
101.2024781835
30
0.0000000000
10
188.7046835315
20
101.2066518247
30
0.0000000000
10
188.5445604063
20
101.2065883332
30
0.0000000000
11
192.5394230769
21
100.4759258626
31
0.0000000000
11
192.4635192776
21
100.6175741876
31
0.0000000000
11
192.2293228789
21
100.7579624574
31
0.0000000000
11
191.8462932469
21
100.8869510290
31
0.0000000000
11
191.3464950650
21
100.9963800439
31
0.0000000000
11
190.7747427388
21
101.0817649001
31
0.0000000000
11
190.1734588287
21
101.1427461287
31
0.0000000000
11
189.5800853347
21
101.1813265683
31
0.0000000000
11
189.0248982851
21
101.2010842033
31
0.0000000000
11
188.5445604063
21
101.2065883332
31
0.0000000000
0
SPLINE
5
432
100
AcDbEntity
8
0
100
AcDbSpline
62
9
6
CONTINUOUS
70
0
71
3
72
12
73
8
74
6
42
0.0000001000
43
0.0000001000
44
0.0000000001
12
1.5516427211
22
0.0000000228
32
0.0000000000
13
0.0000000000
23
1.5516427211
33
0.0000000000
40
0.0000000000
40
0.0000000000
40
0.0000000000
40
0.0000000000
40
0.2015559662
40
0.4025206774
40
0.6025242598
40
0.8015618385
40
1.0000000000
40
1.0000000000
40
1.0000000000
40
1.0000000000
10
192.5394230769
20
100.4759258626
30
0.0000000000
10
192.6436706929
20
100.4759258641
30
0.0000000000
10
192.8532887650
20
100.5084416535
30
0.0000000000
10
193.1362624379
20
100.6501420857
30
0.0000000000
10
193.3614124102
20
100.8712579410
30
0.0000000000
10
193.5061241517
20
101.1499504869
30
0.0000000000
10
193.5394230769
20
101.3570181567
30
0.0000000000
10
193.5394230769
20
101.4596531996
30
0.0000000000
11
192.5394230769
21
100.4759258626
31
0.0000000000
11
192.8484376791
21
100.5240721446
31
0.0000000000
11
193.1272054917
21
100.6637990437
31
0.0000000000
11
193.3484382019
21
100.8814302530
31
0.0000000000
11
193.4904790160
21
101.1556629905
31
0.0000000000
11
193.5394230769
21
101.4596531996
31
0.0000000000
0
SPLINE
5
433
100
AcDbEntity
8
0
100
AcDbSpline
62
9
6
CONTINUOUS
70
0
71
3
72
16
73
12
74
10
42
0.0000001000
43
0.0000001000
44
0.0000000001
12
-0.0022308047
22
5.1422501773
32
0.0000000000
13
-5.1422506612
23
-0.0000108170
33
0.0000000000
40
0.0000000000
40
0.0000000000
40
0.0000000000
40
0.0000000000
40
0.0331500813
40
0.0960759477
40
0.1921277260
40
0.3150125944
40
0.4545366089
40
0.6007985345
40
0.7449688918
40
0.8798557809
40
1.0000000000
40
1.0000000000
40
1.0000000000
40
1.0000000000
10
193.5394230769
20
101.4596532000
30
0.0000000000
10
193.5393984265
20
101.5164752038
30
0.0000000000
10
193.4047084679
20
101.6535471141
30
0.0000000000
10
193.1036050260
20
101.7633804930
30
0.0000000000
10
192.6316620878
20
101.8891709392
30
0.0000000000
10
192.0264017536
20
101.9882568419
30
0.0000000000
10
191.3300989425
20
102.0705408804
30
0.0000000000
10
190.5954403246
20
102.1290341972
30
0.0000000000
10
189.8672759438
20
102.1668145468
30
0.0000000000
10
189.1832443003
20
102.1860808089
30
0.0000000000
10
188.7460936268
20
102.1905544138
30
0.0000000000
10
188.5401563968
20
102.1905539806
30
0.0000000000
11
193.5394230769
21
101.4596532000
31
0.0000000000
11
193.4445608351
21
101.6012858995
31
0.0000000000
11
193.1528508581
21
101.7413204661
31
0.0000000000
11
192.6759954277
21
101.8700378210
31
0.0000000000
11
192.0536150538
21
101.9793371393
31
0.0000000000
11
191.3412481799
21
102.0647361265
31
0.0000000000
11
190.5916189986
21
102.1258408844
31
0.0000000000
11
189.8512736871
21
102.1646176761
31
0.0000000000
11
189.1579394026
21
102.1846006458
31
0.0000000000
11
188.5401563968
21
102.1905539806
31
0.0000000000
0
SPLINE
5
434
100
AcDbEntity
8
0
100
AcDbSpline
62
9
6
CONTINUOUS
70
0
71
3
72
10
73
6
74
4
42
0.0000001000
43
0.0000001000
44
0.0000000001
12
-0.2542987907
22
-0.3534391430
32
0.0000000000
13
-0.4356533915
23
0.0078800656
33
0.0000000000
40
0.0000000000
40
0.0000000000
40
0.0000000000
40
0.0000000000
40
0.2018287896
40
0.5696066192
40
1.0000000000
40
1.0000000000
40
1.0000000000
40
1.0000000000
10
192.5528366843
20
114.9609571793
30
0.0000000000
10
192.5357284120
20
114.9371791145
30
0.0000000000
10
192.4654494124
20
114.8836173487
30
0.0000000000
10
192.3288815112
20
114.8357496208
30
0.0000000000
10
192.2116856706
20
114.8235689323
30
0.0000000000
10
192.1491848920
20
114.8246994417
30
0.0000000000
11
192.5528366843
21
114.9609571793
31
0.0000000000
11
192.4849814749
21
114.9025234768
31
0.0000000000
11
192.3356936622
21
114.8442725636
31
0.0000000000
11
192.1491848920
21
114.8246994417
31
0.0000000000
0
SPLINE
5
435
100
AcDbEntity
8
0
100
AcDbSpline
62
9
6
CONTINUOUS
70
0
71
3
72
16
73
12
74
10
42
0.0000001000
43
0.0000001000
44
0.0000000001
12
0.0022308050
22
-5.1422508438
32
0.0000000000
13
5.1422513277
23
0.0000108046
33
0.0000000000
40
0.0000000000
40
0.0000000000
40
0.0000000000
40
0.0000000000
40
0.0331500770
40
0.0960759352
40
0.1921277011
40
0.3150125536
40
0.4545365500
40
0.6007984567
40
0.7449687952
40
0.8798556668
40
1.0000000000
40
1.0000000000
40
1.0000000000
40
1.0000000000
10
98.2394230769
20
117.3237202790
30
0.0000000000
10
98.2394477274
20
117.2668982752
30
0.0000000000
10
98.3741376860
20
117.1298263649
30
0.0000000000
10
98.6752411279
20
117.0199929860
30
0.0000000000
10
99.1471840660
20
116.8942025398
30
0.0000000000
10
99.7524444002
20
116.7951166371
30
0.0000000000
10
100.4487472114
20
116.7128325985
30
0.0000000000
10
101.1834058292
20
116.6543392818
30
0.0000000000
10
101.9115702100
20
116.6165589320
30
0.0000000000
10
102.5956020756
20
116.5972926645
30
0.0000000000
10
103.0327529713
20
116.5928190592
30
0.0000000000
10
103.2386904236
20
116.5928194919
30
0.0000000000
11
98.2394230769
21
117.3237202790
31
0.0000000000
11
98.3342853187
21
117.1820875795
31
0.0000000000
11
98.6259952957
21
117.0420530129
31
0.0000000000
11
99.1028507262
21
116.9133356580
31
0.0000000000
11
99.7252311001
21
116.8040363396
31
0.0000000000
11
100.4375979739
21
116.7186373525
31
0.0000000000
11
101.1872271553
21
116.6575325946
31
0.0000000000
11
101.9275724668
21
116.6187558028
31
0.0000000000
11
102.6209067512
21
116.5987728331
31
0.0000000000
11
103.2386904236
21
116.5928194919
31
0.0000000000
0
SPLINE
5
436
100
AcDbEntity
8
0
100
AcDbSpline
62
9
6
CONTINUOUS
70
0
71
3
72
12
73
8
74
6
42
0.0000001000
43
0.0000001000
44
0.0000000001
12
-1.5516427264
22
0.0000000000
32
0.0000000000
13
-0.0000000000
23
-1.5516427264
33
0.0000000000
40
0.0000000000
40
0.0000000000
40
0.0000000000
40
0.0000000000
40
0.2015575643
40
0.4025228958
40
0.6025262601
40
0.8015630081
40
1.0000000000
40
1.0000000000
40
1.0000000000
40
1.0000000000
10
99.2394230769
20
120.1269487116
30
0.0000000000
10
99.1351746341
20
120.1269487116
30
0.0000000000
10
98.9255553794
20
120.0944324778
30
0.0000000000
10
98.6425811633
20
119.9527307159
30
0.0000000000
10
98.4174320982
20
119.7316142704
30
0.0000000000
10
98.2727216300
20
119.4529224226
30
0.0000000000
10
98.2394230769
20
119.2458558125
30
0.0000000000
10
98.2394230769
20
119.1432213741
30
0.0000000000
11
99.2394230769
21
120.1269487116
31
0.0000000000
11
98.9304060825
21
120.0788016687
31
0.0000000000
11
98.6516378246
21
119.9390735080
31
0.0000000000
11
98.4304060825
21
119.7214417954
31
0.0000000000
11
98.2883665606
21
119.4472098392
31
0.0000000000
11
98.2394230769
21
119.1432213741
31
0.0000000000
0
SPLINE
5
437
100
AcDbEntity
8
0
100
AcDbSpline
62
9
6
CONTINUOUS
70
0
71
3
72
11
73
7
74
5
42
0.0000001000
43
0.0000001000
44
0.0000000001
12
-0.0055976341
22
-0.9836891658
32
0.0000000000
13
0.0000030285
23
-0.9837050922
33
0.0000000000
40
0.0000000000
40
0.0000000000
40
0.0000000000
40
0.0000000000
40
0.1219921008
40
0.3489708914
40
0.6537968253
40
1.0000000000
40
1.0000000000
40
1.0000000000
40
1.0000000000
10
103.2397164438
20
117.5768881888
30
0.0000000000
10
103.2394888214
20
117.5368874195
30
0.0000000000
10
103.2394735711
20
117.4224584888
30
0.0000000000
10
103.2394907195
20
117.2080779344
30
0.0000000000
10
103.2394882894
20
116.9201774240
30
0.0000000000
10
103.2394909037
20
116.7067039360
30
0.0000000000
10
103.2394912532
20
116.5931833273
30
0.0000000000
11
103.2397164438
21
117.5768881888
31
0.0000000000
11
103.2394811413
21
117.4568841687
31
0.0000000000
11
103.2394858685
21
117.2336039766
31
0.0000000000
11
103.2394893721
21
116.9337451533
31
0.0000000000
11
103.2394912532
21
116.5931833273
31
0.0000000000
0
SPLINE
5
438
100
AcDbEntity
8
0
100
AcDbSpline
62
9
6
CONTINUOUS
70
0
71
3
72
16
73
12
74
10
42
0.0000001000
43
0.0000001000
44
0.0000000001
12
0.0031529617
22
-4.1552131304
32
0.0000000000
13
4.1552143264
23
0.0000456049
33
0.0000000000
40
0.0000000000
40
0.0000000000
40
0.0000000000
40
0.0000000000
40
0.0385789256
40
0.1040622100
40
0.2009804730
40
0.3237082564
40
0.4624486475
40
0.6075790332
40
0.7504721185
40
0.8840841270
40
1.0000000000
40
1.0000000000
40
1.0000000000
40
1.0000000000
10
99.2394230769
20
118.3074476164
30
0.0000000000
10
99.2394636229
20
118.2540130637
30
0.0000000000
10
99.3350551995
20
118.1225247611
30
0.0000000000
10
99.5853768964
20
118.0030087971
30
0.0000000000
10
99.9624781285
20
117.8794672029
30
0.0000000000
10
100.4488468244
20
117.7787130251
30
0.0000000000
10
101.0062916398
20
117.6967174579
30
0.0000000000
10
101.5946248308
20
117.6380300511
30
0.0000000000
10
102.1774983992
20
117.6002939053
30
0.0000000000
10
102.7207485033
20
117.5810795463
30
0.0000000000
10
103.0663692185
20
117.5767828281
30
0.0000000000
10
103.2269209839
20
117.5767845902
30
0.0000000000
11
99.2394230769
21
118.3074476164
31
0.0000000000
11
99.3150163165
21
118.1660865900
31
0.0000000000
11
99.5482592327
21
118.0259632024
31
0.0000000000
11
99.9298207433
21
117.8971567004
31
0.0000000000
11
100.4279160744
21
117.7877926675
31
0.0000000000
11
100.9980460821
21
117.7023556602
31
0.0000000000
11
101.5979884511
21
117.6412338727
31
0.0000000000
11
102.1904722425
21
117.6024566088
31
0.0000000000
11
102.7452994115
21
117.5824841828
31
0.0000000000
11
103.2269209839
21
117.5767845902
31
0.0000000000
0
SPLINE
5
439
100
AcDbEntity
8
0
100
AcDbSpline
62
9
6
CONTINUOUS
70
0
71
3
72
12
73
8
74
6
42
0.0000001000
43
0.0000001000
44
0.0000000001
12
-1.5516427211
22
-0.0000000228
32
0.0000000000
13
-0.0000000000
23
-1.5516427211
33
0.0000000000
40
0.0000000000
40
0.0000000000
40
0.0000000000
40
0.0000000000
40
0.2015559662
40
0.4025206774
40
0.6025242598
40
0.8015618385
40
1.0000000000
40
1.0000000000
40
1.0000000000
40
1.0000000000
10
99.2394230769
20
118.3074476164
30
0.0000000000
10
99.1351754610
20
118.3074476149
30
0.0000000000
10
98.9255573889
20
118.2749318255
30
0.0000000000
10
98.6425837160
20
118.1332313933
30
0.0000000000
10
98.4174337436
20
117.9121155380
30
0.0000000000
10
98.2727220022
20
117.6334229921
30
0.0000000000
10
98.2394230769
20
117.4263553223
30
0.0000000000
10
98.2394230769
20
117.3237202794
30
0.0000000000
11
99.2394230769
21
118.3074476164
31
0.0000000000
11
98.9304084747
21
118.2593013344
31
0.0000000000
11
98.6516406621
21
118.1195744352
31
0.0000000000
11
98.4304079520
21
117.9019432259
31
0.0000000000
11
98.2883671379
21
117.6277104885
31
0.0000000000
11
98.2394230769
21
117.3237202794
31
0.0000000000
0
SPLINE
5
43A
100
AcDbEntity
8
0
100
AcDbSpline
62
9
6
CONTINUOUS
70
0
71
3
72
12
73
8
74
6
42
0.0000001000
43
0.0000001000
44
0.0000000001
12
1.5516427145
22
-0.0000000072
32
0.0000000000
13
0.0000000079
23
-1.5516427145
33
0.0000000000
40
0.0000000000
40
0.0000000000
40
0.0000000000
40
0.0000000000
40
0.2015496081
40
0.4025096627
40
0.6025119692
40
0.8015529382
40
1.0000000000
40
1.0000000000
40
1.0000000000
40
1.0000000000
10
192.5394230769
20
120.1269487116
30
0.0000000000
10
192.6436674039
20
120.1269487111
30
0.0000000000
10
192.8532796441
20
120.0944348718
30
0.0000000000
10
193.1362492580
20
119.9527412816
30
0.0000000000
10
193.3614022999
20
119.7316305751
30
0.0000000000
10
193.5061215631
20
119.4529352459
30
0.0000000000
10
193.5394230764
20
119.2458610239
30
0.0000000000
10
193.5394230769
20
119.1432213780
30
0.0000000000
11
192.5394230769
21
120.1269487116
31
0.0000000000
11
192.8484281674
21
120.0788054725
31
0.0000000000
11
193.1271914158
21
119.9390855951
31
0.0000000000
11
193.3484267300
21
119.7214598579
31
0.0000000000
11
193.4904746290
21
119.4472248675
31
0.0000000000
11
193.5394230769
21
119.1432213780
31
0.0000000000
0
SPLINE
5
43B
100
AcDbEntity
8
0
100
AcDbSpline
62
9
6
CONTINUOUS
70
0
71
3
72
12
73
8
74
6
42
0.0000001000
43
0.0000001000
44
0.0000000001
12
0.0260337383
22
0.2469721097
32
0.0000000000
13
0.2124043143
23
0.1291053742
33
0.0000000000
40
0.0000000000
40
0.0000000000
40
0.0000000000
40
0.0000000000
40
0.1784988168
40
0.3816019256
40
0.6112149391
40
0.8650083450
40
1.0000000000
40
1.0000000000
40
1.0000000000
40
1.0000000000
10
99.6301264001
20
103.9585214929
30
0.0000000000
10
99.6316753972
20
103.9732162360
30
0.0000000000
10
99.6391686404
20
104.0043969747
30
0.0000000000
10
99.6646586643
20
104.0486717586
30
0.0000000000
10
99.7018344871
20
104.0919809125
30
0.0000000000
10
99.7413497926
20
104.1248779809
30
0.0000000000
10
99.7682571327
20
104.1426280169
30
0.0000000000
10
99.7778147360
20
104.1484373996
30
0.0000000000
11
99.6301264001
21
103.9585214929
31
0.0000000000
11
99.6405280347
21
104.0016123250
31
0.0000000000
11
99.6647397753
21
104.0458599894
31
0.0000000000
11
99.7015881738
21
104.0893769595
31
0.0000000000
11
99.7498207700
21
104.1299483856
31
0.0000000000
11
99.7778147360
21
104.1484373996
31
0.0000000000
0
SPLINE
5
43C
100
AcDbEntity
8
0
100
AcDbSpline
62
9
6
CONTINUOUS
70
0
71
3
72
11
73
7
74
5
42
0.0000001000
43
0.0000001000
44
0.0000000001
12
0.2276980574
22
0.1384013456
32
0.0000000000
13
0.2662216983
23
0.0000346004
33
0.0000000000
40
0.0000000000
40
0.0000000000
40
0.0000000000
40
0.0000000000
40
0.1305031494
40
0.4041623705
40
0.6938050777
40
1.0000000000
40
1.0000000000
40
1.0000000000
40
1.0000000000
10
99.7778147360
20
104.1484373996
30
0.0000000000
10
99.7877198405
20
104.1544580034
30
0.0000000000
10
99.8191106315
20
104.1719271134
30
0.0000000000
10
99.8761790192
20
104.1956579059
30
0.0000000000
10
99.9513900956
20
104.2141750861
30
0.0000000000
10
100.0043720169
20
104.2184781272
30
0.0000000000
10
100.0315439276
20
104.2184816587
30
0.0000000000
11
99.7778147360
21
104.1484373996
31
0.0000000000
11
99.8081851036
21
104.1653594182
31
0.0000000000
11
99.8754287146
21
104.1933952077
31
0.0000000000
11
99.9502991426
21
104.2118409044
31
0.0000000000
11
100.0315439276
21
104.2184816587
31
0.0000000000
0
SPLINE
5
43D
100
AcDbEntity
8
0
100
AcDbSpline
62
9
6
CONTINUOUS
70
0
71
3
72
12
73
8
74
6
42
0.0000001000
43
0.0000001000
44
0.0000000001
12
1.5516427265
22
0.0000000000
32
0.0000000000
13
0.0000000000
23
-1.5516427265
33
0.0000000000
40
0.0000000000
40
0.0000000000
40
0.0000000000
40
0.0000000000
40
0.2015575643
40
0.4025228957
40
0.6025262600
40
0.8015630079
40
1.0000000000
40
1.0000000000
40
1.0000000000
40
1.0000000000
10
192.5394230769
20
118.3074476164
30
0.0000000000
10
192.6436715198
20
118.3074476164
30
0.0000000000
10
192.8532907744
20
118.2749313827
30
0.0000000000
10
193.1362649905
20
118.1332296208
30
0.0000000000
10
193.3614140556
20
117.9121131754
30
0.0000000000
10
193.5061245239
20
117.6334213276
30
0.0000000000
10
193.5394230769
20
117.4263547175
30
0.0000000000
10
193.5394230769
20
117.3237202790
30
0.0000000000
11
192.5394230769
21
118.3074476164
31
0.0000000000
11
192.8484400713
21
118.2593005735
31
0.0000000000
11
193.1272083292
21
118.1195724129
31
0.0000000000
11
193.3484400713
21
117.9019407004
31
0.0000000000
11
193.4904795932
21
117.6277087443
31
0.0000000000
11
193.5394230769
21
117.3237202790
31
0.0000000000
0
SPLINE
5
43E
100
AcDbEntity
8
0
100
AcDbSpline
62
9
6
CONTINUOUS
70
0
71
3
72
12
73
8
74
6
42
0.0000001000
43
0.0000001000
44
0.0000000001
12
0.0008763729
22
0.2479035546
32
0.0000000000
13
-0.2133609488
23
0.1266552322
33
0.0000000000
40
0.0000000000
40
0.0000000000
40
0.0000000000
40
0.0000000000
40
0.1761150545
40
0.3764679819
40
0.6059230084
40
0.8626148715
40
1.0000000000
40
1.0000000000
40
1.0000000000
40
1.0000000000
10
192.1486952290
20
103.9585052338
30
0.0000000000
10
192.1487466765
20
103.9730584165
30
0.0000000000
10
192.1437439898
20
104.0044669710
30
0.0000000000
10
192.1194468830
20
104.0489986305
30
0.0000000000
10
192.0823097414
20
104.0922532305
30
0.0000000000
10
192.0421982098
20
104.1249834960
30
0.0000000000
10
192.0147841140
20
104.1426535177
30
0.0000000000
10
192.0050132402
20
104.1484536995
30
0.0000000000
11
192.1486952290
21
103.9585052338
31
0.0000000000
11
192.1418571769
21
104.0016262380
31
0.0000000000
11
192.1193066252
21
104.0458804335
31
0.0000000000
11
192.0826749032
21
104.0893982556
31
0.0000000000
11
192.0336478249
21
104.1299665584
31
0.0000000000
11
192.0050132402
21
104.1484536995
31
0.0000000000
0
SPLINE
5
43F
100
AcDbEntity
8
0
100
AcDbSpline
62
9
6
CONTINUOUS
70
0
71
3
72
11
73
7
74
5
42
0.0000001000
43
0.0000001000
44
0.0000000001
12
-0.2323396719
22
0.1379213735
32
0.0000000000
13
-0.2699565702
23
0.0000350856
33
0.0000000000
40
0.0000000000
40
0.0000000000
40
0.0000000000
40
0.0000000000
40
0.1310666864
40
0.4061257497
40
0.6961752743
40
1.0000000000
40
1.0000000000
40
1.0000000000
40
1.0000000000
10
192.0050132402
20
104.1484536995
30
0.0000000000
10
191.9948625766
20
104.1544793319
30
0.0000000000
10
191.9626951104
20
104.1719464614
30
0.0000000000
10
191.9044446981
20
104.1956131275
30
0.0000000000
10
191.8281817516
20
104.2141094601
30
0.0000000000
10
191.7746420532
20
104.2184781054
30
0.0000000000
10
191.7473022262
20
104.2184816587
30
0.0000000000
11
192.0050132402
21
104.1484536995
31
0.0000000000
11
191.9739112042
21
104.1653721960
31
0.0000000000
11
191.9051508549
21
104.1934020225
31
0.0000000000
11
191.8290525909
21
104.2118428920
31
0.0000000000
11
191.7473022262
21
104.2184816587
31
0.0000000000
0
SPLINE
5
440
100
AcDbEntity
8
0
100
AcDbSpline
62
9
6
CONTINUOUS
70
0
71
3
72
16
73
12
74
10
42
0.0000001000
43
0.0000001000
44
0.0000000001
12
4.1668770143
22
0.0001098827
32
0.0000000000
13
0.0031739528
23
4.1668758069
33
0.0000000000
40
0.0000000000
40
0.0000000000
40
0.0000000000
40
0.0000000000
40
0.1185901396
40
0.2518199328
40
0.3942927530
40
0.5389863187
40
0.6773014159
40
0.7996468818
40
0.8962603579
40
0.9615382987
40
1.0000000000
40
1.0000000000
40
1.0000000000
40
1.0000000000
10
188.5402649724
20
117.5767134654
30
0.0000000000
10
188.7049818146
20
117.5767178090
30
0.0000000000
10
189.0547580867
20
117.5809355207
30
0.0000000000
10
189.6021308131
20
117.6003383905
30
0.0000000000
10
190.1849207654
20
117.6380866416
30
0.0000000000
10
190.7731299622
20
117.6967892535
30
0.0000000000
10
191.3304244716
20
117.7787892293
30
0.0000000000
10
191.8166394374
20
117.8795402866
30
0.0000000000
10
192.1936061059
20
118.0030647235
30
0.0000000000
10
192.4438388477
20
118.1225691155
30
0.0000000000
10
192.5393823850
20
118.2540259055
30
0.0000000000
10
192.5394230769
20
118.3074476164
30
0.0000000000
11
188.5402649724
21
117.5767134654
31
0.0000000000
11
189.0343815806
21
117.5825031672
31
0.0000000000
11
189.5891736115
21
117.6024963330
31
0.0000000000
11
190.1815713063
21
117.6412925393
31
0.0000000000
11
190.7813840724
21
117.7024278453
31
0.0000000000
11
191.3513575513
21
117.7878698345
31
0.0000000000
11
191.8492886809
21
117.8972275534
31
0.0000000000
11
192.2307087028
21
118.0260164641
31
0.0000000000
11
192.4638597272
21
118.1661142947
31
0.0000000000
11
192.5394230769
21
118.3074476164
31
0.0000000000
0
SPLINE
5
441
100
AcDbEntity
8
0
100
AcDbSpline
62
9
6
CONTINUOUS
70
0
71
3
72
11
73
7
74
5
42
0.0000001000
43
0.0000001000
44
0.0000000001
12
0.0000031704
22
0.9837062125
32
0.0000000000
13
0.0137553332
23
0.9836100362
33
0.0000000000
40
0.0000000000
40
0.0000000000
40
0.0000000000
40
0.0000000000
40
0.3462027284
40
0.6510283927
40
0.8780069331
40
1.0000000000
40
1.0000000000
40
1.0000000000
40
1.0000000000
10
188.5393517421
20
116.5931833962
30
0.0000000000
10
188.5393521080
20
116.7067039878
30
0.0000000000
10
188.5393500176
20
116.9201771770
30
0.0000000000
10
188.5393653965
20
117.2080788421
30
0.0000000000
10
188.5393415843
20
117.4224571291
30
0.0000000000
10
188.5393865612
20
117.5368903205
30
0.0000000000
10
188.5399459129
20
117.5768881888
30
0.0000000000
11
188.5393517421
21
116.5931833962
31
0.0000000000
11
188.5393537005
21
116.9337451709
31
0.0000000000
11
188.5393573359
21
117.2336040706
31
0.0000000000
11
188.5393621649
21
117.4568842708
31
0.0000000000
11
188.5399459129
21
117.5768881888
31
0.0000000000
0
SPLINE
5
442
100
AcDbEntity
8
0
100
AcDbSpline
62
9
6
CONTINUOUS
70
0
71
3
72
17
73
13
74
11
42
0.0000001000
43
0.0000001000
44
0.0000000001
12
5.1448284061
22
0.0000107539
32
0.0000000000
13
0.0022369271
23
5.1448279198
33
0.0000000000
40
0.0000000000
40
0.0000000000
40
0.0000000000
40
0.0000000000
40
0.1073926777
40
0.2270560282
40
0.3552638113
40
0.4870902133
40
0.6164841619
40
0.7365230437
40
0.8396298491
40
0.9189671113
40
0.9710846102
40
1.0000000000
40
1.0000000000
40
1.0000000000
40
1.0000000000
10
188.5390108097
20
116.5931594506
30
0.0000000000
10
188.7231831092
20
116.5931598356
30
0.0000000000
10
189.1125780945
20
116.5962880852
30
0.0000000000
10
189.7216740253
20
116.6117396400
30
0.0000000000
10
190.3722104065
20
116.6413277851
30
0.0000000000
10
191.0385351908
20
116.6877002728
30
0.0000000000
10
191.6892706356
20
116.7520251303
30
0.0000000000
10
192.2884494410
20
116.8356464941
30
0.0000000000
10
192.7977727558
20
116.9322900461
30
0.0000000000
10
193.1861048908
20
117.0484172521
30
0.0000000000
10
193.4360605109
20
117.1527535248
30
0.0000000000
10
193.5394015164
20
117.2741320441
30
0.0000000000
10
193.5394230769
20
117.3237202790
30
0.0000000000
11
188.5390108097
21
116.5931594506
31
0.0000000000
11
189.0915096347
21
116.5976284222
31
0.0000000000
11
189.7069560859
21
116.6133571465
31
0.0000000000
11
190.3658672855
21
116.6436471494
31
0.0000000000
11
191.0424159066
21
116.6912922202
31
0.0000000000
11
191.7047547081
21
116.7582001158
31
0.0000000000
11
192.3162071432
21
116.8449773881
31
0.0000000000
11
192.8361504252
21
116.9501155466
31
0.0000000000
11
193.2265268259
21
117.0693397164
31
0.0000000000
11
193.4627267907
21
117.1962501994
31
0.0000000000
11
193.5394230769
21
117.3237202790
31
0.0000000000
0
SPLINE
5
443
100
AcDbEntity
8
0
100
AcDbSpline
62
9
6
CONTINUOUS
70
0
71
3
72
12
73
8
74
6
42
0.0000001000
43
0.0000001000
44
0.0000000001
12
-0.0008763729
22
-0.2479035546
32
0.0000000000
13
0.2133609488
23
-0.1266552322
33
0.0000000000
40
0.0000000000
40
0.0000000000
40
0.0000000000
40
0.0000000000
40
0.1761150545
40
0.3764679820
40
0.6059230085
40
0.8626148715
40
1.0000000000
40
1.0000000000
40
1.0000000000
40
1.0000000000
10
99.6301509248
20
114.8248682452
30
0.0000000000
10
99.6300994773
20
114.8103150625
30
0.0000000000
10
99.6351021641
20
114.7789065080
30
0.0000000000
10
99.6593992708
20
114.7343748485
30
0.0000000000
10
99.6965364125
20
114.6911202484
30
0.0000000000
10
99.7366479440
20
114.6583899830
30
0.0000000000
10
99.7640620398
20
114.6407199613
30
0.0000000000
10
99.7738329136
20
114.6349197795
30
0.0000000000
11
99.6301509248
21
114.8248682452
31
0.0000000000
11
99.6369889769
21
114.7817472410
31
0.0000000000
11
99.6595395287
21
114.7374930455
31
0.0000000000
11
99.6961712506
21
114.6939752234
31
0.0000000000
11
99.7451983289
21
114.6534069206
31
0.0000000000
11
99.7738329136
21
114.6349197795
31
0.0000000000
0
SPLINE
5
444
100
AcDbEntity
8
0
100
AcDbSpline
62
9
6
CONTINUOUS
70
0
71
3
72
11
73
7
74
5
42
0.0000001000
43
0.0000001000
44
0.0000000001
12
0.2323396719
22
-0.1379213735
32
0.0000000000
13
0.2699565702
23
-0.0000350856
33
0.0000000000
40
0.0000000000
40
0.0000000000
40
0.0000000000
40
0.0000000000
40
0.1310666864
40
0.4061257497
40
0.6961752743
40
1.0000000000
40
1.0000000000
40
1.0000000000
40
1.0000000000
10
99.7738329136
20
114.6349197795
30
0.0000000000
10
99.7839835772
20
114.6288941470
30
0.0000000000
10
99.8161510434
20
114.6114270175
30
0.0000000000
10
99.8744014557
20
114.5877603514
30
0.0000000000
10
99.9506644022
20
114.5692640188
30
0.0000000000
10
100.0042041007
20
114.5648953735
30
0.0000000000
10
100.0315439277
20
114.5648918202
30
0.0000000000
11
99.7738329136
21
114.6349197795
31
0.0000000000
11
99.8049349497
21
114.6180012830
31
0.0000000000
11
99.8736952990
21
114.5899714565
31
0.0000000000
11
99.9497935629
21
114.5715305870
31
0.0000000000
11
100.0315439277
21
114.5648918202
31
0.0000000000
0
SPLINE
5
445
100
AcDbEntity
8
0
100
AcDbSpline
62
9
6
CONTINUOUS
70
0
71
3
72
12
73
8
74
6
42
0.0000001000
43
0.0000001000
44
0.0000000001
12
-0.0260337383
22
-0.2469721097
32
0.0000000000
13
-0.2124043143
23
-0.1291053742
33
0.0000000000
40
0.0000000000
40
0.0000000000
40
0.0000000000
40
0.0000000000
40
0.1784988167
40
0.3816019256
40
0.6112149391
40
0.8650083450
40
1.0000000000
40
1.0000000000
40
1.0000000000
40
1.0000000000
10
192.1487197538
20
114.8248519860
30
0.0000000000
10
192.1471707566
20
114.8101572429
30
0.0000000000
10
192.1396775135
20
114.7789765043
30
0.0000000000
10
192.1141874896
20
114.7347017204
30
0.0000000000
10
192.0770116667
20
114.6913925665
30
0.0000000000
10
192.0374963612
20
114.6584954981
30
0.0000000000
10
192.0105890212
20
114.6407454621
30
0.0000000000
10
192.0010314178
20
114.6349360794
30
0.0000000000
11
192.1487197538
21
114.8248519860
31
0.0000000000
11
192.1383181191
21
114.7817611540
31
0.0000000000
11
192.1141063785
21
114.7375134896
31
0.0000000000
11
192.0772579800
21
114.6939965195
31
0.0000000000
11
192.0290253839
21
114.6534250933
31
0.0000000000
11
192.0010314178
21
114.6349360794
31
0.0000000000
0
SPLINE
5
446
100
AcDbEntity
8
0
100
AcDbSpline
62
9
6
CONTINUOUS
70
0
71
3
72
11
73
7
74
5
42
0.0000001000
43
0.0000001000
44
0.0000000001
12
-0.2276980574
22
-0.1384013456
32
0.0000000000
13
-0.2662216983
23
-0.0000346004
33
0.0000000000
40
0.0000000000
40
0.0000000000
40
0.0000000000
40
0.0000000000
40
0.1305031494
40
0.4041623705
40
0.6938050777
40
1.0000000000
40
1.0000000000
40
1.0000000000
40
1.0000000000
10
192.0010314178
20
114.6349360794
30
0.0000000000
10
191.9911263133
20
114.6289154756
30
0.0000000000
10
191.9597355224
20
114.6114463656
30
0.0000000000
10
191.9026671347
20
114.5877155731
30
0.0000000000
10
191.8274560583
20
114.5691983929
30
0.0000000000
10
191.7744741369
20
114.5648953517
30
0.0000000000
10
191.7473022262
20
114.5648918202
30
0.0000000000
11
192.0010314178
21
114.6349360794
31
0.0000000000
11
191.9706610502
21
114.6180140607
31
0.0000000000
11
191.9034174393
21
114.5899782713
31
0.0000000000
11
191.8285470112
21
114.5715325746
31
0.0000000000
11
191.7473022262
21
114.5648918202
31
0.0000000000
0
SPLINE
5
447
100
AcDbEntity
8
0
100
AcDbSpline
62
7
6
CONTINUOUS
70
0
71
3
72
15
73
11
74
9
42
0.0000001000
43
0.0000001000
44
0.0000000001
12
0.0000000000
22
1.4756698813
32
0.0000000000
13
0.0704298636
23
1.4739882065
33
0.0000000000
40
0.0000000000
40
0.0000000000
40
0.0000000000
40
0.0000000000
40
0.1757486987
40
0.3462039107
40
0.5062314986
40
0.6510118594
40
0.7761851626
40
0.8779830895
40
0.9533424366
40
1.0000000000
40
1.0000000000
40
1.0000000000
40
1.0000000000
10
187.5394230769
20
97.1808337613
30
0.0000000000
10
187.5394230769
20
97.2672827817
30
0.0000000000
10
187.5395506743
20
97.4375770329
30
0.0000000000
10
187.5401207926
20
97.6865866997
30
0.0000000000
10
187.5410516063
20
97.9203620664
30
0.0000000000
10
187.5423054184
20
98.1318622425
30
0.0000000000
10
187.5438558217
20
98.3147160227
30
0.0000000000
10
187.5455878803
20
98.4634217244
30
0.0000000000
10
187.5475473920
20
98.5734930285
30
0.0000000000
10
187.5490661107
20
98.6335005347
30
0.0000000000
10
187.5501614726
20
98.6564247674
30
0.0000000000
11
187.5394230769
21
97.1808337613
31
0.0000000000
11
187.5396202203
21
97.4401807477
31
0.0000000000
11
187.5402057112
21
97.6917156887
31
0.0000000000
11
187.5411619094
21
97.9278616444
31
0.0000000000
11
187.5424600065
21
98.1415057188
31
0.0000000000
11
187.5440608955
21
98.3262132548
31
0.0000000000
11
187.5459163555
21
98.4764219301
31
0.0000000000
11
187.5479705020
21
98.5876084755
31
0.0000000000
11
187.5501614726
21
98.6564247674
31
0.0000000000
0
SPLINE
5
448
100
AcDbEntity
8
0
100
AcDbSpline
62
7
6
CONTINUOUS
70
0
71
3
72
15
73
11
74
9
42
0.0000001000
43
0.0000001000
44
0.0000000001
12
0.0704298636
22
-1.4739882065
32
0.0000000000
13
-0.0000000000
23
-1.4756698813
33
0.0000000000
40
0.0000000000
40
0.0000000000
40
0.0000000000
40
0.0000000000
40
0.0466576166
40
0.1220171558
40
0.2238153718
40
0.3489888882
40
0.4937692191
40
0.6537965469
40
0.8242514522
40
1.0000000000
40
1.0000000000
40
1.0000000000
40
1.0000000000
10
104.2286846812
20
98.6564247674
30
0.0000000000
10
104.2297800444
20
98.6335005085
30
0.0000000000
10
104.2312987652
20
98.5734928817
30
0.0000000000
10
104.2332582799
20
98.4634213147
30
0.0000000000
10
104.2349903398
20
98.3147152715
30
0.0000000000
10
104.2365407424
20
98.1318612590
30
0.0000000000
10
104.2377945520
20
97.9203611206
30
0.0000000000
10
104.2387253631
20
97.6865860473
30
0.0000000000
10
104.2392954798
20
97.4375767335
30
0.0000000000
10
104.2394230769
20
97.2672827075
30
0.0000000000
10
104.2394230769
20
97.1808337613
30
0.0000000000
11
104.2286846812
21
98.6564247674
31
0.0000000000
11
104.2308756537
21
98.5876083970
31
0.0000000000
11
104.2329298038
21
98.4764215682
31
0.0000000000
11
104.2347852665
21
98.3262124663
31
0.0000000000
11
104.2363861554
21
98.1415046156
31
0.0000000000
11
104.2376842497
21
97.9278605854
31
0.0000000000
11
104.2386404447
21
97.6917150135
31
0.0000000000
11
104.2392259339
21
97.4401805249
31
0.0000000000
11
104.2394230769
21
97.1808337613
31
0.0000000000
0
SPLINE
5
449
100
AcDbEntity
8
0
100
AcDbSpline
62
7
6
CONTINUOUS
70
0
71
3
72
16
73
12
74
10
42
0.0000001000
43
0.0000001000
44
0.0000000001
12
2.3813298510
22
0.4207489877
32
0.0000000000
13
-0.4385378655
23
-2.5678379604
33
0.0000000000
40
0.0000000000
40
0.0000000000
40
0.0000000000
40
0.0000000000
40
0.0058509555
40
0.0492636918
40
0.1306127564
40
0.2472652657
40
0.3905491221
40
0.5494717627
40
0.7120457171
40
0.8661165239
40
1.0000000000
40
1.0000000000
40
1.0000000000
40
1.0000000000
10
189.1847119613
20
125.7790564784
30
0.0000000000
10
189.1893563130
20
125.7798770730
30
0.0000000000
10
189.2277255205
20
125.7817815919
30
0.0000000000
10
189.2988411432
20
125.6547365901
30
0.0000000000
10
189.3496931246
20
125.4710672009
30
0.0000000000
10
189.4027795974
20
125.1701291128
30
0.0000000000
10
189.4357096512
20
124.8108774267
30
0.0000000000
10
189.4520125981
20
124.4064603207
30
0.0000000000
10
189.4479327949
20
123.9936198066
30
0.0000000000
10
189.4244554962
20
123.6029023221
30
0.0000000000
10
189.3945424075
20
123.3543739701
30
0.0000000000
10
189.3749714162
20
123.2397769461
30
0.0000000000
11
189.1847119613
21
125.7790564784
31
0.0000000000
11
189.1983075193
21
125.7796266751
31
0.0000000000
11
189.2731427433
21
125.6948373323
31
0.0000000000
11
189.3404153912
21
125.4938830804
31
0.0000000000
11
189.3946097947
21
125.1948730295
31
0.0000000000
11
189.4315221607
21
124.8234459878
31
0.0000000000
11
189.4484549979
21
124.4097964298
31
0.0000000000
11
189.4442262558
21
123.9863098247
31
0.0000000000
11
189.4191357439
21
123.5857379652
31
0.0000000000
11
189.3749714162
21
123.2397769461
31
0.0000000000
0
SPLINE
5
44A
100
AcDbEntity
8
0
100
AcDbSpline
62
7
6
CONTINUOUS
70
0
71
3
72
16
73
12
74
10
42
0.0000001000
43
0.0000001000
44
0.0000000001
12
2.4452073686
22
0.4473941564
32
0.0000000000
13
-0.4760181950
23
-2.5993121450
33
0.0000000000
40
0.0000000000
40
0.0000000000
40
0.0000000000
40
0.0000000000
40
0.0064463982
40
0.0507940019
40
0.1335707026
40
0.2516548644
40
0.3960017418
40
0.5552756399
40
0.7172292059
40
0.8694227905
40
1.0000000000
40
1.0000000000
40
1.0000000000
40
1.0000000000
10
189.1848455951
20
113.1492185296
30
0.0000000000
10
189.1900998553
20
113.1501798899
30
0.0000000000
10
189.2306172554
20
113.1521581695
30
0.0000000000
10
189.3007736266
20
113.0180796065
30
0.0000000000
10
189.3529989007
20
112.8294292964
30
0.0000000000
10
189.4053406589
20
112.5199760810
30
0.0000000000
10
189.4376670308
20
112.1530859320
30
0.0000000000
10
189.4525175469
20
111.7420358459
30
0.0000000000
10
189.4465848179
20
111.3251640809
30
0.0000000000
10
189.4208975831
20
110.9340565371
30
0.0000000000
10
189.3891431341
20
110.6866910646
30
0.0000000000
10
189.3684240916
20
110.5735540891
30
0.0000000000
11
189.1848455951
21
113.1492185296
31
0.0000000000
11
189.2001612978
21
113.1498289235
31
0.0000000000
11
189.2757583991
21
113.0602820241
31
0.0000000000
11
189.3433858543
21
112.8522579029
31
0.0000000000
11
189.3973753162
21
112.5449219083
31
0.0000000000
11
189.4334511741
21
112.1651893442
31
0.0000000000
11
189.4489234136
21
111.7445862022
31
0.0000000000
11
189.4426862829
21
111.3166628992
31
0.0000000000
11
189.4151816317
21
110.9154268987
31
0.0000000000
11
189.3684240916
21
110.5735540891
31
0.0000000000
0
SPLINE
5
44B
100
AcDbEntity
8
0
100
AcDbSpline
62
7
6
CONTINUOUS
70
0
71
3
72
10
73
6
74
4
42
0.0000001000
43
0.0000001000
44
0.0000000001
12
-0.9493353419
22
0.0000000000
32
0.0000000000
13
-0.1710100580
23
0.9338057354
33
0.0000000000
40
0.0000000000
40
0.0000000000
40
0.0000000000
40
0.0000000000
40
0.1756531972
40
0.5062443417
40
1.0000000000
40
1.0000000000
40
1.0000000000
40
1.0000000000
10
105.7072365817
20
93.7416867395
30
0.0000000000
10
105.6516519857
20
93.7416867395
30
0.0000000000
10
105.5238105013
20
93.8823375144
30
0.0000000000
10
105.4287952233
20
94.1715808644
30
0.0000000000
10
105.3668336565
20
94.4299767166
30
0.0000000000
10
105.3386879286
20
94.5836673385
30
0.0000000000
11
105.7072365817
21
93.7416867395
31
0.0000000000
11
105.5725368519
21
93.8399863255
31
0.0000000000
11
105.4469301353
21
94.1275965897
31
0.0000000000
11
105.3386879286
21
94.5836673385
31
0.0000000000
0
SPLINE
5
44C
100
AcDbEntity
8
0
100
AcDbSpline
62
7
6
CONTINUOUS
70
0
71
3
72
10
73
6
74
4
42
0.0000001000
43
0.0000001000
44
0.0000000001
12
0.9493353419
22
0.0000000000
32
0.0000000000
13
0.1710100580
23
0.9338057354
33
0.0000000000
40
0.0000000000
40
0.0000000000
40
0.0000000000
40
0.0000000000
40
0.1756531972
40
0.5062443417
40
1.0000000000
40
1.0000000000
40
1.0000000000
40
1.0000000000
10
186.0716095721
20
93.7416867395
30
0.0000000000
10
186.1271941681
20
93.7416867395
30
0.0000000000
10
186.2550356525
20
93.8823375144
30
0.0000000000
10
186.3500509306
20
94.1715808644
30
0.0000000000
10
186.4120124973
20
94.4299767166
30
0.0000000000
10
186.4401582252
20
94.5836673385
30
0.0000000000
11
186.0716095721
21
93.7416867395
31
0.0000000000
11
186.2063093019
21
93.8399863255
31
0.0000000000
11
186.3319160186
21
94.1275965897
31
0.0000000000
11
186.4401582252
21
94.5836673385
31
0.0000000000
0
SPLINE
5
44D
100
AcDbEntity
8
0
100
AcDbSpline
62
7
6
CONTINUOUS
70
0
71
3
72
16
73
12
74
10
42
0.0000001000
43
0.0000001000
44
0.0000000001
12
-0.4760181950
22
2.5993121450
32
0.0000000000
13
2.4452073686
23
-0.4473941564
33
0.0000000000
40
0.0000000000
40
0.0000000000
40
0.0000000000
40
0.0000000000
40
0.1305772095
40
0.2827707941
40
0.4447243601
40
0.6039982582
40
0.7483451356
40
0.8664292974
40
0.9492059981
40
0.9935536018
40
1.0000000000
40
1.0000000000
40
1.0000000000
40
1.0000000000
10
102.4104220623
20
110.5735540891
30
0.0000000000
10
102.3897030197
20
110.6866910646
30
0.0000000000
10
102.3579485708
20
110.9340565371
30
0.0000000000
10
102.3322613359
20
111.3251640809
30
0.0000000000
10
102.3263286069
20
111.7420358459
30
0.0000000000
10
102.3411791231
20
112.1530859320
30
0.0000000000
10
102.3735054950
20
112.5199760810
30
0.0000000000
10
102.4258472531
20
112.8294292964
30
0.0000000000
10
102.4780725272
20
113.0180796065
30
0.0000000000
10
102.5482288985
20
113.1521581695
30
0.0000000000
10
102.5887462986
20
113.1501798899
30
0.0000000000
10
102.5940005587
20
113.1492185296
30
0.0000000000
11
102.4104220623
21
110.5735540891
31
0.0000000000
11
102.3636645222
21
110.9154268987
31
0.0000000000
11
102.3361598709
21
111.3166628992
31
0.0000000000
11
102.3299227403
21
111.7445862022
31
0.0000000000
11
102.3453949797
21
112.1651893442
31
0.0000000000
11
102.3814708376
21
112.5449219083
31
0.0000000000
11
102.4354602996
21
112.8522579029
31
0.0000000000
11
102.5030877547
21
113.0602820241
31
0.0000000000
11
102.5786848560
21
113.1498289235
31
0.0000000000
11
102.5940005587
21
113.1492185296
31
0.0000000000
0
SPLINE
5
44E
100
AcDbEntity
8
0
100
AcDbSpline
62
7
6
CONTINUOUS
70
0
71
3
72
14
73
10
74
8
42
0.0000001000
43
0.0000001000
44
0.0000000001
12
-0.1481731384
22
2.1054210310
32
0.0000000000
13
1.8138935964
23
0.1690136795
33
0.0000000000
40
0.0000000000
40
0.0000000000
40
0.0000000000
40
0.0000000000
40
0.1925261252
40
0.3901501372
40
0.5785539814
40
0.7439160345
40
0.8739375244
40
0.9597512749
40
1.0000000000
40
1.0000000000
40
1.0000000000
40
1.0000000000
10
102.5710520154
20
134.4809717915
30
0.0000000000
10
102.5615429486
20
134.6160879759
30
0.0000000000
10
102.5502628135
20
134.8905005371
30
0.0000000000
10
102.5527072345
20
135.2976176106
30
0.0000000000
10
102.5756889787
20
135.6852972566
30
0.0000000000
10
102.6109644862
20
136.0231267967
30
0.0000000000
10
102.6723875431
20
136.2880920716
30
0.0000000000
10
102.7129248880
20
136.4563022680
30
0.0000000000
10
102.7932845849
20
136.5328979657
30
0.0000000000
10
102.8176202198
20
136.5351654941
30
0.0000000000
11
102.5710520154
21
134.4809717915
31
0.0000000000
11
102.5535584267
21
134.8869462057
31
0.0000000000
11
102.5565355517
21
135.3040464684
31
0.0000000000
11
102.5797834618
21
135.7010168515
31
0.0000000000
11
102.6217078521
21
136.0475075767
31
0.0000000000
11
102.6792887782
21
136.3158257740
31
0.0000000000
11
102.7481281883
21
136.4833546839
31
0.0000000000
11
102.8176202198
21
136.5351654941
31
0.0000000000
0
SPLINE
5
44F
100
AcDbEntity
8
0
100
AcDbSpline
62
7
6
CONTINUOUS
70
0
71
3
72
16
73
12
74
10
42
0.0000001000
43
0.0000001000
44
0.0000000001
12
-0.4385378655
22
2.5678379604
32
0.0000000000
13
2.3813298510
23
-0.4207489877
33
0.0000000000
40
0.0000000000
40
0.0000000000
40
0.0000000000
40
0.0000000000
40
0.1338834761
40
0.2879542829
40
0.4505282373
40
0.6094508779
40
0.7527347343
40
0.8693872436
40
0.9507363082
40
0.9941490445
40
1.0000000000
40
1.0000000000
40
1.0000000000
40
1.0000000000
10
102.4038747376
20
123.2397769461
30
0.0000000000
10
102.3843037463
20
123.3543739701
30
0.0000000000
10
102.3543906576
20
123.6029023221
30
0.0000000000
10
102.3309133589
20
123.9936198066
30
0.0000000000
10
102.3268335558
20
124.4064603207
30
0.0000000000
10
102.3431365027
20
124.8108774267
30
0.0000000000
10
102.3760665564
20
125.1701291128
30
0.0000000000
10
102.4291530292
20
125.4710672009
30
0.0000000000
10
102.4800050107
20
125.6547365901
30
0.0000000000
10
102.5511206334
20
125.7817815919
30
0.0000000000
10
102.5894898408
20
125.7798770730
30
0.0000000000
10
102.5941341925
20
125.7790564784
30
0.0000000000
11
102.4038747376
21
123.2397769461
31
0.0000000000
11
102.3597104100
21
123.5857379652
31
0.0000000000
11
102.3346198980
21
123.9863098247
31
0.0000000000
11
102.3303911559
21
124.4097964298
31
0.0000000000
11
102.3473239931
21
124.8234459878
31
0.0000000000
11
102.3842363592
21
125.1948730295
31
0.0000000000
11
102.4384307627
21
125.4938830804
31
0.0000000000
11
102.5057034106
21
125.6948373323
31
0.0000000000
11
102.5805386345
21
125.7796266751
31
0.0000000000
11
102.5941341925
21
125.7790564784
31
0.0000000000
0
SPLINE
5
450
100
AcDbEntity
8
0
100
AcDbSpline
62
7
6
CONTINUOUS
70
0
71
3
72
14
73
10
74
8
42
0.0000001000
43
0.0000001000
44
0.0000000001
12
0.1481731384
22
2.1054210310
32
0.0000000000
13
-1.8138935964
23
0.1690136795
33
0.0000000000
40
0.0000000000
40
0.0000000000
40
0.0000000000
40
0.0000000000
40
0.1925261252
40
0.3901501372
40
0.5785539814
40
0.7439160345
40
0.8739375244
40
0.9597512749
40
1.0000000000
40
1.0000000000
40
1.0000000000
40
1.0000000000
10
189.2077941385
20
134.4809717915
30
0.0000000000
10
189.2173032052
20
134.6160879759
30
0.0000000000
10
189.2285833404
20
134.8905005371
30
0.0000000000
10
189.2261389193
20
135.2976176106
30
0.0000000000
10
189.2031571751
20
135.6852972566
30
0.0000000000
10
189.1678816676
20
136.0231267967
30
0.0000000000
10
189.1064586107
20
136.2880920716
30
0.0000000000
10
189.0659212658
20
136.4563022680
30
0.0000000000
10
188.9855615690
20
136.5328979657
30
0.0000000000
10
188.9612259341
20
136.5351654941
30
0.0000000000
11
189.2077941385
21
134.4809717915
31
0.0000000000
11
189.2252877272
21
134.8869462057
31
0.0000000000
11
189.2223106022
21
135.3040464684
31
0.0000000000
11
189.1990626921
21
135.7010168515
31
0.0000000000
11
189.1571383018
21
136.0475075767
31
0.0000000000
11
189.0995573757
21
136.3158257740
31
0.0000000000
11
189.0307179655
21
136.4833546839
31
0.0000000000
11
188.9612259341
21
136.5351654941
31
0.0000000000
0
ENDSEC
0
SECTION
2
OBJECTS
0
DICTIONARY
5
451
100
AcDbDictionary
3
ACAD_GROUP
350
452
3
ACAD_MLINESTYLE
350
453
0
DICTIONARY
5
452
102
{ACAD_REACTORS
330
451
102
}
100
AcDbDictionary
0
DICTIONARY
5
453
102
{ACAD_REACTORS
330
451
102
}
100
AcDbDictionary
3
STANDARD
350
454
0
MLINESTYLE
5
454
102
{ACAD_REACTORS
330
453
102
}
100
AcDbMlineStyle
2
STANDARD
70
0
3

62
256
51
90.0
52
90.0
71
2
49
0.5
62
256
6
BYLAYER
49
-0.5
62
256
6
BYLAYER
0
ENDSEC
0
EOF
