999
DXF file: catena1873-k375gs2j.dxf
999
Pro/ENGINEER 2003490 by Parametric Technology Corporation
0
SECTION
2
HEADER
9
$ACADVER
1
AC1014
9
$EXTMAX
10
420.0000000000
20
297.0000000000
30
0.0000000000
9
$EXTMIN
10
0.0000000000
20
0.0000000000
30
0.0000000000
9
$LIMMIN
10
0.0000000000
20
0.0000000000
9
$LIMMAX
10
420.0000000000
20
297.0000000000
9
$VIEWCTR
10
210.0000000000
20
148.5000000000
9
$VIEWSIZE
40
297.0000000000
9
$CLAYER
8
0
9
$LTSCALE
40
23.1000000000
9
$CELTYPE
6
BYLAYER
9
$DIMSCALE
40
1
9
$DIMASZ
40
3.5000000000
9
$DIMEXO
40
2.6250000000
9
$DIMDLI
40
15.9600000000
9
$DIMEXE
40
7.5600000000
9
$DIMCEN
40
3.7800000000
9
$DIMLFAC
40
1.0000000000
9
$DIMBLK
1
_FILLED
9
$DIMTXT
40
3.5000000000
9
$DIMTOL
70
1
9
$DIMLIM
70
0
9
$DIMTFAC
40
1.0000000000
9
$DIMTP
40
0.0010000000
9
$DIMTM
40
0.0010000000
9
$PDMODE
70
3
9
$PDSIZE
40
0.3125000000
9
$HANDSEED
5
454
9
$MEASUREMENT
70
1
0
ENDSEC
0
SECTION
2
CLASSES
0
ENDSEC
0
SECTION
2
TABLES
0
TABLE
2
VPORT
5
8
100
AcDbSymbolTable
70
2
0
VPORT
5
1F4
100
AcDbSymbolTableRecord
100
AcDbViewportTableRecord
2
*ACTIVE
70
0
10
0.0
20
0.0
11
1.0
21
1.0
12
210.0000000000
22
148.5000000000
13
0.0
23
0.0
14
1.0
24
1.0
15
0.0
25
0.0
16
0.0
26
0.0
36
1.0
17
0.0
27
0.0
37
0.0
40
297.0000000000
41
1.4141414141
42
50.0
43
0.0
44
0.0
50
0.0
51
0.0
71
0
72
100
73
1
74
1
75
0
76
0
77
0
78
0
0
ENDTAB
0
TABLE
2
LTYPE
5
5
100
AcDbSymbolTable
70
6
0
LTYPE
5
14
100
AcDbSymbolTableRecord
100
AcDbLinetypeTableRecord
2
BYBLOCK
70
0
3

72
65
73
0
40
0.0
0
LTYPE
5
15
100
AcDbSymbolTableRecord
100
AcDbLinetypeTableRecord
2
BYLAYER
70
0
3

72
65
73
0
40
0.0
0
LTYPE
5
16
100
AcDbSymbolTableRecord
100
AcDbLinetypeTableRecord
2
CONTINUOUS
70
64
3
Solid line
72
65
73
0
40
0
0
LTYPE
5
1F5
100
AcDbSymbolTableRecord
100
AcDbLinetypeTableRecord
2
CENTER
70
64
3
____ _ ____ _ ____ _ ____ _ ____ _ ____ _ ____
72
65
73
4
40
0.6
49
0.375
74
0
49
-0.075
74
0
49
0.075
74
0
49
-0.075
74
0
0
LTYPE
5
1F6
100
AcDbSymbolTableRecord
100
AcDbLinetypeTableRecord
2
HIDDEN
70
64
3
- - - - - - - - - - - - - - - - - - - -
72
65
73
2
40
0.2
49
0.1
74
0
49
-0.1
74
0
0
LTYPE
5
1F7
100
AcDbSymbolTableRecord
100
AcDbLinetypeTableRecord
2
PHANTOM
70
64
3
_____ _ _ _____ _ _ _____ _ _ _____
72
65
73
6
40
0.8
49
0.45
74
0
49
-0.05
74
0
49
0.1
74
0
49
-0.05
74
0
49
0.1
74
0
49
-0.05
74
0
0
LTYPE
5
1F8
100
AcDbSymbolTableRecord
100
AcDbLinetypeTableRecord
2
DOT
70
64
3
. . . . . . . . . . . . . . . . . . . .
72
65
73
2
40
0.2
49
0.1
74
0
49
-0.1
74
0
0
LTYPE
5
1F9
100
AcDbSymbolTableRecord
100
AcDbLinetypeTableRecord
2
DASHED
70
64
3
- - - - - - - - - - - - - - - - - - - -
72
65
73
2
40
0.2
49
0.1
74
0
49
-0.1
74
0
0
ENDTAB
0
TABLE
2
LAYER
5
2
100
AcDbSymbolTable
70
36
0
LAYER
5
10
100
AcDbSymbolTableRecord
100
AcDbLayerTableRecord
2
0
70
0
62
7
6
CONTINUOUS
0
LAYER
5
1FA
100
AcDbSymbolTableRecord
100
AcDbLayerTableRecord
2
DEFAULT_1
70
0
62
7
6
CENTER
0
LAYER
5
1FB
100
AcDbSymbolTableRecord
100
AcDbLayerTableRecord
2
DEFAULT_2
70
0
62
8
6
HIDDEN
0
LAYER
5
1FC
100
AcDbSymbolTableRecord
100
AcDbLayerTableRecord
2
DEFAULT_3
70
0
62
7
6
PHANTOM
0
LAYER
5
1FD
100
AcDbSymbolTableRecord
100
AcDbLayerTableRecord
2
ASSI
70
0
62
7
6
CONTINUOUS
0
LAYER
5
1FE
100
AcDbSymbolTableRecord
100
AcDbLayerTableRecord
2
AXES
70
0
62
7
6
CONTINUOUS
0
LAYER
5
1FF
100
AcDbSymbolTableRecord
100
AcDbLayerTableRecord
2
DIMS
70
0
62
7
6
CONTINUOUS
0
LAYER
5
200
100
AcDbSymbolTableRecord
100
AcDbLayerTableRecord
2
GEOM
70
0
62
7
6
CONTINUOUS
0
LAYER
5
201
100
AcDbSymbolTableRecord
100
AcDbLayerTableRecord
2
NOGEOM
70
0
62
7
6
CONTINUOUS
0
LAYER
5
202
100
AcDbSymbolTableRecord
100
AcDbLayerTableRecord
2
PIANI
70
0
62
7
6
CONTINUOUS
0
LAYER
5
203
100
AcDbSymbolTableRecord
100
AcDbLayerTableRecord
2
PLANES
70
0
62
7
6
CONTINUOUS
0
LAYER
5
204
100
AcDbSymbolTableRecord
100
AcDbLayerTableRecord
2
SURF_FILETTI
70
0
62
7
6
CONTINUOUS
0
ENDTAB
0
TABLE
2
STYLE
5
3
100
AcDbSymbolTable
70
1
0
STYLE
5
11
100
AcDbSymbolTableRecord
100
AcDbTextStyleTableRecord
2
STANDARD
70
0
40
0.0
41
0.7143000000
50
0.0
71
0
42
0.2
3
txt
4

0
ENDTAB
0
TABLE
2
VIEW
5
6
100
AcDbSymbolTable
70
0
0
ENDTAB
0
TABLE
2
UCS
5
7
100
AcDbSymbolTable
70
0
0
ENDTAB
0
TABLE
2
APPID
5
9
100
AcDbSymbolTable
70
1
0
APPID
5
205
100
AcDbSymbolTableRecord
100
AcDbRegAppTableRecord
2
ACAD
70
0
0
ENDTAB
0
TABLE
2
DIMSTYLE
5
A
100
AcDbSymbolTable
70
1
0
DIMSTYLE
105
206
100
AcDbSymbolTableRecord
100
AcDbDimStyleTableRecord
2
STANDARD
70
0
3

4

5
_FILLED
6
_FILLED
7
_FILLED
40
1.0
41
3.5000000000
42
0.0625
43
0.38
44
0.18
45
0.0
46
0.0
47
0.0010000000
48
0.0010000000
140
3.5000000000
141
0.09
142
0.0
143
25.4
144
1.0000000000
145
0.0
146
1.0000000000
147
0.09
71
1
72
0
73
0
74
0
75
0
76
0
77
1
78
8
170
0
171
2
172
0
173
0
174
0
175
0
176
0
177
0
178
0
270
2
271
3
272
3
273
2
274
2
340
11
275
0
280
0
281
0
282
0
283
1
284
8
285
0
286
0
287
3
288
0
0
ENDTAB
0
TABLE
2
BLOCK_RECORD
5
1
100
AcDbSymbolTable
70
0
0
BLOCK_RECORD
5
1B
100
AcDbSymbolTableRecord
100
AcDbBlockTableRecord
2
*MODEL_SPACE
0
BLOCK_RECORD
5
1C
100
AcDbSymbolTableRecord
100
AcDbBlockTableRecord
2
*PAPER_SPACE
0
ENDTAB
0
ENDSEC
0
SECTION
2
BLOCKS
0
BLOCK
5
1E
100
AcDbEntity
8
0
100
AcDbBlockBegin
2
*MODEL_SPACE
70
0
10
0.0
20
0.0
30
0.0
3
*MODEL_SPACE
1

0
ENDBLK
5
1F
100
AcDbEntity
8
0
100
AcDbBlockEnd
0
BLOCK
5
20
100
AcDbEntity
8
0
100
AcDbBlockBegin
2
*PAPER_SPACE
70
0
10
0.0
20
0.0
30
0.0
3
*PAPER_SPACE
1

0
ENDBLK
5
21
100
AcDbEntity
8
0
100
AcDbBlockEnd
0
ENDSEC
0
SECTION
2
ENTITIES
0
LINE
5
207
100
AcDbEntity
8
0
100
AcDbLine
62
7
6
CONTINUOUS
10
0.0000000000
20
0.0000000000
11
0.0000000000
21
297.0000000000
0
LINE
5
208
100
AcDbEntity
8
0
100
AcDbLine
62
7
6
CONTINUOUS
10
0.0000000000
20
0.0000000000
11
420.0000000000
21
0.0000000000
0
LINE
5
209
100
AcDbEntity
8
0
100
AcDbLine
62
7
6
CONTINUOUS
10
0.0000000000
20
297.0000000000
11
420.0000000000
21
297.0000000000
0
LINE
5
20A
100
AcDbEntity
8
0
100
AcDbLine
62
7
6
CONTINUOUS
10
420.0000000000
20
0.0000000000
11
420.0000000000
21
297.0000000000
0
LINE
5
20B
100
AcDbEntity
8
0
100
AcDbLine
62
7
6
CONTINUOUS
10
112.8788461538
20
203.7547155172
11
112.8788461538
21
219.7547155172
0
LINE
5
20C
100
AcDbEntity
8
0
100
AcDbLine
62
9
6
CONTINUOUS
10
113.8788461538
20
218.4474483507
11
113.8788461538
21
207.2547155172
0
LINE
5
20D
100
AcDbEntity
8
0
100
AcDbLine
62
9
6
CONTINUOUS
10
115.7479879918
20
203.7547155172
11
115.7479879918
21
206.2547155172
0
LINE
5
20E
100
AcDbEntity
8
0
100
AcDbLine
62
7
6
CONTINUOUS
10
118.7391023479
20
223.2677696096
11
118.8788461538
21
207.2547155172
0
LINE
5
20F
100
AcDbEntity
8
0
100
AcDbLine
62
7
6
CONTINUOUS
10
119.3788461538
20
220.2547155172
11
119.3788461538
21
219.7547155172
0
LINE
5
210
100
AcDbEntity
8
0
100
AcDbLine
62
7
6
CONTINUOUS
10
121.8474767839
20
207.2547155172
11
116.3475170247
21
244.7673583108
0
LINE
5
211
100
AcDbEntity
8
0
100
AcDbLine
62
7
6
CONTINUOUS
10
187.2788461538
20
178.4547155172
11
172.5288461538
21
178.4547155172
0
LINE
5
212
100
AcDbEntity
8
0
100
AcDbLine
62
7
6
CONTINUOUS
10
148.6288461538
20
178.4547155172
11
133.7788461538
21
178.4547155172
0
LINE
5
213
100
AcDbEntity
8
0
100
AcDbLine
62
9
6
CONTINUOUS
10
188.2672076643
20
179.7265304379
11
172.5288461538
21
179.7265304379
0
LINE
5
214
100
AcDbEntity
8
0
100
AcDbLine
62
9
6
CONTINUOUS
10
148.6288461538
20
179.7265304379
11
132.7904846434
21
179.7265304379
0
LINE
5
215
100
AcDbEntity
8
0
100
AcDbLine
62
9
6
CONTINUOUS
10
132.7788461538
20
180.2786035183
11
143.1166431088
21
180.2786012843
0
LINE
5
216
100
AcDbEntity
8
0
100
AcDbLine
62
9
6
CONTINUOUS
10
177.9410491999
20
180.2786012839
11
188.2788461538
21
180.2786035183
0
LINE
5
217
100
AcDbEntity
8
0
100
AcDbLine
62
7
6
CONTINUOUS
10
132.2788461538
20
179.9547155172
11
132.2788461538
21
181.9547155172
0
LINE
5
218
100
AcDbEntity
8
0
100
AcDbLine
62
9
6
CONTINUOUS
10
132.7788461538
20
179.8786538241
11
132.7788461538
21
182.4547155172
0
LINE
5
219
100
AcDbEntity
8
0
100
AcDbLine
62
9
6
CONTINUOUS
10
132.7788461538
20
181.2967523083
11
143.1166481898
21
181.2967554825
0
LINE
5
21A
100
AcDbEntity
8
0
100
AcDbLine
62
9
6
CONTINUOUS
10
177.9410441201
20
181.2967554834
11
188.2788461538
21
181.2967523083
0
LINE
5
21B
100
AcDbEntity
8
0
100
AcDbLine
62
9
6
CONTINUOUS
10
132.7788461538
20
182.1867663248
11
142.5288461538
21
182.1867663248
0
LINE
5
21C
100
AcDbEntity
8
0
100
AcDbLine
62
9
6
CONTINUOUS
10
178.5288461538
20
182.1867663248
11
188.2788461538
21
182.1867663248
0
LINE
5
21D
100
AcDbEntity
8
0
100
AcDbLine
62
7
6
CONTINUOUS
10
132.7788461538
20
182.4547155172
11
142.5288461538
21
182.4547155172
0
LINE
5
21E
100
AcDbEntity
8
0
100
AcDbLine
62
7
6
CONTINUOUS
10
178.5288461538
20
182.4547155172
11
188.2788461538
21
182.4547155172
0
LINE
5
21F
100
AcDbEntity
8
0
100
AcDbLine
62
9
6
CONTINUOUS
10
142.5288461538
20
182.4547155172
11
142.5288461540
21
182.1867663248
0
LINE
5
220
100
AcDbEntity
8
0
100
AcDbLine
62
9
6
CONTINUOUS
10
143.1166390330
20
181.2967554825
11
143.1166431088
21
180.2786012843
0
LINE
5
221
100
AcDbEntity
8
0
100
AcDbLine
62
7
6
CONTINUOUS
10
144.5288461538
20
184.1485973706
11
144.5288461538
21
202.4547155172
0
LINE
5
222
100
AcDbEntity
8
0
100
AcDbLine
62
7
6
CONTINUOUS
10
144.5288461538
20
203.7547155172
11
144.5288461538
21
206.2547155172
0
LINE
5
223
100
AcDbEntity
8
0
100
AcDbLine
62
9
6
CONTINUOUS
10
146.5288461538
20
182.3070587361
11
146.5288461538
21
203.2547155172
0
LINE
5
224
100
AcDbEntity
8
0
100
AcDbLine
62
9
6
CONTINUOUS
10
148.6288461538
20
178.4547155172
11
148.6288461538
21
201.6938661627
0
LINE
5
225
100
AcDbEntity
8
0
100
AcDbLine
62
7
6
CONTINUOUS
10
149.0288461538
20
178.8547155172
11
149.0288461538
21
201.7547155172
0
LINE
5
226
100
AcDbEntity
8
0
100
AcDbLine
62
7
6
CONTINUOUS
10
207.6788461538
20
203.2547155172
11
177.3288461538
21
203.2547155172
0
LINE
5
227
100
AcDbEntity
8
0
100
AcDbLine
62
7
6
CONTINUOUS
10
144.2412923178
20
203.2547155172
11
113.3788461538
21
203.2547155172
0
LINE
5
228
100
AcDbEntity
8
0
100
AcDbLine
62
7
6
CONTINUOUS
10
146.5288461538
20
203.2547155172
11
174.7557859009
21
203.2547155172
0
LINE
5
229
100
AcDbEntity
8
0
100
AcDbLine
62
9
6
CONTINUOUS
10
208.1788461538
20
203.7547155172
11
204.3843491300
21
203.7547155172
0
LINE
5
22A
100
AcDbEntity
8
0
100
AcDbLine
62
9
6
CONTINUOUS
10
144.5288461538
20
203.7547155172
11
112.8788461538
21
203.7547155172
0
LINE
5
22B
100
AcDbEntity
8
0
100
AcDbLine
62
9
6
CONTINUOUS
10
112.8788461538
20
206.2547155172
11
208.1788461538
21
206.2547155172
0
LINE
5
22C
100
AcDbEntity
8
0
100
AcDbLine
62
7
6
CONTINUOUS
10
113.8788461538
20
207.2547155172
11
207.1788461538
21
207.2547155172
0
LINE
5
22D
100
AcDbEntity
8
0
100
AcDbLine
62
9
6
CONTINUOUS
10
121.7741687023
20
207.7547155172
11
199.2840159870
21
207.7547155172
0
LINE
5
22E
100
AcDbEntity
8
0
100
AcDbLine
62
9
6
CONTINUOUS
10
113.8788461538
20
208.4852137870
11
118.8681077581
21
208.4852137870
0
LINE
5
22F
100
AcDbEntity
8
0
100
AcDbLine
62
9
6
CONTINUOUS
10
202.1895845496
20
208.4852137870
11
207.1788461538
21
208.4852137870
0
LINE
5
230
100
AcDbEntity
8
0
100
AcDbLine
62
7
6
CONTINUOUS
10
202.2312073606
20
213.2547155172
11
200.0904048847
21
213.2547155172
0
LINE
5
231
100
AcDbEntity
8
0
100
AcDbLine
62
7
6
CONTINUOUS
10
120.9677798045
20
213.2547155172
11
118.8264849471
21
213.2547155172
0
LINE
5
232
100
AcDbEntity
8
0
100
AcDbLine
62
9
6
CONTINUOUS
10
118.8221215132
20
213.7547155172
11
120.8944717229
21
213.7547155172
0
LINE
5
233
100
AcDbEntity
8
0
100
AcDbLine
62
9
6
CONTINUOUS
10
200.1637129664
20
213.7547155172
11
202.2355707945
21
213.7547155172
0
LINE
5
234
100
AcDbEntity
8
0
100
AcDbLine
62
7
6
CONTINUOUS
10
201.0434099458
20
219.7547155172
11
120.0147747435
21
219.7547155172
0
LINE
5
235
100
AcDbEntity
8
0
100
AcDbLine
62
9
6
CONTINUOUS
10
119.3788461538
20
219.7547155172
11
120.0147747435
21
219.7547155172
0
LINE
5
236
100
AcDbEntity
8
0
100
AcDbLine
62
9
6
CONTINUOUS
10
201.0434099458
20
219.7547155172
11
201.6788461538
21
219.7547155172
0
LINE
5
237
100
AcDbEntity
8
0
100
AcDbLine
62
7
6
CONTINUOUS
10
172.0288461538
20
201.7547155172
11
172.0288461538
21
178.9547155172
0
LINE
5
238
100
AcDbEntity
8
0
100
AcDbLine
62
9
6
CONTINUOUS
10
172.5288461538
20
201.6786538241
11
172.5288461538
21
178.4547155172
0
LINE
5
239
100
AcDbEntity
8
0
100
AcDbLine
62
9
6
CONTINUOUS
10
203.1839834832
20
222.4480125375
11
202.3114311247
21
222.4474483507
0
LINE
5
23A
100
AcDbEntity
8
0
100
AcDbLine
62
7
6
CONTINUOUS
10
202.2922954351
20
220.2547155172
11
201.1167180274
21
220.2547155172
0
LINE
5
23B
100
AcDbEntity
8
0
100
AcDbLine
62
7
6
CONTINUOUS
10
118.7653968726
20
220.2547155172
11
119.9414666619
21
220.2547155172
0
LINE
5
23C
100
AcDbEntity
8
0
100
AcDbLine
62
9
6
CONTINUOUS
10
201.5548993323
20
223.2433444328
11
119.5032853569
21
223.2433444328
0
LINE
5
23D
100
AcDbEntity
8
0
100
AcDbLine
62
7
6
CONTINUOUS
10
203.1788112539
20
223.2677805305
11
202.3185664475
21
223.2677805305
0
LINE
5
23E
100
AcDbEntity
8
0
100
AcDbLine
62
7
6
CONTINUOUS
10
118.7391258601
20
223.2677805305
11
117.8788841085
21
223.2677805305
0
LINE
5
23F
100
AcDbEntity
8
0
100
AcDbLine
62
9
6
CONTINUOUS
10
118.7462611830
20
222.4474483507
11
117.8670646012
21
222.4480190077
0
LINE
5
240
100
AcDbEntity
8
0
100
AcDbLine
62
9
6
CONTINUOUS
10
174.5288461538
20
202.1504687448
11
174.5288461538
21
182.3070589416
0
LINE
5
241
100
AcDbEntity
8
0
100
AcDbLine
62
7
6
CONTINUOUS
10
176.5288461538
20
202.4547155172
11
176.5288461538
21
184.1485973706
0
LINE
5
242
100
AcDbEntity
8
0
100
AcDbLine
62
7
6
CONTINUOUS
10
176.5288461538
20
204.2493403632
11
176.5288461538
21
206.2547155172
0
LINE
5
243
100
AcDbEntity
8
0
100
AcDbLine
62
9
6
CONTINUOUS
10
177.3288461538
20
203.2547155172
11
177.3288462114
21
204.0204975462
0
LINE
5
244
100
AcDbEntity
8
0
100
AcDbLine
62
9
6
CONTINUOUS
10
177.9410532767
20
181.2967554833
11
177.9410491999
21
180.2786012839
0
LINE
5
245
100
AcDbEntity
8
0
100
AcDbLine
62
9
6
CONTINUOUS
10
178.5288461538
20
182.4547155172
11
178.5288461538
21
182.1867663248
0
LINE
5
246
100
AcDbEntity
8
0
100
AcDbLine
62
9
6
CONTINUOUS
10
188.2788461538
20
179.8786538241
11
188.2788461538
21
182.4547155172
0
LINE
5
247
100
AcDbEntity
8
0
100
AcDbLine
62
7
6
CONTINUOUS
10
188.7788461538
20
179.9547155172
11
188.7788461538
21
181.9547155172
0
LINE
5
248
100
AcDbEntity
8
0
100
AcDbLine
62
9
6
CONTINUOUS
10
204.1132318297
20
240.6925290309
11
116.9449528637
21
240.6925290030
0
LINE
5
249
100
AcDbEntity
8
0
100
AcDbLine
62
7
6
CONTINUOUS
10
204.7070853459
20
244.7676327744
11
116.3510993435
21
244.7676327744
0
LINE
5
24A
100
AcDbEntity
8
0
100
AcDbLine
62
7
6
CONTINUOUS
10
199.2107079053
20
207.2547155172
11
204.7106676645
21
244.7673583108
0
LINE
5
24B
100
AcDbEntity
8
0
100
AcDbLine
62
7
6
CONTINUOUS
10
201.6788461538
20
219.7547155172
11
201.6788461538
21
220.2547155172
0
LINE
5
24C
100
AcDbEntity
8
0
100
AcDbLine
62
7
6
CONTINUOUS
10
202.1788461538
20
207.2547155172
11
202.3185899598
21
223.2677696086
0
LINE
5
24D
100
AcDbEntity
8
0
100
AcDbLine
62
9
6
CONTINUOUS
10
205.3097043159
20
206.2547155172
11
205.3097043159
21
203.7547155172
0
LINE
5
24E
100
AcDbEntity
8
0
100
AcDbLine
62
9
6
CONTINUOUS
10
207.1788461538
20
207.2547155172
11
207.1788461538
21
218.4474483507
0
LINE
5
24F
100
AcDbEntity
8
0
100
AcDbLine
62
7
6
CONTINUOUS
10
208.1788461538
20
203.7547155172
11
208.1788461538
21
219.7547155172
0
LINE
5
250
100
AcDbEntity
8
0
100
AcDbLine
62
7
6
CONTINUOUS
10
270.2209571463
20
178.4547155172
11
295.5132045279
21
178.4547155172
0
LINE
5
251
100
AcDbEntity
8
0
100
AcDbLine
62
9
6
CONTINUOUS
10
269.2091816073
20
179.9547155172
11
296.5249800669
21
179.9547155172
0
LINE
5
252
100
AcDbEntity
8
0
100
AcDbLine
62
9
6
CONTINUOUS
10
269.2091816073
20
179.9547155172
11
268.7150008521
21
179.8786538241
0
LINE
5
253
100
AcDbEntity
8
0
100
AcDbLine
62
9
6
CONTINUOUS
10
269.1476234617
20
180.3546652114
11
268.6534427065
21
180.2786035183
0
LINE
5
254
100
AcDbEntity
8
0
100
AcDbLine
62
9
6
CONTINUOUS
10
294.0508079613
20
181.9547155172
11
271.6833537130
21
181.9547155172
0
LINE
5
255
100
AcDbEntity
8
0
100
AcDbLine
62
7
6
CONTINUOUS
10
294.0508079613
20
182.4547155172
11
271.6833537130
21
182.4547155172
0
LINE
5
256
100
AcDbEntity
8
0
100
AcDbLine
62
9
6
CONTINUOUS
10
296.5249800669
20
179.9547155172
11
297.0191608221
21
179.8786538241
0
LINE
5
257
100
AcDbEntity
8
0
100
AcDbLine
62
9
6
CONTINUOUS
10
296.5865382125
20
180.3546652114
11
297.0807189678
21
180.2786035183
0
LINE
5
258
100
AcDbEntity
8
0
100
AcDbLine
62
9
6
CONTINUOUS
10
269.3918042169
20
180.8637396064
11
269.1418042169
21
181.2967523083
0
LINE
5
259
100
AcDbEntity
8
0
100
AcDbLine
62
9
6
CONTINUOUS
10
270.6115569432
20
184.4547155172
11
295.1226047310
21
184.4547155172
0
LINE
5
25A
100
AcDbEntity
8
0
100
AcDbLine
62
9
6
CONTINUOUS
10
270.9333537130
20
181.7537536229
11
270.6833537130
21
182.1867663248
0
LINE
5
25B
100
AcDbEntity
8
0
100
AcDbLine
62
9
6
CONTINUOUS
10
270.0813447602
20
184.1485973706
11
270.6525689977
21
183.1592079698
0
LINE
5
25C
100
AcDbEntity
8
0
100
AcDbLine
62
9
6
CONTINUOUS
10
296.3423574573
20
180.8637396064
11
294.8008079613
21
181.7537536229
0
LINE
5
25D
100
AcDbEntity
8
0
100
AcDbLine
62
7
6
CONTINUOUS
10
296.5923574573
20
181.2967523083
11
295.0508079613
21
182.1867663248
0
LINE
5
25E
100
AcDbEntity
8
0
100
AcDbLine
62
7
6
CONTINUOUS
10
265.1170808371
20
203.2547155172
11
268.7384148806
21
179.7265304379
0
LINE
5
25F
100
AcDbEntity
8
0
100
AcDbLine
62
7
6
CONTINUOUS
10
265.1170808371
20
203.2547155172
11
265.1170808371
21
206.2547155172
0
LINE
5
260
100
AcDbEntity
8
0
100
AcDbLine
62
9
6
CONTINUOUS
10
266.3736802422
20
206.2547155172
11
266.3736802422
21
203.7547155172
0
LINE
5
261
100
AcDbEntity
8
0
100
AcDbLine
62
7
6
CONTINUOUS
10
276.8064397046
20
242.5658620722
11
267.4430677792
21
219.9383454963
0
LINE
5
262
100
AcDbEntity
8
0
100
AcDbLine
62
9
6
CONTINUOUS
10
295.1226047310
20
184.4547155172
11
295.6528169140
21
184.1485973706
0
LINE
5
263
100
AcDbEntity
8
0
100
AcDbLine
62
9
6
CONTINUOUS
10
269.1476234617
20
180.3546652114
11
269.2091816073
21
179.9547155172
0
LINE
5
264
100
AcDbEntity
8
0
100
AcDbLine
62
9
6
CONTINUOUS
10
267.2637636920
20
202.4547155172
11
270.0813447602
21
184.1485973706
0
LINE
5
265
100
AcDbEntity
8
0
100
AcDbLine
62
9
6
CONTINUOUS
10
267.2637636920
20
203.2547155172
11
267.2637636920
21
202.4547155172
0
LINE
5
266
100
AcDbEntity
8
0
100
AcDbLine
62
7
6
CONTINUOUS
10
267.3670808371
20
219.5559845821
11
267.3670808371
21
207.7547155172
0
LINE
5
267
100
AcDbEntity
8
0
100
AcDbLine
62
9
6
CONTINUOUS
10
269.3708249069
20
203.2547155172
11
269.3708249069
21
207.2547155172
0
LINE
5
268
100
AcDbEntity
8
0
100
AcDbLine
62
9
6
CONTINUOUS
10
270.6562278589
20
207.2547155172
11
270.6562278511
21
206.2547155218
0
LINE
5
269
100
AcDbEntity
8
0
100
AcDbLine
62
9
6
CONTINUOUS
10
271.6833537130
20
181.9547155172
11
271.6833537194
21
182.4547155172
0
LINE
5
26A
100
AcDbEntity
8
0
100
AcDbLine
62
7
6
CONTINUOUS
10
272.1318188650
20
208.4852137870
11
274.6819829864
21
222.4480155796
0
LINE
5
26B
100
AcDbEntity
8
0
100
AcDbLine
62
9
6
CONTINUOUS
10
273.1155462025
20
208.3055459669
11
274.9350472976
21
218.2677805305
0
LINE
5
26C
100
AcDbEntity
8
0
100
AcDbLine
62
7
6
CONTINUOUS
10
278.1313666436
20
228.8498193659
11
282.8613748346
21
241.1719119799
0
LINE
5
26D
100
AcDbEntity
8
0
100
AcDbLine
62
9
6
CONTINUOUS
10
275.8670808371
20
211.9547155172
11
275.8670808371
21
221.2532638491
0
LINE
5
26E
100
AcDbEntity
8
0
100
AcDbLine
62
7
6
CONTINUOUS
10
276.8670808371
20
211.9547155172
11
276.8670808371
21
220.4547155172
0
LINE
5
26F
100
AcDbEntity
8
0
100
AcDbLine
62
9
6
CONTINUOUS
10
277.0010554333
20
220.4547155172
11
277.0010554333
21
221.2532638491
0
LINE
5
270
100
AcDbEntity
8
0
100
AcDbLine
62
9
6
CONTINUOUS
10
298.4703979822
20
202.4547155172
11
267.2637636920
21
202.4547155172
0
LINE
5
271
100
AcDbEntity
8
0
100
AcDbLine
62
7
6
CONTINUOUS
10
300.1040655478
20
203.2547155172
11
265.6300966218
21
203.2547155172
0
LINE
5
272
100
AcDbEntity
8
0
100
AcDbLine
62
9
6
CONTINUOUS
10
300.6170808371
20
203.7547155172
11
265.1170808371
21
203.7547155172
0
LINE
5
273
100
AcDbEntity
8
0
100
AcDbLine
62
9
6
CONTINUOUS
10
277.3670808371
20
213.2547155172
11
277.3670808371
21
219.7547155172
0
LINE
5
274
100
AcDbEntity
8
0
100
AcDbLine
62
9
6
CONTINUOUS
10
278.8670808371
20
213.7547155172
11
278.8670808533
21
213.2547155172
0
LINE
5
275
100
AcDbEntity
8
0
100
AcDbLine
62
9
6
CONTINUOUS
10
279.3670808371
20
214.2547155172
11
279.3670808371
21
216.7547155172
0
LINE
5
276
100
AcDbEntity
8
0
100
AcDbLine
62
7
6
CONTINUOUS
10
279.8670808371
20
211.9547155172
11
279.8670808371
21
215.7547155172
0
LINE
5
277
100
AcDbEntity
8
0
100
AcDbLine
62
7
6
CONTINUOUS
10
279.8670808371
20
214.1547155172
11
279.8585361266
21
214.1461708067
0
LINE
5
278
100
AcDbEntity
8
0
100
AcDbLine
62
9
6
CONTINUOUS
10
265.1170808371
20
206.2547155172
11
270.6562278589
21
206.2547155172
0
LINE
5
279
100
AcDbEntity
8
0
100
AcDbLine
62
9
6
CONTINUOUS
10
295.0779338153
20
206.2547155172
11
300.6170808371
21
206.2547155172
0
LINE
5
27A
100
AcDbEntity
8
0
100
AcDbLine
62
9
6
CONTINUOUS
10
272.1318188650
20
208.4852137870
11
273.1155462025
21
208.3055459669
0
LINE
5
27B
100
AcDbEntity
8
0
100
AcDbLine
62
9
6
CONTINUOUS
10
280.8670808371
20
211.9547155172
11
280.8670808371
21
216.4547155172
0
LINE
5
27C
100
AcDbEntity
8
0
100
AcDbLine
62
9
6
CONTINUOUS
10
293.6023428092
20
208.4852137870
11
292.6186154749
21
208.3055459753
0
LINE
5
27D
100
AcDbEntity
8
0
100
AcDbLine
62
7
6
CONTINUOUS
10
266.1170808371
20
207.2547155172
11
270.6562278589
21
207.2547155172
0
LINE
5
27E
100
AcDbEntity
8
0
100
AcDbLine
62
7
6
CONTINUOUS
10
295.0779338153
20
207.2547155172
11
299.6170808371
21
207.2547155172
0
LINE
5
27F
100
AcDbEntity
8
0
100
AcDbLine
62
9
6
CONTINUOUS
10
284.8670808371
20
211.9547155172
11
284.8670808371
21
216.4547155172
0
LINE
5
280
100
AcDbEntity
8
0
100
AcDbLine
62
7
6
CONTINUOUS
10
288.0402859179
20
220.7547155172
11
289.2025295452
21
222.7677805305
0
LINE
5
281
100
AcDbEntity
8
0
100
AcDbLine
62
7
6
CONTINUOUS
10
276.5316321290
20
222.7677805305
11
277.6938757564
21
220.7547155172
0
LINE
5
282
100
AcDbEntity
8
0
100
AcDbLine
62
7
6
CONTINUOUS
10
285.8670808371
20
211.9547155172
11
285.8670808371
21
215.7547155172
0
LINE
5
283
100
AcDbEntity
8
0
100
AcDbLine
62
9
6
CONTINUOUS
10
286.3670808371
20
216.7547155172
11
286.3670808371
21
214.2547155172
0
LINE
5
284
100
AcDbEntity
8
0
100
AcDbLine
62
9
6
CONTINUOUS
10
286.8670808371
20
213.7547155172
11
286.8670808371
21
213.2547155172
0
LINE
5
285
100
AcDbEntity
8
0
100
AcDbLine
62
7
6
CONTINUOUS
10
298.4734974674
20
242.9147155172
11
291.7338266427
21
226.6276327744
0
LINE
5
286
100
AcDbEntity
8
0
100
AcDbLine
62
9
6
CONTINUOUS
10
289.8670808371
20
211.9547155172
11
288.8670808371
21
211.9547155103
0
LINE
5
287
100
AcDbEntity
8
0
100
AcDbLine
62
9
6
CONTINUOUS
10
276.8670808371
20
211.9547155172
11
275.8670808408
21
211.9547155205
0
LINE
5
288
100
AcDbEntity
8
0
100
AcDbLine
62
9
6
CONTINUOUS
10
279.8670808371
20
211.9547155172
11
280.8670808371
21
211.9547155172
0
LINE
5
289
100
AcDbEntity
8
0
100
AcDbLine
62
9
6
CONTINUOUS
10
284.8670808371
20
211.9547155172
11
285.8670808371
21
211.9547155172
0
LINE
5
28A
100
AcDbEntity
8
0
100
AcDbLine
62
7
6
CONTINUOUS
10
276.8670808371
20
213.2547155172
11
279.8670808371
21
213.2547155172
0
LINE
5
28B
100
AcDbEntity
8
0
100
AcDbLine
62
7
6
CONTINUOUS
10
285.8670808371
20
213.2547155172
11
288.3670808371
21
213.2547155172
0
LINE
5
28C
100
AcDbEntity
8
0
100
AcDbLine
62
9
6
CONTINUOUS
10
286.0042669036
20
213.7547155172
11
285.8670808371
21
213.7547155172
0
LINE
5
28D
100
AcDbEntity
8
0
100
AcDbLine
62
9
6
CONTINUOUS
10
279.8670808371
20
213.7547155172
11
279.7298949143
21
213.7547155172
0
LINE
5
28E
100
AcDbEntity
8
0
100
AcDbLine
62
9
6
CONTINUOUS
10
276.8670808371
20
213.7547155172
11
278.8670808371
21
213.7547155172
0
LINE
5
28F
100
AcDbEntity
8
0
100
AcDbLine
62
9
6
CONTINUOUS
10
286.8670808371
20
213.7547155172
11
288.8670808371
21
213.7547155172
0
LINE
5
290
100
AcDbEntity
8
0
100
AcDbLine
62
9
6
CONTINUOUS
10
286.3670808371
20
214.2547155172
11
285.8670808371
21
214.2547155010
0
LINE
5
291
100
AcDbEntity
8
0
100
AcDbLine
62
9
6
CONTINUOUS
10
279.3670808371
20
214.2547155172
11
279.8670808371
21
214.2547155172
0
LINE
5
292
100
AcDbEntity
8
0
100
AcDbLine
62
7
6
CONTINUOUS
10
285.8756255193
20
214.1461708350
11
285.8670808371
21
214.1547155172
0
LINE
5
293
100
AcDbEntity
8
0
100
AcDbLine
62
9
6
CONTINUOUS
10
288.3670808371
20
213.2547155172
11
288.3670808371
21
219.7547155172
0
LINE
5
294
100
AcDbEntity
8
0
100
AcDbLine
62
7
6
CONTINUOUS
10
288.6970808371
20
220.2547155172
11
288.6970808371
21
220.4547155172
0
LINE
5
295
100
AcDbEntity
8
0
100
AcDbLine
62
9
6
CONTINUOUS
10
288.7331062409
20
220.4547155172
11
288.7331062409
21
221.2532638491
0
LINE
5
296
100
AcDbEntity
8
0
100
AcDbLine
62
7
6
CONTINUOUS
10
288.8670808371
20
220.4547155172
11
288.8670808371
21
211.9547155172
0
LINE
5
297
100
AcDbEntity
8
0
100
AcDbLine
62
9
6
CONTINUOUS
10
289.8670808371
20
221.2532638491
11
289.8670808371
21
211.9547155172
0
LINE
5
298
100
AcDbEntity
8
0
100
AcDbLine
62
9
6
CONTINUOUS
10
291.7828417140
20
218.4474483507
11
290.7991143766
21
218.2677805305
0
LINE
5
299
100
AcDbEntity
8
0
100
AcDbLine
62
9
6
CONTINUOUS
10
279.8670808371
20
215.4547155172
11
285.8670808371
21
215.4547155172
0
LINE
5
29A
100
AcDbEntity
8
0
100
AcDbLine
62
9
6
CONTINUOUS
10
286.3670808371
20
216.7547155172
11
279.3670808371
21
216.7547155172
0
LINE
5
29B
100
AcDbEntity
8
0
100
AcDbLine
62
9
6
CONTINUOUS
10
273.9513199602
20
218.4474483507
11
274.9350472972
21
218.2677805285
0
LINE
5
29C
100
AcDbEntity
8
0
100
AcDbLine
62
7
6
CONTINUOUS
10
297.3481635532
20
223.2433444328
11
304.0462779503
21
240.6925290030
0
LINE
5
29D
100
AcDbEntity
8
0
100
AcDbLine
62
9
6
CONTINUOUS
10
290.7991143766
20
218.2677805305
11
288.8670808371
21
218.2677805305
0
LINE
5
29E
100
AcDbEntity
8
0
100
AcDbLine
62
9
6
CONTINUOUS
10
276.8670808371
20
218.2677805305
11
274.9350472976
21
218.2677805305
0
LINE
5
29F
100
AcDbEntity
8
0
100
AcDbLine
62
9
6
CONTINUOUS
10
290.7991143766
20
218.2677805305
11
292.6186154718
21
208.3055459669
0
LINE
5
2A0
100
AcDbEntity
8
0
100
AcDbLine
62
9
6
CONTINUOUS
10
294.0508079613
20
181.9547155172
11
294.0508079613
21
182.4547155172
0
LINE
5
2A1
100
AcDbEntity
8
0
100
AcDbLine
62
9
6
CONTINUOUS
10
295.0779338153
20
207.2547155172
11
295.0779338153
21
206.2547155172
0
LINE
5
2A2
100
AcDbEntity
8
0
100
AcDbLine
62
9
6
CONTINUOUS
10
277.3670808371
20
219.7547155172
11
288.3670808371
21
219.7547155172
0
LINE
5
2A3
100
AcDbEntity
8
0
100
AcDbLine
62
7
6
CONTINUOUS
10
276.8670808371
20
220.2547155172
11
288.8670808371
21
220.2547155172
0
LINE
5
2A4
100
AcDbEntity
8
0
100
AcDbLine
62
7
6
CONTINUOUS
10
288.8917057756
20
220.4547155172
11
288.2134909986
21
220.4547155172
0
LINE
5
2A5
100
AcDbEntity
8
0
100
AcDbLine
62
7
6
CONTINUOUS
10
277.5206706756
20
220.4547155172
11
276.8424558987
21
220.4547155172
0
LINE
5
2A6
100
AcDbEntity
8
0
100
AcDbLine
62
9
6
CONTINUOUS
10
289.8670808371
20
221.2532638491
11
288.7331062409
21
221.2532638491
0
LINE
5
2A7
100
AcDbEntity
8
0
100
AcDbLine
62
9
6
CONTINUOUS
10
277.0010554333
20
221.2532638491
11
275.8670808371
21
221.2532638491
0
LINE
5
2A8
100
AcDbEntity
8
0
100
AcDbLine
62
7
6
CONTINUOUS
10
287.8970808371
20
221.2547155172
11
277.4052006218
21
221.2547155172
0
LINE
5
2A9
100
AcDbEntity
8
0
100
AcDbLine
62
7
6
CONTINUOUS
10
291.0521780617
20
222.4480190077
11
293.6023428092
21
208.4852137870
0
LINE
5
2AA
100
AcDbEntity
8
0
100
AcDbLine
62
9
6
CONTINUOUS
10
296.3633367673
20
203.2547155172
11
296.3633367673
21
207.2547155172
0
LINE
5
2AB
100
AcDbEntity
8
0
100
AcDbLine
62
7
6
CONTINUOUS
10
290.0685569224
20
223.2677805305
11
290.0684310727
21
223.2677805305
0
LINE
5
2AC
100
AcDbEntity
8
0
100
AcDbLine
62
7
6
CONTINUOUS
10
298.3670808371
20
207.7547155172
11
298.3670808371
21
219.7547155172
0
LINE
5
2AD
100
AcDbEntity
8
0
100
AcDbLine
62
9
6
CONTINUOUS
10
298.4703979822
20
203.2547155172
11
298.4703979822
21
202.4547155172
0
LINE
5
2AE
100
AcDbEntity
8
0
100
AcDbLine
62
9
6
CONTINUOUS
10
299.3604814320
20
203.7547155172
11
299.3604814320
21
206.2547155172
0
LINE
5
2AF
100
AcDbEntity
8
0
100
AcDbLine
62
9
6
CONTINUOUS
10
295.6528169140
20
184.1485973706
11
298.4703979822
21
202.4547155172
0
LINE
5
2B0
100
AcDbEntity
8
0
100
AcDbLine
62
7
6
CONTINUOUS
10
288.9617874689
20
224.7747155172
11
280.9321079231
21
224.7747155172
0
LINE
5
2B1
100
AcDbEntity
8
0
100
AcDbLine
62
7
6
CONTINUOUS
10
300.6170808371
20
203.2547155172
11
300.6170808371
21
206.2547155172
0
LINE
5
2B2
100
AcDbEntity
8
0
100
AcDbLine
62
9
6
CONTINUOUS
10
296.5249800669
20
179.9547155172
11
296.5865382125
21
180.3546652114
0
LINE
5
2B3
100
AcDbEntity
8
0
100
AcDbLine
62
7
6
CONTINUOUS
10
296.9957467936
20
179.7265304379
11
300.6170808371
21
203.2547155172
0
LINE
5
2B4
100
AcDbEntity
8
0
100
AcDbLine
62
9
6
CONTINUOUS
10
270.6115569432
20
184.4547155172
11
270.0813447602
21
184.1485973706
0
LINE
5
2B5
100
AcDbEntity
8
0
100
AcDbLine
62
7
6
CONTINUOUS
10
270.6833537130
20
182.1867663248
11
269.1418042169
21
181.2967523083
0
LINE
5
2B6
100
AcDbEntity
8
0
100
AcDbLine
62
9
6
CONTINUOUS
10
270.9333537130
20
181.7537536229
11
269.3918042169
21
180.8637396064
0
LINE
5
2B7
100
AcDbEntity
8
0
100
AcDbLine
62
9
6
CONTINUOUS
10
295.0815926766
20
183.1592079697
11
295.6528169140
21
184.1485973706
0
LINE
5
2B8
100
AcDbEntity
8
0
100
AcDbLine
62
9
6
CONTINUOUS
10
294.8008079613
20
181.7537536229
11
295.0508079626
21
182.1867663240
0
LINE
5
2B9
100
AcDbEntity
8
0
100
AcDbLine
62
9
6
CONTINUOUS
10
296.3423574573
20
180.8637396064
11
296.5923574573
21
181.2967523083
0
LINE
5
2BA
100
AcDbEntity
8
0
100
AcDbLine
62
7
6
CONTINUOUS
10
112.8788461538
20
85.5830340019
11
112.8788461538
21
104.5792899321
0
LINE
5
2BB
100
AcDbEntity
8
0
100
AcDbLine
62
7
6
CONTINUOUS
10
112.8788461538
20
104.7382857349
11
112.8788461538
21
112.5755458623
0
LINE
5
2BC
100
AcDbEntity
8
0
100
AcDbLine
62
9
6
CONTINUOUS
10
113.3788461538
20
105.0792899321
11
113.3788461538
21
93.0792899321
0
LINE
5
2BD
100
AcDbEntity
8
0
100
AcDbLine
62
7
6
CONTINUOUS
10
113.7690843366
20
92.4914933608
11
113.7690843366
21
93.2132645283
0
LINE
5
2BE
100
AcDbEntity
8
0
100
AcDbLine
62
7
6
CONTINUOUS
10
113.7690843366
20
104.9453153359
11
113.7690843366
21
105.6670865034
0
LINE
5
2BF
100
AcDbEntity
8
0
100
AcDbLine
62
9
6
CONTINUOUS
10
113.8679996902
20
92.0792899321
11
113.8679996902
21
93.2132645283
0
LINE
5
2C0
100
AcDbEntity
8
0
100
AcDbLine
62
9
6
CONTINUOUS
10
113.8679996902
20
104.9453153359
11
113.8679996902
21
106.0792899321
0
LINE
5
2C1
100
AcDbEntity
8
0
100
AcDbLine
62
9
6
CONTINUOUS
10
113.8788461538
20
112.5755458623
11
113.8788461538
21
107.9950508090
0
LINE
5
2C2
100
AcDbEntity
8
0
100
AcDbLine
62
9
6
CONTINUOUS
10
113.8788461538
20
90.1635290552
11
113.8788461538
21
85.5830340019
0
LINE
5
2C3
100
AcDbEntity
8
0
100
AcDbLine
62
9
6
CONTINUOUS
10
114.6709670046
20
104.2524950129
11
114.6709670046
21
104.2257000936
0
LINE
5
2C4
100
AcDbEntity
8
0
100
AcDbLine
62
9
6
CONTINUOUS
10
114.6709670046
20
93.9328797706
11
114.6709670046
21
93.9060848514
0
LINE
5
2C5
100
AcDbEntity
8
0
100
AcDbLine
62
7
6
CONTINUOUS
10
118.7462611830
20
90.8940884828
11
118.8059521836
21
89.6448480828
0
LINE
5
2C6
100
AcDbEntity
8
0
100
AcDbLine
62
9
6
CONTINUOUS
10
115.7916073791
20
114.5736423055
11
115.7479879988
21
115.5726905274
0
LINE
5
2C7
100
AcDbEntity
8
0
100
AcDbLine
62
7
6
CONTINUOUS
10
118.8788461538
20
93.0792899321
11
118.8788461538
21
89.8505816410
0
LINE
5
2C8
100
AcDbEntity
8
0
100
AcDbLine
62
7
6
CONTINUOUS
10
119.2787616041
20
92.9845833003
11
119.2787616041
21
99.0792899321
0
LINE
5
2C9
100
AcDbEntity
8
0
100
AcDbLine
62
7
6
CONTINUOUS
10
118.7610334387
20
93.9060848514
11
118.7434656864
21
92.7438412240
0
LINE
5
2CA
100
AcDbEntity
8
0
100
AcDbLine
62
9
6
CONTINUOUS
10
115.7916073791
20
83.5849375588
11
115.7479879918
21
82.5858893372
0
LINE
5
2CB
100
AcDbEntity
8
0
100
AcDbLine
62
7
6
CONTINUOUS
10
116.6702919566
20
105.1399310646
11
119.9878516205
21
114.5033029901
0
LINE
5
2CC
100
AcDbEntity
8
0
100
AcDbLine
62
7
6
CONTINUOUS
10
116.6191444030
20
83.4728733018
11
119.0070939850
21
90.2125441265
0
LINE
5
2CD
100
AcDbEntity
8
0
100
AcDbLine
62
7
6
CONTINUOUS
10
113.8660055033
20
93.5091138990
11
113.8662421467
21
93.5094369865
0
LINE
5
2CE
100
AcDbEntity
8
0
100
AcDbLine
62
7
6
CONTINUOUS
10
113.8658299176
20
104.6497044234
11
113.8657076757
21
104.6498711486
0
LINE
5
2CF
100
AcDbEntity
8
0
100
AcDbLine
62
7
6
CONTINUOUS
10
204.2707987411
20
77.7008341280
11
116.7873859482
21
77.7008341280
0
LINE
5
2D0
100
AcDbEntity
8
0
100
AcDbLine
62
7
6
CONTINUOUS
10
204.6162741162
20
82.5556135208
11
205.3097043159
21
82.5858893372
0
LINE
5
2D1
100
AcDbEntity
8
0
100
AcDbLine
62
9
6
CONTINUOUS
10
204.4125385559
20
83.5476709193
11
205.2660849286
21
83.5849375588
0
LINE
5
2D2
100
AcDbEntity
8
0
100
AcDbLine
62
9
6
CONTINUOUS
10
204.4390402863
20
83.4728733018
11
116.6191444030
21
83.4728733018
0
LINE
5
2D3
100
AcDbEntity
8
0
100
AcDbLine
62
7
6
CONTINUOUS
10
115.7479879918
20
82.5858893372
11
116.4419078017
21
82.5555921440
0
LINE
5
2D4
100
AcDbEntity
8
0
100
AcDbLine
62
9
6
CONTINUOUS
10
115.7916073791
20
83.5849375588
11
116.6224534106
21
83.5486620376
0
LINE
5
2D5
100
AcDbEntity
8
0
100
AcDbLine
62
9
6
CONTINUOUS
10
113.8788461538
20
85.5830340019
11
112.8788461538
21
85.5830340083
0
LINE
5
2D6
100
AcDbEntity
8
0
100
AcDbLine
62
9
6
CONTINUOUS
10
207.1788461538
20
85.5830340019
11
208.1788461538
21
85.5830340019
0
LINE
5
2D7
100
AcDbEntity
8
0
100
AcDbLine
62
9
6
CONTINUOUS
10
112.8788461538
20
86.8684369539
11
117.8222350308
21
86.8684369539
0
LINE
5
2D8
100
AcDbEntity
8
0
100
AcDbLine
62
9
6
CONTINUOUS
10
203.2359496585
20
86.8684369539
11
208.1788461538
21
86.8684369482
0
LINE
5
2D9
100
AcDbEntity
8
0
100
AcDbLine
62
9
6
CONTINUOUS
10
113.8788461538
20
88.3440279600
11
118.3450553611
21
88.3440279600
0
LINE
5
2DA
100
AcDbEntity
8
0
100
AcDbLine
62
9
6
CONTINUOUS
10
202.7131293282
20
88.3440279600
11
207.1788461538
21
88.3440279600
0
LINE
5
2DB
100
AcDbEntity
8
0
100
AcDbLine
62
9
6
CONTINUOUS
10
202.0510907043
20
90.2125441265
11
119.0070939850
21
90.2125441265
0
LINE
5
2DC
100
AcDbEntity
8
0
100
AcDbLine
62
9
6
CONTINUOUS
10
203.1839834832
20
90.8941915258
11
202.3114311247
21
90.8940884828
0
LINE
5
2DD
100
AcDbEntity
8
0
100
AcDbLine
62
9
6
CONTINUOUS
10
208.1788461538
20
92.0792899321
11
207.1896926175
21
92.0792899321
0
LINE
5
2DE
100
AcDbEntity
8
0
100
AcDbLine
62
9
6
CONTINUOUS
10
113.8679996902
20
92.0792899321
11
112.8788461538
21
92.0792899321
0
LINE
5
2DF
100
AcDbEntity
8
0
100
AcDbLine
62
9
6
CONTINUOUS
10
204.6578660996
20
92.7438412240
11
202.3142266212
21
92.7438412240
0
LINE
5
2E0
100
AcDbEntity
8
0
100
AcDbLine
62
9
6
CONTINUOUS
10
118.7434656864
20
92.7438412240
11
116.3998262081
21
92.7438412240
0
LINE
5
2E1
100
AcDbEntity
8
0
100
AcDbLine
62
9
6
CONTINUOUS
10
201.7794230852
20
92.9845833003
11
119.2787616041
21
92.9845833003
0
LINE
5
2E2
100
AcDbEntity
8
0
100
AcDbLine
62
7
6
CONTINUOUS
10
207.6788461538
20
93.0792899321
11
207.2886079711
21
93.0792899321
0
LINE
5
2E3
100
AcDbEntity
8
0
100
AcDbLine
62
7
6
CONTINUOUS
10
202.2940408087
20
93.0792899321
11
201.7794230852
21
93.0792899321
0
LINE
5
2E4
100
AcDbEntity
8
0
100
AcDbLine
62
7
6
CONTINUOUS
10
113.3788461538
20
93.0792899321
11
113.7690843366
21
93.0792899321
0
LINE
5
2E5
100
AcDbEntity
8
0
100
AcDbLine
62
7
6
CONTINUOUS
10
118.7636514990
20
93.0792899321
11
119.2787616041
21
93.0792899321
0
LINE
5
2E6
100
AcDbEntity
8
0
100
AcDbLine
62
9
6
CONTINUOUS
10
207.2886079274
20
93.2132645283
11
207.1896926175
21
93.2132645283
0
LINE
5
2E7
100
AcDbEntity
8
0
100
AcDbLine
62
9
6
CONTINUOUS
10
113.7690843366
20
93.2132645283
11
113.8679996902
21
93.2132645283
0
LINE
5
2E8
100
AcDbEntity
8
0
100
AcDbLine
62
9
6
CONTINUOUS
10
206.3867253031
20
93.9060848514
11
202.2966588690
21
93.9060848514
0
LINE
5
2E9
100
AcDbEntity
8
0
100
AcDbLine
62
9
6
CONTINUOUS
10
118.7610334387
20
93.9060848514
11
114.6709670046
21
93.9060848514
0
LINE
5
2EA
100
AcDbEntity
8
0
100
AcDbLine
62
7
6
CONTINUOUS
10
206.3867253031
20
93.9328797706
11
202.2957861823
21
93.9328797706
0
LINE
5
2EB
100
AcDbEntity
8
0
100
AcDbLine
62
7
6
CONTINUOUS
10
118.7619061254
20
93.9328797706
11
114.6709670046
21
93.9328797706
0
LINE
5
2EC
100
AcDbEntity
8
0
100
AcDbLine
62
9
6
CONTINUOUS
10
118.7462611830
20
90.8940884828
11
117.8670646012
21
90.8941927075
0
LINE
5
2ED
100
AcDbEntity
8
0
100
AcDbLine
62
7
6
CONTINUOUS
10
204.2111782505
20
99.0792899321
11
116.8470064388
21
99.0792899321
0
LINE
5
2EE
100
AcDbEntity
8
0
100
AcDbLine
62
7
6
CONTINUOUS
10
206.3867253031
20
104.2257000936
11
204.5678657173
21
104.2257000936
0
LINE
5
2EF
100
AcDbEntity
8
0
100
AcDbLine
62
7
6
CONTINUOUS
10
116.4903189719
20
104.2257000936
11
114.6709670046
21
104.2257000936
0
LINE
5
2F0
100
AcDbEntity
8
0
100
AcDbLine
62
9
6
CONTINUOUS
10
206.3867253031
20
104.2524950129
11
204.5643422585
21
104.2524950129
0
LINE
5
2F1
100
AcDbEntity
8
0
100
AcDbLine
62
9
6
CONTINUOUS
10
116.4938424307
20
104.2524950129
11
114.6709670046
21
104.2524950129
0
LINE
5
2F2
100
AcDbEntity
8
0
100
AcDbLine
62
9
6
CONTINUOUS
10
207.2886079711
20
104.9453153359
11
207.1896926175
21
104.9453153359
0
LINE
5
2F3
100
AcDbEntity
8
0
100
AcDbLine
62
9
6
CONTINUOUS
10
113.7690843803
20
104.9453153359
11
113.8679996902
21
104.9453153359
0
LINE
5
2F4
100
AcDbEntity
8
0
100
AcDbLine
62
7
6
CONTINUOUS
10
207.6788461538
20
105.0792899321
11
207.2886079711
21
105.0792899321
0
LINE
5
2F5
100
AcDbEntity
8
0
100
AcDbLine
62
7
6
CONTINUOUS
10
113.3788461538
20
105.0792899321
11
113.7690843366
21
105.0792899321
0
LINE
5
2F6
100
AcDbEntity
8
0
100
AcDbLine
62
9
6
CONTINUOUS
10
204.3878927327
20
105.1399310646
11
116.6702919566
21
105.1399310646
0
LINE
5
2F7
100
AcDbEntity
8
0
100
AcDbLine
62
9
6
CONTINUOUS
10
204.6578660996
20
105.4147386402
11
204.2905249750
21
105.4147386402
0
LINE
5
2F8
100
AcDbEntity
8
0
100
AcDbLine
62
9
6
CONTINUOUS
10
116.7676597142
20
105.4147386402
11
116.3998262081
21
105.4147386402
0
LINE
5
2F9
100
AcDbEntity
8
0
100
AcDbLine
62
9
6
CONTINUOUS
10
112.8788461538
20
106.0792899321
11
113.8679996902
21
106.0792899321
0
LINE
5
2FA
100
AcDbEntity
8
0
100
AcDbLine
62
9
6
CONTINUOUS
10
207.1896926175
20
106.0792899321
11
208.1788461538
21
106.0792899321
0
LINE
5
2FB
100
AcDbEntity
8
0
100
AcDbLine
62
9
6
CONTINUOUS
10
113.8788461538
20
109.8145519042
11
118.3265685272
21
109.8145519042
0
LINE
5
2FC
100
AcDbEntity
8
0
100
AcDbLine
62
9
6
CONTINUOUS
10
202.7316161621
20
109.8145519042
11
207.1788461538
21
109.8145519042
0
LINE
5
2FD
100
AcDbEntity
8
0
100
AcDbLine
62
9
6
CONTINUOUS
10
112.8788461538
20
111.2901429181
11
118.8493888574
21
111.2901429103
0
LINE
5
2FE
100
AcDbEntity
8
0
100
AcDbLine
62
9
6
CONTINUOUS
10
202.2087958319
20
111.2901429103
11
208.1788461538
21
111.2901429103
0
LINE
5
2FF
100
AcDbEntity
8
0
100
AcDbLine
62
9
6
CONTINUOUS
10
113.8788461538
20
112.5755458623
11
112.8788461538
21
112.5755458623
0
LINE
5
300
100
AcDbEntity
8
0
100
AcDbLine
62
9
6
CONTINUOUS
10
207.1788461538
20
112.5755458623
11
208.1788461538
21
112.5755458560
0
LINE
5
301
100
AcDbEntity
8
0
100
AcDbLine
62
9
6
CONTINUOUS
10
119.9878516205
20
114.5033029901
11
201.0703330688
21
114.5033029901
0
LINE
5
302
100
AcDbEntity
8
0
100
AcDbLine
62
7
6
CONTINUOUS
10
120.0439119107
20
114.5792899321
11
201.0142727785
21
114.5792899321
0
LINE
5
303
100
AcDbEntity
8
0
100
AcDbLine
62
9
6
CONTINUOUS
10
144.5506662315
20
115.8292899321
11
115.7916073791
21
114.5736423055
0
LINE
5
304
100
AcDbEntity
8
0
100
AcDbLine
62
7
6
CONTINUOUS
10
144.5288461538
20
116.8292899321
11
115.7479879918
21
115.5726905270
0
LINE
5
305
100
AcDbEntity
8
0
100
AcDbLine
62
9
6
CONTINUOUS
10
176.5070260762
20
115.8292899321
11
144.5506662315
21
115.8292899321
0
LINE
5
306
100
AcDbEntity
8
0
100
AcDbLine
62
7
6
CONTINUOUS
10
176.5288461538
20
116.8292899321
11
144.5288461538
21
116.8292899321
0
LINE
5
307
100
AcDbEntity
8
0
100
AcDbLine
62
9
6
CONTINUOUS
10
205.2660849286
20
114.5736423055
11
176.5070260762
21
115.8292899321
0
LINE
5
308
100
AcDbEntity
8
0
100
AcDbLine
62
7
6
CONTINUOUS
10
205.3097043159
20
115.5726905270
11
176.5288461538
21
116.8292899321
0
LINE
5
309
100
AcDbEntity
8
0
100
AcDbLine
62
7
6
CONTINUOUS
10
207.1916868044
20
104.6494659653
11
207.1914501610
21
104.6491428777
0
LINE
5
30A
100
AcDbEntity
8
0
100
AcDbLine
62
7
6
CONTINUOUS
10
207.1918623901
20
93.5088754409
11
207.1919846320
21
93.5087087157
0
LINE
5
30B
100
AcDbEntity
8
0
100
AcDbLine
62
7
6
CONTINUOUS
10
204.4390402863
20
83.4728733018
11
202.0510907043
21
90.2125441265
0
LINE
5
30C
100
AcDbEntity
8
0
100
AcDbLine
62
7
6
CONTINUOUS
10
201.7794230852
20
92.9845833003
11
201.7794230852
21
99.0792899321
0
LINE
5
30D
100
AcDbEntity
8
0
100
AcDbLine
62
7
6
CONTINUOUS
10
202.1788461538
20
89.8519713226
11
202.1788461538
21
93.0792899321
0
LINE
5
30E
100
AcDbEntity
8
0
100
AcDbLine
62
9
6
CONTINUOUS
10
205.2660849286
20
83.5849375588
11
205.3097043089
21
82.5858893369
0
LINE
5
30F
100
AcDbEntity
8
0
100
AcDbLine
62
7
6
CONTINUOUS
10
202.2966588690
20
93.9060848514
11
202.3142266212
21
92.7438412240
0
LINE
5
310
100
AcDbEntity
8
0
100
AcDbLine
62
9
6
CONTINUOUS
10
205.2660849286
20
114.5736423055
11
205.3097043159
21
115.5726905270
0
LINE
5
311
100
AcDbEntity
8
0
100
AcDbLine
62
7
6
CONTINUOUS
10
202.3114311247
20
90.8940884828
11
202.2517986349
21
89.6460726252
0
LINE
5
312
100
AcDbEntity
8
0
100
AcDbLine
62
7
6
CONTINUOUS
10
204.3878927327
20
105.1399310646
11
201.0703330688
21
114.5033029901
0
LINE
5
313
100
AcDbEntity
8
0
100
AcDbLine
62
9
6
CONTINUOUS
10
206.3867253031
20
93.9060848514
11
206.3867253031
21
93.9328797706
0
LINE
5
314
100
AcDbEntity
8
0
100
AcDbLine
62
9
6
CONTINUOUS
10
206.3867253031
20
104.2257000936
11
206.3867253031
21
104.2524950129
0
LINE
5
315
100
AcDbEntity
8
0
100
AcDbLine
62
9
6
CONTINUOUS
10
207.1788461538
20
85.5830340019
11
207.1788461538
21
90.1635290552
0
LINE
5
316
100
AcDbEntity
8
0
100
AcDbLine
62
9
6
CONTINUOUS
10
207.1788461538
20
107.9950508090
11
207.1788461538
21
112.5755458623
0
LINE
5
317
100
AcDbEntity
8
0
100
AcDbLine
62
9
6
CONTINUOUS
10
207.1896926175
20
106.0792899321
11
207.1896926175
21
104.9453153359
0
LINE
5
318
100
AcDbEntity
8
0
100
AcDbLine
62
9
6
CONTINUOUS
10
207.1896926175
20
93.2132645283
11
207.1896926175
21
92.0792899321
0
LINE
5
319
100
AcDbEntity
8
0
100
AcDbLine
62
7
6
CONTINUOUS
10
207.2886079711
20
105.6670865034
11
207.2886079711
21
104.9453153359
0
LINE
5
31A
100
AcDbEntity
8
0
100
AcDbLine
62
7
6
CONTINUOUS
10
207.2886079711
20
93.2132645283
11
207.2886079711
21
92.4914933608
0
LINE
5
31B
100
AcDbEntity
8
0
100
AcDbLine
62
9
6
CONTINUOUS
10
207.6788461538
20
93.0792899321
11
207.6788461538
21
105.0792899321
0
LINE
5
31C
100
AcDbEntity
8
0
100
AcDbLine
62
7
6
CONTINUOUS
10
208.1788461538
20
85.5830340019
11
208.1788461538
21
112.5755458623
0
ARC
5
31D
100
AcDbEntity
8
0
100
AcDbCircle
62
7
6
CONTINUOUS
10
207.6788461538
20
219.7547155172
40
0.5000000000
100
AcDbArc
50
0.0000000000
51
79.9513446536
0
ARC
5
31E
100
AcDbEntity
8
0
100
AcDbCircle
62
7
6
CONTINUOUS
10
113.3788461538
20
219.7547155172
40
0.5000000000
100
AcDbArc
50
100.1426706530
51
180.0000000000
0
ARC
5
31F
100
AcDbEntity
8
0
100
AcDbCircle
62
7
6
CONTINUOUS
10
113.3788461538
20
203.7547155172
40
0.5000000000
100
AcDbArc
50
180.0000000000
51
270.0000000000
0
ARC
5
320
100
AcDbEntity
8
0
100
AcDbCircle
62
7
6
CONTINUOUS
10
113.8788461538
20
206.2547155172
40
1.0000000000
100
AcDbArc
50
90.0000000000
51
180.0000000000
0
ARC
5
321
100
AcDbEntity
8
0
100
AcDbCircle
62
7
6
CONTINUOUS
10
207.1788461538
20
206.2547155172
40
1.0000000000
100
AcDbArc
50
0.0000000000
51
90.0000000000
0
ARC
5
322
100
AcDbEntity
8
0
100
AcDbCircle
62
7
6
CONTINUOUS
10
132.7788461538
20
181.9547155172
40
0.5000000000
100
AcDbArc
50
90.0000000000
51
180.0000000000
0
ARC
5
323
100
AcDbEntity
8
0
100
AcDbCircle
62
7
6
CONTINUOUS
10
170.5288461538
20
201.7547155172
40
1.5000000000
100
AcDbArc
50
0.0000000000
51
90.0000000000
0
ARC
5
324
100
AcDbEntity
8
0
100
AcDbCircle
62
7
6
CONTINUOUS
10
150.5288461538
20
201.7547155172
40
1.5000000000
100
AcDbArc
50
90.0000000000
51
180.0000000000
0
ARC
5
325
100
AcDbEntity
8
0
100
AcDbCircle
62
7
6
CONTINUOUS
10
148.6288461538
20
178.8547155172
40
0.4000000000
100
AcDbArc
50
270.0000000000
51
360.0000000000
0
ARC
5
326
100
AcDbEntity
8
0
100
AcDbCircle
62
7
6
CONTINUOUS
10
172.5288461538
20
178.9547155172
40
0.5000000000
100
AcDbArc
50
180.0000000000
51
270.0000000000
0
ARC
5
327
100
AcDbEntity
8
0
100
AcDbCircle
62
7
6
CONTINUOUS
10
177.3288461538
20
202.4547155172
40
0.8000000000
100
AcDbArc
50
90.0000000000
51
180.0000000000
0
ARC
5
328
100
AcDbEntity
8
0
100
AcDbCircle
62
7
6
CONTINUOUS
10
143.7289059435
20
202.4547155172
40
0.7999829172
100
AcDbArc
50
0.0000000000
51
90.0000000000
0
ARC
5
329
100
AcDbEntity
8
0
100
AcDbCircle
62
7
6
CONTINUOUS
10
207.6788461538
20
203.7547155172
40
0.5000000000
100
AcDbArc
50
270.0000000000
51
360.0000000000
0
ARC
5
32A
100
AcDbEntity
8
0
100
AcDbCircle
62
7
6
CONTINUOUS
10
178.5288461538
20
184.4547155172
40
2.0000000000
100
AcDbArc
50
185.8568549327
51
270.0000000000
0
ARC
5
32B
100
AcDbEntity
8
0
100
AcDbCircle
62
7
6
CONTINUOUS
10
142.5288461538
20
184.4547155172
40
2.0000000000
100
AcDbArc
50
270.0000000000
51
354.1640053104
0
ARC
5
32C
100
AcDbEntity
8
0
100
AcDbCircle
62
7
6
CONTINUOUS
10
117.8788461538
20
218.2677805305
40
5.0000000000
100
AcDbArc
50
89.9952849578
51
180.0000000000
0
ARC
5
32D
100
AcDbEntity
8
0
100
AcDbCircle
62
7
6
CONTINUOUS
10
203.1788461538
20
218.2677805305
40
5.0000000000
100
AcDbArc
50
0.0000000000
51
89.9915967734
0
ARC
5
32E
100
AcDbEntity
8
0
100
AcDbCircle
62
7
6
CONTINUOUS
10
133.7788461538
20
179.9547155172
40
1.5000000000
100
AcDbArc
50
180.0000000000
51
270.0000000000
0
ARC
5
32F
100
AcDbEntity
8
0
100
AcDbCircle
62
7
6
CONTINUOUS
10
188.2788461538
20
181.9547155172
40
0.5000000000
100
AcDbArc
50
0.0000000000
51
90.0000000000
0
ARC
5
330
100
AcDbEntity
8
0
100
AcDbCircle
62
7
6
CONTINUOUS
10
187.2788461538
20
179.9547155172
40
1.5000000000
100
AcDbArc
50
270.0000000000
51
360.0000000000
0
ARC
5
331
100
AcDbEntity
8
0
100
AcDbCircle
62
7
6
CONTINUOUS
10
286.8670808371
20
214.2547155172
40
1.0000000000
100
AcDbArc
50
180.0000000000
51
270.0000000000
0
ARC
5
332
100
AcDbEntity
8
0
100
AcDbCircle
62
7
6
CONTINUOUS
10
278.8670808371
20
214.2547155172
40
1.0000000000
100
AcDbArc
50
270.0000000000
51
360.0000000000
0
ARC
5
333
100
AcDbEntity
8
0
100
AcDbCircle
62
7
6
CONTINUOUS
10
285.3670808371
20
215.7547155172
40
0.5000000000
100
AcDbArc
50
0.0000000000
51
90.0000000000
0
ARC
5
334
100
AcDbEntity
8
0
100
AcDbCircle
62
7
6
CONTINUOUS
10
280.3670020318
20
215.7547943226
40
0.4999605973
100
AcDbArc
50
89.9909681503
51
180.0090318497
0
ARC
5
335
100
AcDbEntity
8
0
100
AcDbCircle
62
7
6
CONTINUOUS
10
277.3670808371
20
213.7547155172
40
0.5000000000
100
AcDbArc
50
180.0000000000
51
270.0000000000
0
ARC
5
336
100
AcDbEntity
8
0
100
AcDbCircle
62
7
6
CONTINUOUS
10
288.3670808371
20
213.7547155172
40
0.5000000000
100
AcDbArc
50
270.0000000000
51
360.0000000000
0
ARC
5
337
100
AcDbEntity
8
0
100
AcDbCircle
62
9
6
CONTINUOUS
10
286.8670808371
20
214.2547155172
40
0.4999905080
100
AcDbArc
50
180.0000000000
51
270.0000000000
0
ARC
5
338
100
AcDbEntity
8
0
100
AcDbCircle
62
9
6
CONTINUOUS
10
278.8670808371
20
214.2547155172
40
0.4999905080
100
AcDbArc
50
270.0000000000
51
360.0000000000
0
ARC
5
339
100
AcDbEntity
8
0
100
AcDbCircle
62
7
6
CONTINUOUS
10
287.8970808371
20
220.4547155172
40
0.8000000000
100
AcDbArc
50
61.8518023365
51
90.0000000000
0
ARC
5
33A
100
AcDbEntity
8
0
100
AcDbCircle
62
7
6
CONTINUOUS
10
297.8670808371
20
207.7547155172
40
0.5000000000
100
AcDbArc
50
270.0000000000
51
360.0000000000
0
ARC
5
33B
100
AcDbEntity
8
0
100
AcDbCircle
62
7
6
CONTINUOUS
10
301.2455366412
20
241.7676327744
40
3.0000000000
100
AcDbArc
50
339.0000015795
51
157.5200000000
0
ARC
5
33C
100
AcDbEntity
8
0
100
AcDbCircle
62
7
6
CONTINUOUS
10
300.1489048327
20
222.1682405842
40
3.0000000000
100
AcDbArc
50
159.0000000000
51
233.5628012099
0
ARC
5
33D
100
AcDbEntity
8
0
100
AcDbCircle
62
7
6
CONTINUOUS
10
288.9617874689
20
227.7747155172
40
3.0000000000
100
AcDbArc
50
270.0000000000
51
337.5200000000
0
ARC
5
33E
100
AcDbEntity
8
0
100
AcDbCircle
62
7
6
CONTINUOUS
10
280.9321079231
20
227.7747155172
40
3.0000000000
100
AcDbArc
50
159.0000000000
51
270.0000000000
0
ARC
5
33F
100
AcDbEntity
8
0
100
AcDbCircle
62
7
6
CONTINUOUS
10
279.7170808371
20
241.3614251923
40
3.1500000000
100
AcDbArc
50
356.5508354486
51
157.5200000000
0
ARC
5
340
100
AcDbEntity
8
0
100
AcDbCircle
62
7
6
CONTINUOUS
10
268.3670808371
20
219.5559845821
40
1.0000000000
100
AcDbArc
50
157.5200000000
51
180.0000000000
0
ARC
5
341
100
AcDbEntity
8
0
100
AcDbCircle
62
7
6
CONTINUOUS
10
267.8670808371
20
207.7547155172
40
0.5000000000
100
AcDbArc
50
180.0000000000
51
270.0000000000
0
CIRCLE
5
342
100
AcDbEntity
8
0
100
AcDbCircle
62
7
6
CONTINUOUS
10
273.8670808371
20
193.0347155172
40
2.6000000000
0
CIRCLE
5
343
100
AcDbEntity
8
0
100
AcDbCircle
62
7
6
CONTINUOUS
10
291.8670808371
20
193.0347155172
40
2.6000000000
0
ARC
5
344
100
AcDbEntity
8
0
100
AcDbCircle
62
7
6
CONTINUOUS
10
299.6170808371
20
206.2547155172
40
1.0000000000
100
AcDbArc
50
0.0000000000
51
90.0000000000
0
ARC
5
345
100
AcDbEntity
8
0
100
AcDbCircle
62
7
6
CONTINUOUS
10
266.1170808371
20
206.2547155172
40
1.0000000000
100
AcDbArc
50
90.0000000000
51
180.0000000000
0
ARC
5
346
100
AcDbEntity
8
0
100
AcDbCircle
62
7
6
CONTINUOUS
10
278.3670808371
20
211.9547155172
40
1.5000000000
100
AcDbArc
50
180.0000000000
51
360.0000000000
0
ARC
5
347
100
AcDbEntity
8
0
100
AcDbCircle
62
7
6
CONTINUOUS
10
287.3670808371
20
211.9547155172
40
1.5000000000
100
AcDbArc
50
180.0000000000
51
360.0000000000
0
ARC
5
348
100
AcDbEntity
8
0
100
AcDbCircle
62
7
6
CONTINUOUS
10
295.0779338153
20
208.7547155172
40
1.5000000000
100
AcDbArc
50
190.3504118718
51
270.0000000000
0
ARC
5
349
100
AcDbEntity
8
0
100
AcDbCircle
62
7
6
CONTINUOUS
10
290.0685549490
20
222.2677805305
40
1.0000000000
100
AcDbArc
50
10.3504118718
51
150.0000000000
0
ARC
5
34A
100
AcDbEntity
8
0
100
AcDbCircle
62
7
6
CONTINUOUS
10
270.6562278589
20
208.7547155172
40
1.5000000000
100
AcDbArc
50
270.0000000000
51
349.6495881282
0
ARC
5
34B
100
AcDbEntity
8
0
100
AcDbCircle
62
7
6
CONTINUOUS
10
275.6656067252
20
222.2677805305
40
1.0000000000
100
AcDbArc
50
30.0000000000
51
169.6495881282
0
ARC
5
34C
100
AcDbEntity
8
0
100
AcDbCircle
62
7
6
CONTINUOUS
10
277.5206706756
20
220.6547155172
40
0.2000000000
100
AcDbArc
50
270.0000000000
51
30.0000000000
0
ARC
5
34D
100
AcDbEntity
8
0
100
AcDbCircle
62
7
6
CONTINUOUS
10
288.2134909986
20
220.6547155172
40
0.2000000000
100
AcDbArc
50
150.0000000000
51
270.0000000000
0
ARC
5
34E
100
AcDbEntity
8
0
100
AcDbCircle
62
7
6
CONTINUOUS
10
296.0923574573
20
180.4307269045
40
1.0000000000
100
AcDbArc
50
351.2500000000
51
60.0000000000
0
ARC
5
34F
100
AcDbEntity
8
0
100
AcDbCircle
62
7
6
CONTINUOUS
10
294.0508079613
20
180.4547155172
40
2.0000000000
100
AcDbArc
50
60.0000000000
51
90.0000000000
0
ARC
5
350
100
AcDbEntity
8
0
100
AcDbCircle
62
7
6
CONTINUOUS
10
271.6833537130
20
180.4547155172
40
2.0000000000
100
AcDbArc
50
90.0000000000
51
120.0000000000
0
ARC
5
351
100
AcDbEntity
8
0
100
AcDbCircle
62
7
6
CONTINUOUS
10
269.6418042169
20
180.4307269045
40
1.0000000000
100
AcDbArc
50
120.0000000000
51
188.7500000000
0
ARC
5
352
100
AcDbEntity
8
0
100
AcDbCircle
62
7
6
CONTINUOUS
10
295.5132045279
20
179.9547155172
40
1.5000000000
100
AcDbArc
50
270.0000000000
51
351.2500000000
0
ARC
5
353
100
AcDbEntity
8
0
100
AcDbCircle
62
7
6
CONTINUOUS
10
270.2209571463
20
179.9547155172
40
1.5000000000
100
AcDbArc
50
188.7500000000
51
270.0000000000
0
ARC
5
354
100
AcDbEntity
8
0
100
AcDbCircle
62
9
6
CONTINUOUS
10
278.3670808371
20
211.9547155172
40
2.4999901622
100
AcDbArc
50
180.0000000000
51
360.0000000000
0
ARC
5
355
100
AcDbEntity
8
0
100
AcDbCircle
62
9
6
CONTINUOUS
10
287.3670808371
20
211.9547155172
40
2.4999739405
100
AcDbArc
50
180.0000000000
51
360.0000000000
0
ARC
5
356
100
AcDbEntity
8
0
100
AcDbCircle
62
9
6
CONTINUOUS
10
295.0779338153
20
208.7547155172
40
2.4999959828
100
AcDbArc
50
190.3504118718
51
270.0000000000
0
ARC
5
357
100
AcDbEntity
8
0
100
AcDbCircle
62
9
6
CONTINUOUS
10
270.6562278589
20
208.7547155172
40
2.4999959828
100
AcDbArc
50
270.0000000000
51
349.6495881282
0
ARC
5
358
100
AcDbEntity
8
0
100
AcDbCircle
62
9
6
CONTINUOUS
10
296.0923574573
20
180.4307269045
40
0.4999995556
100
AcDbArc
50
351.2500000000
51
60.0000000000
0
ARC
5
359
100
AcDbEntity
8
0
100
AcDbCircle
62
9
6
CONTINUOUS
10
294.0508079613
20
180.4547155172
40
1.5000055257
100
AcDbArc
50
60.0000000000
51
90.0000000000
0
ARC
5
35A
100
AcDbEntity
8
0
100
AcDbCircle
62
9
6
CONTINUOUS
10
271.6833537130
20
180.4547155172
40
1.5000055257
100
AcDbArc
50
90.0000000000
51
120.0000000000
0
ARC
5
35B
100
AcDbEntity
8
0
100
AcDbCircle
62
9
6
CONTINUOUS
10
269.6418042169
20
180.4307269045
40
0.4999994779
100
AcDbArc
50
120.0000000000
51
188.7500000000
0
ARC
5
35C
100
AcDbEntity
8
0
100
AcDbCircle
62
7
6
CONTINUOUS
10
207.6788461538
20
104.5792899321
40
0.5000000000
100
AcDbArc
50
0.0000000000
51
90.0000000000
0
ARC
5
35D
100
AcDbEntity
8
0
100
AcDbCircle
62
7
6
CONTINUOUS
10
207.6788461538
20
93.5792899321
40
0.5000000000
100
AcDbArc
50
270.0000000000
51
360.0000000000
0
ARC
5
35E
100
AcDbEntity
8
0
100
AcDbCircle
62
7
6
CONTINUOUS
10
113.3788461538
20
93.5792899321
40
0.5000000000
100
AcDbArc
50
180.0000000000
51
270.0000000000
0
ARC
5
35F
100
AcDbEntity
8
0
100
AcDbCircle
62
7
6
CONTINUOUS
10
113.3788461538
20
104.5792899321
40
0.5000000000
100
AcDbArc
50
90.0000000000
51
180.0000000000
0
ARC
5
360
100
AcDbEntity
8
0
100
AcDbCircle
62
7
6
CONTINUOUS
10
113.8788461538
20
106.0792899321
40
1.0000000000
100
AcDbArc
50
180.0000000000
51
261.0000000000
0
ARC
5
361
100
AcDbEntity
8
0
100
AcDbCircle
62
7
6
CONTINUOUS
10
113.8788461538
20
92.0792899321
40
1.0000000000
100
AcDbArc
50
99.0000000000
51
180.0000000000
0
ARC
5
362
100
AcDbEntity
8
0
100
AcDbCircle
62
7
6
CONTINUOUS
10
207.1788461538
20
106.0792899321
40
1.0000000000
100
AcDbArc
50
278.9999532711
51
360.0000000000
0
ARC
5
363
100
AcDbEntity
8
0
100
AcDbCircle
62
7
6
CONTINUOUS
10
207.1788461538
20
92.0792899321
40
1.0000000000
100
AcDbArc
50
0.0000000000
51
81.0000545002
0
ARC
5
364
100
AcDbEntity
8
0
100
AcDbCircle
62
7
6
CONTINUOUS
10
115.8788461538
20
85.5830340019
40
3.0000000000
100
AcDbArc
50
180.0000000000
51
267.5000000000
0
ARC
5
365
100
AcDbEntity
8
0
100
AcDbCircle
62
7
6
CONTINUOUS
10
205.1788461538
20
85.5830340019
40
3.0000000000
100
AcDbArc
50
272.5000000000
51
360.0000000000
0
ARC
5
366
100
AcDbEntity
8
0
100
AcDbCircle
62
7
6
CONTINUOUS
10
115.8788461538
20
112.5755458623
40
3.0000000000
100
AcDbArc
50
92.5000000000
51
180.0000000000
0
ARC
5
367
100
AcDbEntity
8
0
100
AcDbCircle
62
7
6
CONTINUOUS
10
205.1788461538
20
112.5755458623
40
3.0000000000
100
AcDbArc
50
0.0000000000
51
87.5000000000
0
ARC
5
368
100
AcDbEntity
8
0
100
AcDbCircle
62
9
6
CONTINUOUS
10
115.8788461538
20
85.5830340019
40
1.9999985661
100
AcDbArc
50
180.0000000000
51
267.5000000000
0
ARC
5
369
100
AcDbEntity
8
0
100
AcDbCircle
62
9
6
CONTINUOUS
10
205.1788461538
20
85.5830340019
40
1.9999985661
100
AcDbArc
50
272.5000000000
51
360.0000000000
0
ARC
5
36A
100
AcDbEntity
8
0
100
AcDbCircle
62
9
6
CONTINUOUS
10
115.8788461538
20
112.5755458623
40
1.9999985661
100
AcDbArc
50
92.5000000000
51
180.0000000000
0
ARC
5
36B
100
AcDbEntity
8
0
100
AcDbCircle
62
9
6
CONTINUOUS
10
205.1788461538
20
112.5755458623
40
1.9999985661
100
AcDbArc
50
0.0000000000
51
87.5000000000
0
SPLINE
5
36C
100
AcDbEntity
8
0
100
AcDbSpline
62
7
6
CONTINUOUS
70
0
71
3
72
13
73
9
74
7
42
0.0000001000
43
0.0000001000
44
0.0000000001
12
-27.0495963562
22
-0.0000702151
32
0.0000000000
13
-26.9753296648
23
2.0030607867
33
0.0000000000
40
0.0000000000
40
0.0000000000
40
0.0000000000
40
0.0000000000
40
0.2051376820
40
0.3943919678
40
0.5673910806
40
0.7249366758
40
0.8686063979
40
1.0000000000
40
1.0000000000
40
1.0000000000
40
1.0000000000
10
204.3625394363
20
203.2547155172
30
0.0000000000
10
202.5129089382
20
203.2547107160
30
0.0000000000
10
198.9568367290
20
203.2713249454
30
0.0000000000
10
193.8413669331
20
203.3429777538
30
0.0000000000
10
189.1558117537
20
203.4535200651
30
0.0000000000
10
184.8824205069
20
203.5989657713
30
0.0000000000
10
180.9858719174
20
203.7794080504
30
0.0000000000
10
178.5103081220
20
203.9327677556
30
0.0000000000
10
177.3288462114
20
204.0204975462
30
0.0000000000
11
204.3625394363
21
203.2547155172
31
0.0000000000
11
198.8137100713
21
203.2809737320
31
0.0000000000
11
193.6949728156
21
203.3535710973
31
0.0000000000
11
189.0167511693
21
203.4653216484
31
0.0000000000
11
184.7577423984
21
203.6123182456
31
0.0000000000
11
180.8758336713
21
203.7950672447
31
0.0000000000
11
177.3288462114
21
204.0204975462
31
0.0000000000
0
SPLINE
5
36D
100
AcDbEntity
8
0
100
AcDbSpline
62
7
6
CONTINUOUS
70
0
71
3
72
12
73
8
74
6
42
0.0000001000
43
0.0000001000
44
0.0000000001
12
-1.0006642294
22
0.0000000000
32
0.0000000000
13
-0.0000000000
23
-1.0006642294
33
0.0000000000
40
0.0000000000
40
0.0000000000
40
0.0000000000
40
0.0000000000
40
0.0493601833
40
0.1914111537
40
0.4125349936
40
0.6911470999
40
1.0000000000
40
1.0000000000
40
1.0000000000
40
1.0000000000
10
144.5506662315
20
207.2547155172
30
0.0000000000
10
144.5342019082
20
207.2547155172
30
0.0000000000
10
144.5579793860
20
207.1528276056
30
0.0000000000
10
144.5268777332
20
207.0504951619
30
0.0000000000
10
144.5362780664
20
206.8180609386
30
0.0000000000
10
144.5281074629
20
206.5555487484
30
0.0000000000
10
144.5288461538
20
206.3577348670
30
0.0000000000
10
144.5288461538
20
206.2547155172
30
0.0000000000
11
144.5506662315
21
207.2547155172
31
0.0000000000
11
144.5439243162
21
207.2057848311
31
0.0000000000
11
144.5378418287
21
207.0637697027
31
0.0000000000
11
144.5330142246
21
206.8425516555
31
0.0000000000
11
144.5299143825
21
206.5637717204
31
0.0000000000
11
144.5288461538
21
206.2547155172
31
0.0000000000
0
SPLINE
5
36E
100
AcDbEntity
8
0
100
AcDbSpline
62
9
6
CONTINUOUS
70
0
71
3
72
9
73
5
74
3
42
0.0000001000
43
0.0000001000
44
0.0000000001
12
0.0229441018
22
-0.0000029187
32
0.0000000000
13
0.0229437251
23
0.0001315084
33
0.0000000000
40
0.0000000000
40
0.0000000000
40
0.0000000000
40
0.0000000000
40
0.5008251448
40
1.0000000000
40
1.0000000000
40
1.0000000000
40
1.0000000000
10
142.5288461538
20
182.1867663248
30
0.0000000000
10
142.5326764815
20
182.1867658375
30
0.0000000000
10
142.5403245224
20
182.1867776986
30
0.0000000000
10
142.5479724841
20
182.1868130995
30
0.0000000000
10
142.5517901276
20
182.1868349814
30
0.0000000000
11
142.5288461538
21
182.1867663248
31
0.0000000000
11
142.5403371240
21
182.1867836226
31
0.0000000000
11
142.5517901276
21
182.1868349814
31
0.0000000000
0
SPLINE
5
36F
100
AcDbEntity
8
0
100
AcDbSpline
62
9
6
CONTINUOUS
70
0
71
3
72
14
73
10
74
8
42
0.0000001000
43
0.0000001000
44
0.0000000001
12
2.0036554860
22
-0.0759999037
32
0.0000000000
13
0.8411535405
23
1.8201296693
33
0.0000000000
40
0.0000000000
40
0.0000000000
40
0.0000000000
40
0.0000000000
40
0.1183302934
40
0.2510383334
40
0.3928123122
40
0.5404588712
40
0.6922989012
40
0.8489538984
40
1.0000000000
40
1.0000000000
40
1.0000000000
40
1.0000000000
10
142.5518295137
20
182.1868378956
30
0.0000000000
10
142.6308605608
20
182.1838401986
30
0.0000000000
10
142.7991055336
20
182.1878620263
30
0.0000000000
10
143.0592079949
20
182.2297479520
30
0.0000000000
10
143.3286963455
20
182.3175651764
30
0.0000000000
10
143.5905284524
20
182.4567466744
30
0.0000000000
10
143.8296234649
20
182.6492266213
30
0.0000000000
10
144.0260297277
20
182.8878040008
30
0.0000000000
10
144.1279733744
20
183.0676381369
30
0.0000000000
10
144.1703243621
20
183.1592793006
30
0.0000000000
11
142.5518295137
21
182.1868378956
31
0.0000000000
11
142.7890210770
21
182.1926856056
31
0.0000000000
11
143.0516810161
21
182.2352875289
31
0.0000000000
11
143.3218199650
21
182.3238011250
31
0.0000000000
11
143.5830027864
21
182.4631801598
31
0.0000000000
11
143.8198673550
21
182.6544583485
31
0.0000000000
11
144.0207633368
21
182.8959223546
31
0.0000000000
11
144.1703243621
21
183.1592793006
31
0.0000000000
0
SPLINE
5
370
100
AcDbEntity
8
0
100
AcDbSpline
62
9
6
CONTINUOUS
70
0
71
3
72
10
73
6
74
4
42
0.0000001000
43
0.0000001000
44
0.0000000001
12
0.2682597547
22
0.0015402057
32
0.0000000000
13
0.0061640472
23
-0.2681933495
33
0.0000000000
40
0.0000000000
40
0.0000000000
40
0.0000000000
40
0.0000000000
40
0.1140037278
40
0.4506137251
40
1.0000000000
40
1.0000000000
40
1.0000000000
40
1.0000000000
10
142.5403383843
20
182.4547488082
30
0.0000000000
10
142.5505325883
20
182.4548073379
30
0.0000000000
10
142.5342629127
20
182.3902546079
30
0.0000000000
10
142.5560165508
20
182.3245884661
30
0.0000000000
10
142.5507006994
20
182.2359518107
30
0.0000000000
10
142.5518295137
20
182.1868378956
30
0.0000000000
11
142.5403383843
21
182.4547488082
31
0.0000000000
11
142.5439690519
21
182.4243819637
31
0.0000000000
11
142.5478386163
21
182.3341645077
31
0.0000000000
11
142.5518295137
21
182.1868378956
31
0.0000000000
0
SPLINE
5
371
100
AcDbEntity
8
0
100
AcDbSpline
62
9
6
CONTINUOUS
70
0
71
3
72
10
73
6
74
4
42
0.0000001000
43
0.0000001000
44
0.0000000001
12
0.5901565480
22
0.9616051206
32
0.0000000000
13
0.1014413797
23
1.1255095597
33
0.0000000000
40
0.0000000000
40
0.0000000000
40
0.0000000000
40
0.0000000000
40
0.3915299681
40
0.7963504285
40
1.0000000000
40
1.0000000000
40
1.0000000000
40
1.0000000000
10
144.1704342519
20
183.1592079697
30
0.0000000000
10
144.2474555767
20
183.2847070437
30
0.0000000000
10
144.3798134053
20
183.5556816615
30
0.0000000000
10
144.4807441240
20
183.9199578476
30
0.0000000000
10
144.5115079951
20
184.1474040649
30
0.0000000000
10
144.5183941596
20
184.2238072447
30
0.0000000000
11
144.1704342519
21
183.1592079697
31
0.0000000000
11
144.3650391978
21
183.5557803258
31
0.0000000000
11
144.4874819045
21
183.9958047192
31
0.0000000000
11
144.5183941596
21
184.2238072447
31
0.0000000000
0
SPLINE
5
372
100
AcDbEntity
8
0
100
AcDbSpline
62
9
6
CONTINUOUS
70
0
71
3
72
10
73
6
74
4
42
0.0000001000
43
0.0000001000
44
0.0000000001
12
-0.0904174142
22
-0.1299234628
32
0.0000000000
13
0.0543447362
23
-0.1486676314
33
0.0000000000
40
0.0000000000
40
0.0000000000
40
0.0000000000
40
0.0000000000
40
0.2750690675
40
0.5984393800
40
1.0000000000
40
1.0000000000
40
1.0000000000
40
1.0000000000
10
144.1704443493
20
183.3122600160
30
0.0000000000
10
144.1621540047
20
183.3003473740
30
0.0000000000
10
144.1506245434
20
183.2696573978
30
0.0000000000
10
144.1525486234
20
183.2161212849
30
0.0000000000
10
144.1631689919
20
183.1791022491
30
0.0000000000
10
144.1704432272
20
183.1592025604
30
0.0000000000
11
144.1704443493
21
183.3122600160
31
0.0000000000
11
144.1542342375
21
183.2718496220
31
0.0000000000
11
144.1542338675
21
183.2206636510
31
0.0000000000
11
144.1704432272
21
183.1592025604
31
0.0000000000
0
SPLINE
5
373
100
AcDbEntity
8
0
100
AcDbSpline
62
7
6
CONTINUOUS
70
0
71
3
72
12
73
8
74
6
42
0.0000001000
43
0.0000001000
44
0.0000000001
12
1.0006642294
22
0.0000000000
32
0.0000000000
13
0.0000000000
23
-1.0006642294
33
0.0000000000
40
0.0000000000
40
0.0000000000
40
0.0000000000
40
0.0000000000
40
0.0493601833
40
0.1914111537
40
0.4125349936
40
0.6911470999
40
1.0000000000
40
1.0000000000
40
1.0000000000
40
1.0000000000
10
176.5070260762
20
207.2547155172
30
0.0000000000
10
176.5234903995
20
207.2547155172
30
0.0000000000
10
176.4997129217
20
207.1528276056
30
0.0000000000
10
176.5308145745
20
207.0504951619
30
0.0000000000
10
176.5214142413
20
206.8180609386
30
0.0000000000
10
176.5295848448
20
206.5555487484
30
0.0000000000
10
176.5288461538
20
206.3577348670
30
0.0000000000
10
176.5288461538
20
206.2547155172
30
0.0000000000
11
176.5070260762
21
207.2547155172
31
0.0000000000
11
176.5137679915
21
207.2057848311
31
0.0000000000
11
176.5198504790
21
207.0637697027
31
0.0000000000
11
176.5246780831
21
206.8425516555
31
0.0000000000
11
176.5277779252
21
206.5637717204
31
0.0000000000
11
176.5288461538
21
206.2547155172
31
0.0000000000
0
SPLINE
5
374
100
AcDbEntity
8
0
100
AcDbSpline
62
9
6
CONTINUOUS
70
0
71
3
72
12
73
8
74
6
42
0.0000001000
43
0.0000001000
44
0.0000000001
12
1.0026283054
22
0.0000000000
32
0.0000000000
13
-0.0000000248
23
-1.0026283054
33
0.0000000000
40
0.0000000000
40
0.0000000000
40
0.0000000000
40
0.0000000000
40
0.0506300338
40
0.1928107767
40
0.4136702572
40
0.6917791712
40
1.0000000000
40
1.0000000000
40
1.0000000000
40
1.0000000000
10
205.2660849286
20
207.2547155172
30
0.0000000000
10
205.2830059636
20
207.2547155172
30
0.0000000000
10
205.2735635206
20
207.1548535437
30
0.0000000000
10
205.3004978775
20
207.0496424138
30
0.0000000000
10
205.3001971110
20
206.8184858344
30
0.0000000000
10
205.3093097071
20
206.5554060539
30
0.0000000000
10
205.3097043115
20
206.3577258263
30
0.0000000000
10
205.3097043089
20
206.2547155172
30
0.0000000000
11
205.2660849286
21
207.2547155172
31
0.0000000000
11
205.2795637219
21
207.2057745839
31
0.0000000000
11
205.2917233353
21
207.0637396888
31
0.0000000000
11
205.3013734624
21
206.8425100934
31
0.0000000000
11
205.3075693377
21
206.5637390696
31
0.0000000000
11
205.3097043089
21
206.2547155172
31
0.0000000000
0
SPLINE
5
375
100
AcDbEntity
8
0
100
AcDbSpline
62
9
6
CONTINUOUS
70
0
71
3
72
13
73
9
74
7
42
0.0000001000
43
0.0000001000
44
0.0000000001
12
1.7499190407
22
0.0020243591
32
0.0000000000
13
0.1789480882
23
1.7407464861
33
0.0000000000
40
0.0000000000
40
0.0000000000
40
0.0000000000
40
0.0000000000
40
0.1482238375
40
0.3052714659
40
0.4712370316
40
0.6445728937
40
0.8223287015
40
1.0000000000
40
1.0000000000
40
1.0000000000
40
1.0000000000
10
187.2788461538
20
178.4547155172
30
0.0000000000
10
187.3653060590
20
178.4548155366
30
0.0000000000
10
187.5448784086
20
178.4909531150
30
0.0000000000
10
187.7813650748
20
178.6400421174
30
0.0000000000
10
187.9752796194
20
178.8590475167
30
0.0000000000
10
188.1219016180
20
179.1248353601
30
0.0000000000
10
188.2209625493
20
179.4183398982
30
0.0000000000
10
188.2566096846
20
179.6234368751
30
0.0000000000
10
188.2672076643
20
179.7265304379
30
0.0000000000
11
187.2788461538
21
178.4547155172
31
0.0000000000
11
187.5334700232
21
178.5041585349
31
0.0000000000
11
187.7684019206
21
178.6467540686
31
0.0000000000
11
187.9637048299
21
178.8617059803
31
0.0000000000
11
188.1124135804
21
179.1260752544
31
0.0000000000
11
188.2132396420
21
179.4203395638
31
0.0000000000
11
188.2672076643
21
179.7265304379
31
0.0000000000
0
SPLINE
5
376
100
AcDbEntity
8
0
100
AcDbSpline
62
9
6
CONTINUOUS
70
0
71
3
72
13
73
9
74
7
42
0.0000001000
43
0.0000001000
44
0.0000000001
12
-1.7495970784
22
0.0032535885
32
0.0000000000
13
-0.1787527606
23
1.7404447631
33
0.0000000000
40
0.0000000000
40
0.0000000000
40
0.0000000000
40
0.0000000000
40
0.1611587552
40
0.3231064430
40
0.4904656242
40
0.6624075020
40
0.8343436505
40
1.0000000000
40
1.0000000000
40
1.0000000000
40
1.0000000000
10
133.7788461538
20
178.4547155172
30
0.0000000000
10
133.6848585248
20
178.4548902986
30
0.0000000000
10
133.4946366276
20
178.4967079316
30
0.0000000000
10
133.2538297116
20
178.6598169302
30
0.0000000000
10
133.0643178990
20
178.8861136983
30
0.0000000000
10
132.9248777010
20
179.1516818790
30
0.0000000000
10
132.8333007164
20
179.4356148527
30
0.0000000000
10
132.8003551533
20
179.6304251959
30
0.0000000000
10
132.7904846434
20
179.7265304379
30
0.0000000000
11
133.7788461538
21
178.4547155172
31
0.0000000000
11
133.5029586679
21
178.5129344130
31
0.0000000000
11
133.2654780851
21
178.6674873820
31
0.0000000000
11
133.0747453574
21
178.8896577751
31
0.0000000000
11
132.9328736051
21
179.1549327462
31
0.0000000000
11
132.8393645834
21
179.4408495810
31
0.0000000000
11
132.7904846434
21
179.7265304379
31
0.0000000000
0
SPLINE
5
377
100
AcDbEntity
8
0
100
AcDbSpline
62
9
6
CONTINUOUS
70
0
71
3
72
11
73
7
74
5
42
0.0000001000
43
0.0000001000
44
0.0000000001
12
-0.5012111623
22
0.0000000000
32
0.0000000000
13
-0.0000000021
23
0.5012111623
33
0.0000000000
40
0.0000000000
40
0.0000000000
40
0.0000000000
40
0.0000000000
40
0.0777406420
40
0.2944495286
40
0.6182264316
40
1.0000000000
40
1.0000000000
40
1.0000000000
40
1.0000000000
10
115.7697976854
20
203.2547155172
30
0.0000000000
10
115.7568095263
20
203.2547155172
30
0.0000000000
10
115.7684611528
20
203.3321287581
30
0.0000000000
10
115.7474259076
20
203.4098094546
30
0.0000000000
10
115.7511468309
20
203.5766989956
30
0.0000000000
10
115.7479879920
20
203.6909324592
30
0.0000000000
10
115.7479879917
20
203.7547155172
30
0.0000000000
11
115.7697976854
21
203.2547155172
31
0.0000000000
11
115.7614514911
21
203.2927756216
31
0.0000000000
11
115.7543759168
21
203.4011618294
31
0.0000000000
11
115.7496481610
21
203.5633735453
31
0.0000000000
11
115.7479879917
21
203.7547155172
31
0.0000000000
0
SPLINE
5
378
100
AcDbEntity
8
0
100
AcDbSpline
62
9
6
CONTINUOUS
70
0
71
3
72
14
73
10
74
8
42
0.0000001000
43
0.0000001000
44
0.0000000001
12
0.0000055870
22
-3.0121392098
32
0.0000000000
13
3.0121392096
23
0.0000367188
33
0.0000000000
40
0.0000000000
40
0.0000000000
40
0.0000000000
40
0.0000000000
40
0.1349545495
40
0.2770711243
40
0.4235324475
40
0.5699068365
40
0.7139810828
40
0.8567944651
40
1.0000000000
40
1.0000000000
40
1.0000000000
40
1.0000000000
10
144.5288461538
20
184.1485973706
30
0.0000000000
10
144.5288464052
20
184.0130967406
30
0.0000000000
10
144.5625737743
20
183.7337967606
30
0.0000000000
10
144.7156634317
20
183.3326073074
30
0.0000000000
10
144.9679396241
20
182.9708322316
30
0.0000000000
10
145.2985713649
20
182.6767762369
30
0.0000000000
10
145.6817845456
20
182.4639707752
30
0.0000000000
10
146.0970586572
20
182.3356187753
30
0.0000000000
10
146.3850611517
20
182.3069488760
30
0.0000000000
10
146.5288461538
20
182.3069506288
30
0.0000000000
11
144.5288461538
21
184.1485973706
31
0.0000000000
11
144.5774601975
21
183.7450128547
31
0.0000000000
11
144.7293889445
21
183.3448056809
31
0.0000000000
11
144.9809367794
21
182.9823867191
31
0.0000000000
11
145.3097344789
21
182.6886437792
31
0.0000000000
11
145.6887648159
21
182.4772970774
31
0.0000000000
11
146.0996315280
21
182.3498685356
31
0.0000000000
11
146.5288461538
21
182.3069506288
31
0.0000000000
0
SPLINE
5
379
100
AcDbEntity
8
0
100
AcDbSpline
62
9
6
CONTINUOUS
70
0
71
3
72
9
73
5
74
3
42
0.0000001000
43
0.0000001000
44
0.0000000001
12
0.0000000000
22
0.2575074767
32
0.0000000000
13
0.1584991677
23
0.2051989740
33
0.0000000000
40
0.0000000000
40
0.0000000000
40
0.0000000000
40
0.0000000000
40
0.6602345579
40
1.0000000000
40
1.0000000000
40
1.0000000000
40
1.0000000000
10
132.2788461538
20
181.7537536229
30
0.0000000000
10
132.2788461538
20
181.8104254012
30
0.0000000000
10
132.2992498809
20
181.8973498479
30
0.0000000000
10
132.3451520055
20
181.9710794405
30
0.0000000000
10
132.3631028521
20
181.9943192805
30
0.0000000000
11
132.2788461538
21
181.7537536229
31
0.0000000000
11
132.3169036434
21
181.9194546840
31
0.0000000000
11
132.3631028521
21
181.9943192805
31
0.0000000000
0
SPLINE
5
37A
100
AcDbEntity
8
0
100
AcDbSpline
62
9
6
CONTINUOUS
70
0
71
3
72
10
73
6
74
4
42
0.0000001000
43
0.0000001000
44
0.0000000001
12
0.2902254914
22
0.3757368188
32
0.0000000000
13
0.4715181477
23
-0.0000000383
33
0.0000000000
40
0.0000000000
40
0.0000000000
40
0.0000000000
40
0.0000000000
40
0.1907411950
40
0.5882118848
40
1.0000000000
40
1.0000000000
40
1.0000000000
40
1.0000000000
10
132.3631028521
20
181.9943192805
30
0.0000000000
10
132.3815555044
20
182.0182087771
30
0.0000000000
10
132.4461339520
20
182.0859785616
30
0.0000000000
10
132.5858150784
20
182.1652010736
30
0.0000000000
10
132.7141242974
20
182.1867663293
30
0.0000000000
10
132.7788461538
20
182.1867663240
30
0.0000000000
11
132.3631028521
21
181.9943192805
31
0.0000000000
11
132.4252865626
21
182.0599344865
31
0.0000000000
11
132.5874990709
21
182.1538032816
31
0.0000000000
11
132.7788461538
21
182.1867663240
31
0.0000000000
0
SPLINE
5
37B
100
AcDbEntity
8
0
100
AcDbSpline
62
9
6
CONTINUOUS
70
0
71
3
72
9
73
5
74
3
42
0.0000001000
43
0.0000001000
44
0.0000000001
12
-0.4468279217
22
-1.0413212628
32
0.0000000000
13
-0.0000594372
23
-1.1331395150
33
0.0000000000
40
0.0000000000
40
0.0000000000
40
0.0000000000
40
0.0000000000
40
0.4983674307
40
1.0000000000
40
1.0000000000
40
1.0000000000
40
1.0000000000
10
174.7557859009
20
203.2547155172
30
0.0000000000
10
174.6815577398
20
203.0817286498
30
0.0000000000
10
174.5673812408
20
202.7186478604
30
0.0000000000
10
174.5288560924
20
202.3399419736
30
0.0000000000
10
174.5288461538
20
202.1504687448
30
0.0000000000
11
174.7557859009
21
203.2547155172
31
0.0000000000
11
174.5865435761
21
202.7159525626
31
0.0000000000
11
174.5288461538
21
202.1504687448
31
0.0000000000
0
SPLINE
5
37C
100
AcDbEntity
8
0
100
AcDbSpline
62
7
6
CONTINUOUS
70
0
71
3
72
13
73
9
74
7
42
0.0000001000
43
0.0000001000
44
0.0000000001
12
1.0981136290
22
-0.0003071047
32
0.0000000000
13
0.9481828344
23
0.5538979589
33
0.0000000000
40
0.0000000000
40
0.0000000000
40
0.0000000000
40
0.0000000000
40
0.1316143901
40
0.2757054744
40
0.4369183093
40
0.6113977086
40
0.7974101409
40
1.0000000000
40
1.0000000000
40
1.0000000000
40
1.0000000000
10
174.7557859008
20
203.2547155172
30
0.0000000000
10
174.8039617526
20
203.2547020441
30
0.0000000000
10
174.9047261646
20
203.2750231579
30
0.0000000000
10
175.0514605864
20
203.3394150489
30
0.0000000000
10
175.2041208184
20
203.4266265926
30
0.0000000000
10
175.3655098993
20
203.5286864797
30
0.0000000000
10
175.5390603616
20
203.6398700162
30
0.0000000000
10
175.6603768182
20
203.7141919019
30
0.0000000000
10
175.7244075605
20
203.7515966050
30
0.0000000000
11
174.7557859008
21
203.2547155172
31
0.0000000000
11
174.8983040096
21
203.2787322742
31
0.0000000000
11
175.0445098836
21
203.3392307511
31
0.0000000000
11
175.1992154739
21
203.4252877531
31
0.0000000000
11
175.3618463895
21
203.5265846477
31
0.0000000000
11
175.5343045376
21
203.6360445792
31
0.0000000000
11
175.7244075605
21
203.7515966050
31
0.0000000000
0
SPLINE
5
37D
100
AcDbEntity
8
0
100
AcDbSpline
62
7
6
CONTINUOUS
70
0
71
3
72
31
73
27
74
25
42
0.0000001000
43
0.0000001000
44
0.0000000001
12
-1.3809937551
22
0.1132509418
32
0.0000000000
13
0.0000000000
23
1.3856296502
33
0.0000000000
40
0.0000000000
40
0.0000000000
40
0.0000000000
40
0.0000000000
40
0.0918605633
40
0.1723113036
40
0.2468988837
40
0.3160494463
40
0.3801456072
40
0.4395538796
40
0.4946148596
40
0.5456497607
40
0.5929665458
40
0.6367973984
40
0.6773520889
40
0.7148472195
40
0.7495297415
40
0.7816522929
40
0.8114746867
40
0.8392621679
40
0.8652549679
40
0.8894720731
40
0.9118604686
40
0.9325046949
40
0.9515159687
40
0.9692155483
40
0.9854044775
40
1.0000000000
40
1.0000000000
40
1.0000000000
40
1.0000000000
10
145.8766636815
20
203.5194653494
30
0.0000000000
10
145.8343773935
20
203.5229331145
30
0.0000000000
10
145.7550716706
20
203.5296172738
30
0.0000000000
10
145.6414841096
20
203.5397344020
30
0.0000000000
10
145.5383929033
20
203.5494507347
30
0.0000000000
10
145.4428721830
20
203.5589741161
30
0.0000000000
10
145.3543802990
20
203.5683134888
30
0.0000000000
10
145.2724152066
20
203.5774770825
30
0.0000000000
10
145.1965036285
20
203.5864759252
30
0.0000000000
10
145.1261997828
20
203.5953234417
30
0.0000000000
10
145.0611083396
20
203.6040327010
30
0.0000000000
10
145.0008858166
20
203.6126153450
30
0.0000000000
10
144.9452313675
20
203.6210817454
30
0.0000000000
10
144.8938384552
20
203.6294482348
30
0.0000000000
10
144.8463825818
20
203.6377412390
30
0.0000000000
10
144.8025220794
20
203.6460007410
30
0.0000000000
10
144.7619108349
20
203.6542825895
30
0.0000000000
10
144.7242144766
20
203.6626619872
30
0.0000000000
10
144.6892163450
20
203.6712160661
30
0.0000000000
10
144.6568558957
20
203.6800179486
30
0.0000000000
10
144.6271582971
20
203.6891425130
30
0.0000000000
10
144.6001454666
20
203.6987485653
30
0.0000000000
10
144.5757315322
20
203.7090687512
30
0.0000000000
10
144.5542014873
20
203.7208147260
30
0.0000000000
10
144.5362797407
20
203.7342253979
30
0.0000000000
10
144.5288461538
20
203.7479741876
30
0.0000000000
10
144.5288461538
20
203.7547155172
30
0.0000000000
11
145.8766636815
21
203.5194653494
31
0.0000000000
11
145.7498296300
21
203.5301669079
31
0.0000000000
11
145.6387957455
21
203.5400733083
31
0.0000000000
11
145.5359020486
21
203.5497824411
31
0.0000000000
11
145.4405589429
21
203.5593010055
31
0.0000000000
11
145.3522372742
21
203.5686352378
31
0.0000000000
11
145.2704305427
21
203.5777943518
31
0.0000000000
11
145.1946684929
21
203.5867891034
31
0.0000000000
11
145.1245081912
21
203.5956327483
31
0.0000000000
11
145.0595257258
21
203.6043423424
31
0.0000000000
11
144.9994021339
21
203.6129266847
31
0.0000000000
11
144.9438500043
21
203.6213943877
31
0.0000000000
11
144.8925735910
21
203.6297601183
31
0.0000000000
11
144.8452372537
21
203.6380522229
31
0.0000000000
11
144.8015001919
21
203.6463109112
31
0.0000000000
11
144.7610158474
21
203.6545928842
31
0.0000000000
11
144.7234366982
21
203.6629774360
31
0.0000000000
11
144.6884594366
21
203.6715664889
31
0.0000000000
11
144.6560929122
21
203.6804213827
31
0.0000000000
11
144.6264605096
21
203.6896021632
31
0.0000000000
11
144.5995389654
21
203.6992712327
31
0.0000000000
11
144.5753569658
21
203.7097193263
31
0.0000000000
11
144.5539319739
21
203.7216545014
31
0.0000000000
11
144.5367819183
21
203.7361135452
31
0.0000000000
11
144.5288461538
21
203.7547155172
31
0.0000000000
0
SPLINE
5
37E
100
AcDbEntity
8
0
100
AcDbSpline
62
7
6
CONTINUOUS
70
0
71
3
72
10
73
6
74
4
42
0.0000001000
43
0.0000001000
44
0.0000000001
12
0.2500307992
22
-0.2448186322
32
0.0000000000
13
0.3499307978
23
0.0000000000
33
0.0000000000
40
0.0000000000
40
0.0000000000
40
0.0000000000
40
0.0000000000
40
0.3890051404
40
0.7052067849
40
1.0000000000
40
1.0000000000
40
1.0000000000
40
1.0000000000
10
146.2229478887
20
203.4075850074
30
0.0000000000
10
146.2553689774
20
203.3758397720
30
0.0000000000
10
146.3183430209
20
203.3220439011
30
0.0000000000
10
146.4227453624
20
203.2673382399
30
0.0000000000
10
146.4944604122
20
203.2547155172
30
0.0000000000
10
146.5288461538
20
203.2547155172
30
0.0000000000
11
146.2229478887
21
203.4075850074
31
0.0000000000
11
146.3280852560
21
203.3211204672
31
0.0000000000
11
146.4271031780
21
203.2717384408
31
0.0000000000
11
146.5288461538
21
203.2547155172
31
0.0000000000
0
SPLINE
5
37F
100
AcDbEntity
8
0
100
AcDbSpline
62
9
6
CONTINUOUS
70
0
71
3
72
11
73
7
74
5
42
0.0000001000
43
0.0000001000
44
0.0000000001
12
0.4108412034
22
0.0000000000
32
0.0000000000
13
0.0000000000
23
0.4108412034
33
0.0000000000
40
0.0000000000
40
0.0000000000
40
0.0000000000
40
0.0000000000
40
0.3727557855
40
0.6902458352
40
0.9066990775
40
1.0000000000
40
1.0000000000
40
1.0000000000
40
1.0000000000
10
148.6288461538
20
179.7265304379
30
0.0000000000
10
148.6798939657
20
179.7265304379
30
0.0000000000
10
148.7729876092
20
179.7288893126
30
0.0000000000
10
148.9019325343
20
179.7413752947
30
0.0000000000
10
148.9758100037
20
179.7552830120
30
0.0000000000
10
149.0288461538
20
179.7746025047
30
0.0000000000
10
149.0288461538
20
179.7873797924
30
0.0000000000
11
148.6288461538
21
179.7265304379
31
0.0000000000
11
148.7819195268
21
179.7311623192
31
0.0000000000
11
148.9116888663
21
179.7443528012
31
0.0000000000
11
148.9983979669
21
179.7640937526
31
0.0000000000
11
149.0288461538
21
179.7873797924
31
0.0000000000
0
SPLINE
5
380
100
AcDbEntity
8
0
100
AcDbSpline
62
9
6
CONTINUOUS
70
0
71
3
72
11
73
7
74
5
42
0.0000001000
43
0.0000001000
44
0.0000000001
12
-0.0003621809
22
1.8271726732
32
0.0000000000
13
1.5011585963
23
1.0416731626
33
0.0000000000
40
0.0000000000
40
0.0000000000
40
0.0000000000
40
0.0000000000
40
0.2506584780
40
0.5008290238
40
0.7507028417
40
1.0000000000
40
1.0000000000
40
1.0000000000
40
1.0000000000
10
148.6288461538
20
201.6938661627
30
0.0000000000
10
148.6288158926
20
201.8465316032
30
0.0000000000
10
148.6660088521
20
202.1528317339
30
0.0000000000
10
148.8296292896
20
202.5843684875
30
0.0000000000
10
149.0909106088
20
202.9637711400
30
0.0000000000
10
149.3206409658
20
203.1681534641
30
0.0000000000
10
149.4453858232
20
203.2547155172
30
0.0000000000
11
148.6288461538
21
201.6938661627
31
0.0000000000
11
148.6840716351
21
202.1485207402
31
0.0000000000
11
148.8460554254
21
202.5759620161
31
0.0000000000
11
149.1050635613
21
202.9519463405
31
0.0000000000
11
149.4453858232
21
203.2547155172
31
0.0000000000
0
SPLINE
5
381
100
AcDbEntity
8
0
100
AcDbSpline
62
9
6
CONTINUOUS
70
0
71
3
72
11
73
7
74
5
42
0.0000001000
43
0.0000001000
44
0.0000000001
12
0.5012111644
22
0.0000000000
32
0.0000000000
13
-0.0000000250
23
0.5012111644
33
0.0000000000
40
0.0000000000
40
0.0000000000
40
0.0000000000
40
0.0000000000
40
0.0777405221
40
0.2944490261
40
0.6182257391
40
1.0000000000
40
1.0000000000
40
1.0000000000
40
1.0000000000
10
204.3625394363
20
203.2547155172
30
0.0000000000
10
204.3755275755
20
203.2547155172
30
0.0000000000
10
204.3638760006
20
203.3321286196
30
0.0000000000
10
204.3849112059
20
203.4098092414
30
0.0000000000
10
204.3811902948
20
203.5766988027
30
0.0000000000
10
204.3843491332
20
203.6909323433
30
0.0000000000
10
204.3843491300
20
203.7547155172
30
0.0000000000
11
204.3625394363
21
203.2547155172
31
0.0000000000
11
204.3708856320
21
203.2927755600
31
0.0000000000
11
204.3779612046
21
203.4011615761
31
0.0000000000
11
204.3826889624
21
203.5633731974
31
0.0000000000
11
204.3843491300
21
203.7547155172
31
0.0000000000
0
SPLINE
5
382
100
AcDbEntity
8
0
100
AcDbSpline
62
9
6
CONTINUOUS
70
0
71
3
72
11
73
7
74
5
42
0.0000001000
43
0.0000001000
44
0.0000000001
12
0.4108412598
22
-0.0000000002
32
0.0000000000
13
0.0000000000
23
0.4108412598
33
0.0000000000
40
0.0000000000
40
0.0000000000
40
0.0000000000
40
0.0000000000
40
0.3727654202
40
0.6902547854
40
0.9067023123
40
1.0000000000
40
1.0000000000
40
1.0000000000
40
1.0000000000
10
148.6288461538
20
201.6938661627
30
0.0000000000
10
148.6798952921
20
201.6938661627
30
0.0000000000
10
148.7729901637
20
201.6962250929
30
0.0000000000
10
148.9019354341
20
201.7087114994
30
0.0000000000
10
148.9758120561
20
201.7226191216
30
0.0000000000
10
149.0288461538
20
201.7419386712
30
0.0000000000
10
149.0288461538
20
201.7547155177
30
0.0000000000
11
148.6288461538
21
201.6938661627
31
0.0000000000
11
148.7819235004
21
201.6984982946
31
0.0000000000
11
148.9116925438
21
201.7116890863
31
0.0000000000
11
148.9983992670
21
201.7314299568
31
0.0000000000
11
149.0288461538
21
201.7547155177
31
0.0000000000
0
SPLINE
5
383
100
AcDbEntity
8
0
100
AcDbSpline
62
9
6
CONTINUOUS
70
0
71
3
72
8
73
4
74
2
42
0.0000001000
43
0.0000001000
44
0.0000000001
12
0.1709411751
22
0.2127183176
32
0.0000000000
13
0.1352924662
23
0.2386035410
33
0.0000000000
40
0.0000000000
40
0.0000000000
40
0.0000000000
40
0.0000000000
40
1.0000000000
40
1.0000000000
40
1.0000000000
40
1.0000000000
10
144.1704342519
20
183.1592079697
30
0.0000000000
10
144.2274146436
20
183.2301140756
30
0.0000000000
10
144.2790331136
20
183.3058221406
30
0.0000000000
10
144.3241306023
20
183.3853566543
30
0.0000000000
11
144.1704342519
21
183.1592079697
31
0.0000000000
11
144.3241306023
21
183.3853566543
31
0.0000000000
0
SPLINE
5
384
100
AcDbEntity
8
0
100
AcDbSpline
62
9
6
CONTINUOUS
70
0
71
3
72
9
73
5
74
3
42
0.0000001000
43
0.0000001000
44
0.0000000001
12
0.3940529231
22
0.6949568255
32
0.0000000000
13
0.0000000000
23
0.7948250092
33
0.0000000000
40
0.0000000000
40
0.0000000000
40
0.0000000000
40
0.0000000000
40
0.3365489865
40
1.0000000000
40
1.0000000000
40
1.0000000000
40
1.0000000000
10
144.3241306023
20
183.3853566543
30
0.0000000000
10
144.3683366396
20
183.4633189927
30
0.0000000000
10
144.4810700388
20
183.7058958807
30
0.0000000000
10
144.5288461538
20
183.9728215513
30
0.0000000000
10
144.5288461538
20
184.1485973706
30
0.0000000000
11
144.3241306023
21
183.3853566543
31
0.0000000000
11
144.4368598610
21
183.6293548745
31
0.0000000000
11
144.5288461538
21
184.1485973706
31
0.0000000000
0
SPLINE
5
385
100
AcDbEntity
8
0
100
AcDbSpline
62
9
6
CONTINUOUS
70
0
71
3
72
12
73
8
74
6
42
0.0000001000
43
0.0000001000
44
0.0000000001
12
-1.0384746656
22
0.0000000386
32
0.0000000000
13
-0.0000000263
23
-1.0384746656
33
0.0000000000
40
0.0000000000
40
0.0000000000
40
0.0000000000
40
0.0000000000
40
0.2976776723
40
0.5672355627
40
0.7836850271
40
0.9287238468
40
1.0000000000
40
1.0000000000
40
1.0000000000
40
1.0000000000
10
113.8788461538
20
208.4852137870
30
0.0000000000
10
113.7758025801
20
208.4852137908
30
0.0000000000
10
113.5790078287
20
208.4795103074
30
0.0000000000
10
113.3100709441
20
208.4575503723
30
0.0000000000
10
113.0902704668
20
208.4180888460
30
0.0000000000
10
112.9543746759
20
208.3827853729
30
0.0000000000
10
112.8788461545
20
208.3302188018
30
0.0000000000
10
112.8788461538
20
208.3055459753
30
0.0000000000
11
113.8788461538
21
208.4852137870
31
0.0000000000
11
113.5698405104
21
208.4764208883
31
0.0000000000
11
113.2910770366
21
208.4509024004
31
0.0000000000
11
113.0698418915
21
208.4111552178
31
0.0000000000
11
112.9277943766
21
208.3610690046
31
0.0000000000
11
112.8788461538
21
208.3055459753
31
0.0000000000
0
SPLINE
5
386
100
AcDbEntity
8
0
100
AcDbSpline
62
9
6
CONTINUOUS
70
0
71
3
72
10
73
6
74
4
42
0.0000001000
43
0.0000001000
44
0.0000000001
12
0.2107342858
22
-1.0501170553
32
0.0000000000
13
0.8052444334
23
-0.7062125541
33
0.0000000000
40
0.0000000000
40
0.0000000000
40
0.0000000000
40
0.0000000000
40
0.2982324193
40
0.6284659716
40
1.0000000000
40
1.0000000000
40
1.0000000000
40
1.0000000000
10
142.5517901276
20
182.1868349814
30
0.0000000000
10
142.5727393929
20
182.0824419981
30
0.0000000000
10
142.6469152649
20
181.8677424704
30
0.0000000000
10
142.8409939537
20
181.5649684713
30
0.0000000000
10
143.0169229537
20
181.3842161475
30
0.0000000000
10
143.1166481898
20
181.2967554825
30
0.0000000000
11
142.5517901276
21
182.1868349814
31
0.0000000000
11
142.6539013753
21
181.8841731351
31
0.0000000000
11
142.8417764091
21
181.5844982842
31
0.0000000000
11
143.1166481898
21
181.2967554825
31
0.0000000000
0
SPLINE
5
387
100
AcDbEntity
8
0
100
AcDbSpline
62
9
6
CONTINUOUS
70
0
71
3
72
8
73
4
74
2
42
0.0000001000
43
0.0000001000
44
0.0000000001
12
-0.1713276892
22
0.2131992935
32
0.0000000000
13
-0.1355107368
23
0.2392000949
33
0.0000000000
40
0.0000000000
40
0.0000000000
40
0.0000000000
40
0.0000000000
40
1.0000000000
40
1.0000000000
40
1.0000000000
40
1.0000000000
10
176.8872580562
20
183.1592079689
30
0.0000000000
10
176.8301488265
20
183.2302744001
30
0.0000000000
10
176.7784257070
20
183.3061665202
30
0.0000000000
10
176.7332554614
20
183.3858998851
30
0.0000000000
11
176.8872580562
21
183.1592079689
31
0.0000000000
11
176.7332554614
21
183.3858998851
31
0.0000000000
0
SPLINE
5
388
100
AcDbEntity
8
0
100
AcDbSpline
62
9
6
CONTINUOUS
70
0
71
3
72
9
73
5
74
3
42
0.0000001000
43
0.0000001000
44
0.0000000001
12
-0.3934928754
22
0.6945835831
32
0.0000000000
13
0.0000000000
23
0.7942086673
33
0.0000000000
40
0.0000000000
40
0.0000000000
40
0.0000000000
40
0.0000000000
40
0.3370485356
40
1.0000000000
40
1.0000000000
40
1.0000000000
40
1.0000000000
10
176.7332554614
20
183.3858998851
30
0.0000000000
10
176.6890467289
20
183.4639360116
30
0.0000000000
10
176.5765054776
20
183.7063805575
30
0.0000000000
10
176.5288461538
20
183.9730901043
30
0.0000000000
10
176.5288461538
20
184.1485973706
30
0.0000000000
11
176.7332554614
21
183.3858998851
31
0.0000000000
11
176.6205536993
21
183.6301237157
31
0.0000000000
11
176.5288461538
21
184.1485973706
31
0.0000000000
0
SPLINE
5
389
100
AcDbEntity
8
0
100
AcDbSpline
62
9
6
CONTINUOUS
70
0
71
3
72
12
73
8
74
6
42
0.0000001000
43
0.0000001000
44
0.0000000001
12
-1.0384749487
22
-0.0000000001
32
0.0000000000
13
0.0000000000
23
-1.0384749487
33
0.0000000000
40
0.0000000000
40
0.0000000000
40
0.0000000000
40
0.0000000000
40
0.2976885354
40
0.5672510668
40
0.7836974245
40
0.9287287768
40
1.0000000000
40
1.0000000000
40
1.0000000000
40
1.0000000000
10
113.8788461538
20
218.4474483507
30
0.0000000000
10
113.7757987917
20
218.4474483507
30
0.0000000000
10
113.5789986461
20
218.4417444888
30
0.0000000000
10
113.3100573073
20
218.4197834652
30
0.0000000000
10
113.0902595723
20
218.3803208076
30
0.0000000000
10
112.9543677860
20
218.3450172002
30
0.0000000000
10
112.8788461538
20
218.2924516572
30
0.0000000000
10
112.8788461538
20
218.2677805305
30
0.0000000000
11
113.8788461538
21
218.4474483507
31
0.0000000000
11
113.5698291595
21
218.4386547816
31
0.0000000000
11
113.2910609016
21
218.4131348500
31
0.0000000000
11
113.0698291595
21
218.3733866249
31
0.0000000000
11
112.9277896376
21
218.3233009394
31
0.0000000000
11
112.8788461538
21
218.2677805305
31
0.0000000000
0
SPLINE
5
38A
100
AcDbEntity
8
0
100
AcDbSpline
62
9
6
CONTINUOUS
70
0
71
3
72
10
73
6
74
4
42
0.0000001000
43
0.0000001000
44
0.0000000001
12
0.8052342798
22
0.7062036359
32
0.0000000000
13
0.2107319232
23
1.0501037460
33
0.0000000000
40
0.0000000000
40
0.0000000000
40
0.0000000000
40
0.0000000000
40
0.3716505156
40
0.7019785152
40
1.0000000000
40
1.0000000000
40
1.0000000000
40
1.0000000000
10
177.9410441201
20
181.2967554834
30
0.0000000000
10
178.0407993652
20
181.3842424652
30
0.0000000000
10
178.2167687027
20
181.5650537637
30
0.0000000000
10
178.4108434586
20
181.8678370844
30
0.0000000000
10
178.4849243384
20
182.0825173716
30
0.0000000000
10
178.5058585519
20
182.1868351975
30
0.0000000000
11
177.9410441201
21
181.2967554834
31
0.0000000000
11
178.2159901402
21
181.5845929622
31
0.0000000000
11
178.4038847214
21
181.8843696810
31
0.0000000000
11
178.5058585519
21
182.1868351975
31
0.0000000000
0
SPLINE
5
38B
100
AcDbEntity
8
0
100
AcDbSpline
62
9
6
CONTINUOUS
70
0
71
3
72
14
73
10
74
8
42
0.0000001000
43
0.0000001000
44
0.0000000001
12
3.0121392103
22
-0.0000367839
32
0.0000000000
13
0.0000056125
23
3.0121392105
33
0.0000000000
40
0.0000000000
40
0.0000000000
40
0.0000000000
40
0.0000000000
40
0.1432055664
40
0.2860189439
40
0.4300931849
40
0.5764675687
40
0.7229288864
40
0.8650454552
40
1.0000000000
40
1.0000000000
40
1.0000000000
40
1.0000000000
10
174.5288461538
20
182.3069506342
30
0.0000000000
10
174.6726311878
20
182.3069488783
30
0.0000000000
10
174.9606337131
20
182.3356187673
30
0.0000000000
10
175.3759078321
20
182.4639708172
30
0.0000000000
10
175.7591209973
20
182.6767762716
30
0.0000000000
10
176.0897527146
20
182.9708322701
30
0.0000000000
10
176.3420288893
20
183.3326073364
30
0.0000000000
10
176.4951185373
20
183.7337967759
30
0.0000000000
10
176.5288459014
20
184.0130967453
30
0.0000000000
10
176.5288461538
20
184.1485973706
30
0.0000000000
11
174.5288461538
21
182.3069506342
31
0.0000000000
11
174.9580608747
21
182.3498685467
31
0.0000000000
11
175.3689275644
21
182.4772971118
31
0.0000000000
11
175.7479578820
21
182.6886438156
31
0.0000000000
11
176.0767555606
21
182.9823867558
31
0.0000000000
11
176.3283033780
21
183.3448057095
31
0.0000000000
11
176.4802321141
21
183.7450128684
31
0.0000000000
11
176.5288461538
21
184.1485973706
31
0.0000000000
0
SPLINE
5
38C
100
AcDbEntity
8
0
100
AcDbSpline
62
9
6
CONTINUOUS
70
0
71
3
72
16
73
12
74
10
42
0.0000001000
43
0.0000001000
44
0.0000000001
12
-6.2629601189
22
0.0010964537
32
0.0000000000
13
-0.0008712948
23
-6.2629601543
33
0.0000000000
40
0.0000000000
40
0.0000000000
40
0.0000000000
40
0.0000000000
40
0.0771000334
40
0.1673941074
40
0.2678901473
40
0.3775847236
40
0.4953465758
40
0.6197215808
40
0.7477659964
40
0.8758162555
40
1.0000000000
40
1.0000000000
40
1.0000000000
40
1.0000000000
10
117.8670646012
20
222.4480190077
30
0.0000000000
10
117.7061064563
20
222.4480471866
30
0.0000000000
10
117.3564320944
20
222.4241989244
30
0.0000000000
10
116.8059001268
20
222.3165492170
30
0.0000000000
10
116.2128766288
20
222.1038911953
30
0.0000000000
10
115.6119600465
20
221.7688690823
30
0.0000000000
10
115.0408355702
20
221.3003543196
30
0.0000000000
10
114.5434109595
20
220.7025100245
30
0.0000000000
10
114.1628568123
20
219.9991470980
30
0.0000000000
10
113.9303311903
20
219.2346901741
30
0.0000000000
10
113.8788822207
20
218.7067009653
30
0.0000000000
10
113.8788461538
20
218.4474483507
30
0.0000000000
11
117.8670646012
21
222.4480190077
31
0.0000000000
11
117.3851960169
21
222.4168678563
31
0.0000000000
11
116.8303489884
21
222.3075779146
31
0.0000000000
11
116.2378163353
21
222.0953214346
31
0.0000000000
11
115.6378004831
21
221.7607059549
31
0.0000000000
11
115.0675816781
21
221.2929319564
31
0.0000000000
11
114.5693931867
21
220.6941162739
31
0.0000000000
11
114.1877513936
21
219.9888130599
31
0.0000000000
11
113.9544563879
21
219.2215222282
31
0.0000000000
11
113.8788461538
21
218.4474483507
31
0.0000000000
0
SPLINE
5
38D
100
AcDbEntity
8
0
100
AcDbSpline
62
9
6
CONTINUOUS
70
0
71
3
72
11
73
7
74
5
42
0.0000001000
43
0.0000001000
44
0.0000000001
12
-0.0000803404
22
-0.8203329573
32
0.0000000000
13
0.0025092686
23
-0.8203290878
33
0.0000000000
40
0.0000000000
40
0.0000000000
40
0.0000000000
40
0.0000000000
40
0.0728801970
40
0.2828053176
40
0.6046739594
40
1.0000000000
40
1.0000000000
40
1.0000000000
40
1.0000000000
10
117.8789174887
20
223.2677805303
30
0.0000000000
10
117.8789155369
20
223.2478518544
30
0.0000000000
10
117.8789142567
20
223.1705203508
30
0.0000000000
10
117.8789328056
20
223.0051757120
30
0.0000000000
10
117.8787657616
20
222.7516599731
30
0.0000000000
10
117.8792718113
20
222.5555475008
30
0.0000000000
10
117.8796024710
20
222.4474483507
30
0.0000000000
11
117.8789174887
21
223.2677805303
31
0.0000000000
11
117.8789155383
21
223.2079945051
31
0.0000000000
11
117.8789118989
21
223.0357860168
31
0.0000000000
11
117.8789069473
21
222.7717465723
31
0.0000000000
11
117.8796024710
21
222.4474483507
31
0.0000000000
0
SPLINE
5
38E
100
AcDbEntity
8
0
100
AcDbSpline
62
9
6
CONTINUOUS
70
0
71
3
72
12
73
8
74
6
42
0.0000001000
43
0.0000001000
44
0.0000000001
12
0.0000000000
22
-2.0571703554
32
0.0000000000
13
-2.0571703554
23
0.0000000050
33
0.0000000000
40
0.0000000000
40
0.0000000000
40
0.0000000000
40
0.0000000000
40
0.0659762955
40
0.2100916605
40
0.4276496481
40
0.6994836370
40
1.0000000000
40
1.0000000000
40
1.0000000000
40
1.0000000000
10
176.5288461538
20
202.4547155172
30
0.0000000000
10
176.5288461538
20
202.4094740241
30
0.0000000000
10
176.3677998505
20
202.3227279652
30
0.0000000000
10
176.1073057402
20
202.2639444675
30
0.0000000000
10
175.6644747905
20
202.1972078387
30
0.0000000000
10
175.1286695463
20
202.1601342793
30
0.0000000000
10
174.7349172716
20
202.1504687443
30
0.0000000000
10
174.5288461538
20
202.1504687448
30
0.0000000000
11
176.5288461538
21
202.4547155172
31
0.0000000000
11
176.4309591864
21
202.3606980940
31
0.0000000000
11
176.1468801426
21
202.2758837513
31
0.0000000000
11
175.7044166584
21
202.2085747076
31
0.0000000000
11
175.1468801426
21
202.1653596410
31
0.0000000000
11
174.5288461538
21
202.1504687448
31
0.0000000000
0
SPLINE
5
38F
100
AcDbEntity
8
0
100
AcDbSpline
62
9
6
CONTINUOUS
70
0
71
3
72
11
73
7
74
5
42
0.0000001000
43
0.0000001000
44
0.0000000001
12
-0.5135515036
22
-0.0000000006
32
0.0000000000
13
-0.0000000000
23
0.5135515036
33
0.0000000000
40
0.0000000000
40
0.0000000000
40
0.0000000000
40
0.0000000000
40
0.3727557860
40
0.6902458358
40
0.9066990789
40
1.0000000000
40
1.0000000000
40
1.0000000000
40
1.0000000000
10
172.5288461538
20
201.6786538241
30
0.0000000000
10
172.4650363891
20
201.6786538241
30
0.0000000000
10
172.3486693349
20
201.6816024177
30
0.0000000000
10
172.1874881777
20
201.6972098945
30
0.0000000000
10
172.0951413429
20
201.7145945443
30
0.0000000000
10
172.0288461538
20
201.7387439078
30
0.0000000000
10
172.0288461538
20
201.7547155172
30
0.0000000000
11
172.5288461538
21
201.6786538241
31
0.0000000000
11
172.3375044376
21
201.6844436758
31
0.0000000000
11
172.1752927634
21
201.7009317786
31
0.0000000000
11
172.0669063877
21
201.7256079689
31
0.0000000000
11
172.0288461538
21
201.7547155172
31
0.0000000000
0
SPLINE
5
390
100
AcDbEntity
8
0
100
AcDbSpline
62
7
6
CONTINUOUS
70
0
71
3
72
11
73
7
74
5
42
0.0000001000
43
0.0000001000
44
0.0000000001
12
0.3688812933
22
-0.0290172083
32
0.0000000000
13
0.2526224146
23
-0.2703651652
33
0.0000000000
40
0.0000000000
40
0.0000000000
40
0.0000000000
40
0.0000000000
40
0.2856822472
40
0.5504534905
40
0.7939626467
40
1.0000000000
40
1.0000000000
40
1.0000000000
40
1.0000000000
10
145.8766636815
20
203.5194653494
30
0.0000000000
10
145.9117912938
20
203.5167021156
30
0.0000000000
10
145.9792926878
20
203.5087714610
30
0.0000000000
10
146.0752716290
20
203.4878588853
30
0.0000000000
10
146.1579237739
20
203.4569546533
30
0.0000000000
10
146.2055980042
20
203.4261534485
30
0.0000000000
10
146.2229478887
20
203.4075850074
30
0.0000000000
11
145.8766636815
21
203.5194653494
31
0.0000000000
11
145.9815985866
21
203.5067010580
31
0.0000000000
11
146.0771277280
21
203.4849645680
31
0.0000000000
11
146.1609856041
21
203.4520026249
31
0.0000000000
11
146.2229478887
21
203.4075850074
31
0.0000000000
0
SPLINE
5
391
100
AcDbEntity
8
0
100
AcDbSpline
62
9
6
CONTINUOUS
70
0
71
3
72
12
73
8
74
6
42
0.0000001000
43
0.0000001000
44
0.0000000001
12
1.0384749492
22
0.0000000000
32
0.0000000000
13
0.0000000000
23
-1.0384749492
33
0.0000000000
40
0.0000000000
40
0.0000000000
40
0.0000000000
40
0.0000000000
40
0.2976885353
40
0.5672510665
40
0.7836974241
40
0.9287287762
40
1.0000000000
40
1.0000000000
40
1.0000000000
40
1.0000000000
10
207.1788461538
20
208.4852137870
30
0.0000000000
10
207.2818935160
20
208.4852137870
30
0.0000000000
10
207.4786936616
20
208.4795099252
30
0.0000000000
10
207.7476350005
20
208.4575489019
30
0.0000000000
10
207.9674327352
20
208.4180862443
30
0.0000000000
10
208.1033245224
20
208.3827826378
30
0.0000000000
10
208.1788461538
20
208.3302170937
30
0.0000000000
10
208.1788461538
20
208.3055459669
30
0.0000000000
11
207.1788461538
21
208.4852137870
31
0.0000000000
11
207.4878631482
21
208.4764202180
31
0.0000000000
11
207.7666314061
21
208.4509002867
31
0.0000000000
11
207.9878631482
21
208.4111520619
31
0.0000000000
11
208.1299026701
21
208.3610663766
31
0.0000000000
11
208.1788461538
21
208.3055459669
31
0.0000000000
0
SPLINE
5
392
100
AcDbEntity
8
0
100
AcDbSpline
62
9
6
CONTINUOUS
70
0
71
3
72
18
73
14
74
12
42
0.0000001000
43
0.0000001000
44
0.0000000001
12
3.5967136698
22
-0.3443040456
32
0.0000000000
13
3.1361673861
23
1.7942543367
33
0.0000000000
40
0.0000000000
40
0.0000000000
40
0.0000000000
40
0.0000000000
40
0.1323327812
40
0.2520637762
40
0.3603635368
40
0.4600038713
40
0.5523199800
40
0.6379962287
40
0.7184394070
40
0.7947587199
40
0.8671879506
40
0.9356845110
40
1.0000000000
40
1.0000000000
40
1.0000000000
40
1.0000000000
10
143.1166349573
20
181.2967554735
30
0.0000000000
10
143.2752893317
20
181.2815679028
30
0.0000000000
10
143.5799298370
20
181.2742867679
30
0.0000000000
10
144.0126083720
20
181.3174640247
30
0.0000000000
10
144.3999649387
20
181.3956339526
30
0.0000000000
10
144.7480361855
20
181.4947401316
30
0.0000000000
10
145.0635874223
20
181.6058160457
30
0.0000000000
10
145.3522737738
20
181.7223913678
30
0.0000000000
10
145.6191142781
20
181.8410384697
30
0.0000000000
10
145.8686019931
20
181.9592039792
30
0.0000000000
10
146.1026209446
20
182.0762686798
30
0.0000000000
10
146.3215021565
20
182.1911608542
30
0.0000000000
10
146.4615484650
20
182.2684897299
30
0.0000000000
10
146.5287831781
20
182.3069558449
30
0.0000000000
11
143.1166349573
21
181.2967554735
31
0.0000000000
11
143.5946104394
21
181.2842537193
31
0.0000000000
11
144.0251691383
21
181.3262988427
31
0.0000000000
11
144.4089098377
21
181.4028613683
31
0.0000000000
11
144.7553542908
21
181.5007786582
31
0.0000000000
11
145.0701993111
21
181.6109143458
31
0.0000000000
11
145.3573946128
21
181.7264446963
31
0.0000000000
11
145.6231538717
21
181.8441375532
31
0.0000000000
11
145.8723923944
21
181.9621213960
31
0.0000000000
11
146.1064569579
21
182.0791669905
31
0.0000000000
11
146.3255375954
21
182.1942945343
31
0.0000000000
11
146.5287831781
21
182.3069558449
31
0.0000000000
0
SPLINE
5
393
100
AcDbEntity
8
0
100
AcDbSpline
62
9
6
CONTINUOUS
70
0
71
3
72
18
73
14
74
12
42
0.0000001000
43
0.0000001000
44
0.0000000001
12
4.1566065437
22
0.0002129940
32
0.0000000000
13
2.0939319593
23
3.5906582899
33
0.0000000000
40
0.0000000000
40
0.0000000000
40
0.0000000000
40
0.0000000000
40
0.1516123020
40
0.2860497812
40
0.4047626102
40
0.5108647692
40
0.6058343112
40
0.6904617011
40
0.7663003215
40
0.8345711231
40
0.8958875798
40
0.9508226475
40
1.0000000000
40
1.0000000000
40
1.0000000000
40
1.0000000000
10
143.1166431088
20
180.2786012843
30
0.0000000000
10
143.3267073377
20
180.2786120485
30
0.0000000000
10
143.7238580322
20
180.3120969583
30
0.0000000000
10
144.2703415268
20
180.4460652282
30
0.0000000000
10
144.7344568819
20
180.6297106499
30
0.0000000000
10
145.1247871484
20
180.8413274283
30
0.0000000000
10
145.4513505495
20
181.0662174303
30
0.0000000000
10
145.7229915043
20
181.2937950619
30
0.0000000000
10
145.9484042758
20
181.5170349727
30
0.0000000000
10
146.1353939968
20
181.7319142775
30
0.0000000000
10
146.2906670132
20
181.9352213455
30
0.0000000000
10
146.4192219796
20
182.1251028828
30
0.0000000000
10
146.4945214771
20
182.2481990466
30
0.0000000000
10
146.5288461538
20
182.3070587361
30
0.0000000000
11
143.1166431088
21
180.2786012843
31
0.0000000000
11
143.7446287186
21
180.3312975585
31
0.0000000000
11
144.2874138073
21
180.4641355416
31
0.0000000000
11
144.7462797540
21
180.6455950851
31
0.0000000000
11
145.1340325788
21
180.8557158473
31
0.0000000000
11
145.4591749987
21
181.0795702086
31
0.0000000000
11
145.7288577598
21
181.3054202689
31
0.0000000000
11
145.9528602856
21
181.5272166729
31
0.0000000000
11
146.1392508318
21
181.7411950273
31
0.0000000000
11
146.2939545730
21
181.9437404450
31
0.0000000000
11
146.4221354000
21
182.1327124332
31
0.0000000000
11
146.5288461538
21
182.3070587361
31
0.0000000000
0
SPLINE
5
394
100
AcDbEntity
8
0
100
AcDbSpline
62
9
6
CONTINUOUS
70
0
71
3
72
11
73
7
74
5
42
0.0000001000
43
0.0000001000
44
0.0000000001
12
0.0312676088
22
0.8198525339
32
0.0000000000
13
-0.0006436324
23
0.8204536473
33
0.0000000000
40
0.0000000000
40
0.0000000000
40
0.0000000000
40
0.0000000000
40
0.3953556726
40
0.7172097958
40
0.9271282502
40
1.0000000000
40
1.0000000000
40
1.0000000000
40
1.0000000000
10
203.1701005428
20
222.4474483507
30
0.0000000000
10
203.1742211516
20
222.5554928007
30
0.0000000000
10
203.1805338427
20
222.7515851145
30
0.0000000000
10
203.1785187280
20
223.0051554206
30
0.0000000000
10
203.1787810030
20
223.1705130842
30
0.0000000000
10
203.1787936118
20
223.2478512327
30
0.0000000000
10
203.1787779776
20
223.2677805303
30
0.0000000000
11
203.1701005428
21
222.4474483507
31
0.0000000000
11
203.1787888804
21
222.7717009623
31
0.0000000000
11
203.1787833355
21
223.0357657143
31
0.0000000000
11
203.1787798054
21
223.2079930081
31
0.0000000000
11
203.1787779776
21
223.2677805303
31
0.0000000000
0
SPLINE
5
395
100
AcDbEntity
8
0
100
AcDbSpline
62
9
6
CONTINUOUS
70
0
71
3
72
9
73
5
74
3
42
0.0000001000
43
0.0000001000
44
0.0000000001
12
-0.0232260388
22
0.1509023426
32
0.0000000000
13
0.0000098414
23
0.1526792906
33
0.0000000000
40
0.0000000000
40
0.0000000000
40
0.0000000000
40
0.0000000000
40
0.5014105210
40
1.0000000000
40
1.0000000000
40
1.0000000000
40
1.0000000000
10
132.7904846434
20
179.7265304379
30
0.0000000000
10
132.7866027166
20
179.7517517787
30
0.0000000000
10
132.7807833598
20
179.8023674810
30
0.0000000000
10
132.7788445182
20
179.8532790615
30
0.0000000000
10
132.7788461538
20
179.8786538241
30
0.0000000000
11
132.7904846434
21
179.7265304379
31
0.0000000000
11
132.7817425532
21
179.8025846575
31
0.0000000000
11
132.7788461538
21
179.8786538241
31
0.0000000000
0
SPLINE
5
396
100
AcDbEntity
8
0
100
AcDbSpline
62
9
6
CONTINUOUS
70
0
71
3
72
11
73
7
74
5
42
0.0000001000
43
0.0000001000
44
0.0000000001
12
0.0763291917
22
-0.4959154787
32
0.0000000000
13
0.4961782100
23
0.0746022213
33
0.0000000000
40
0.0000000000
40
0.0000000000
40
0.0000000000
40
0.0000000000
40
0.0928665895
40
0.3084222458
40
0.6255873415
40
1.0000000000
40
1.0000000000
40
1.0000000000
40
1.0000000000
10
132.2963015401
20
179.7265300765
30
0.0000000000
10
132.2986643507
20
179.7111787502
30
0.0000000000
10
132.3658957220
20
179.6976347754
30
0.0000000000
10
132.4574630406
20
179.6944667924
30
0.0000000000
10
132.6154979771
20
179.7030442211
30
0.0000000000
10
132.7285595091
20
179.7172197659
30
0.0000000000
10
132.7904846434
20
179.7265304379
30
0.0000000000
11
132.2963015401
21
179.7265300765
31
0.0000000000
11
132.3371488536
21
179.7041088401
31
0.0000000000
11
132.4450189695
21
179.6962477480
31
0.0000000000
11
132.6039639274
21
179.7041090138
31
0.0000000000
11
132.7904846434
21
179.7265304379
31
0.0000000000
0
SPLINE
5
397
100
AcDbEntity
8
0
100
AcDbSpline
62
9
6
CONTINUOUS
70
0
71
3
72
11
73
7
74
5
42
0.0000001000
43
0.0000001000
44
0.0000000001
12
0.0000000000
22
-0.5135515043
32
0.0000000000
13
0.5135515043
23
0.0000000000
33
0.0000000000
40
0.0000000000
40
0.0000000000
40
0.0000000000
40
0.0000000000
40
0.0933009227
40
0.3097541650
40
0.6272442146
40
1.0000000000
40
1.0000000000
40
1.0000000000
40
1.0000000000
10
132.2788461538
20
179.9547155172
30
0.0000000000
10
132.2788461538
20
179.9387439075
30
0.0000000000
10
132.3451413414
20
179.9145945415
30
0.0000000000
10
132.4374881784
20
179.8972098951
30
0.0000000000
10
132.5986693347
20
179.8816024174
30
0.0000000000
10
132.7150363891
20
179.8786538241
30
0.0000000000
10
132.7788461538
20
179.8786538241
30
0.0000000000
11
132.2788461538
21
179.9547155172
31
0.0000000000
11
132.3169063876
21
179.9256079673
31
0.0000000000
11
132.4252927633
21
179.9009317782
31
0.0000000000
11
132.5875044377
21
179.8844436757
31
0.0000000000
11
132.7788461538
21
179.8786538241
31
0.0000000000
0
SPLINE
5
398
100
AcDbEntity
8
0
100
AcDbSpline
62
9
6
CONTINUOUS
70
0
71
3
72
11
73
7
74
5
42
0.0000001000
43
0.0000001000
44
0.0000000001
12
0.0000000000
22
-0.5135515046
32
0.0000000000
13
0.5135515046
23
0.0000000004
33
0.0000000000
40
0.0000000000
40
0.0000000000
40
0.0000000000
40
0.0000000000
40
0.0933009073
40
0.3097541300
40
0.6272441832
40
1.0000000000
40
1.0000000000
40
1.0000000000
40
1.0000000000
10
132.2788461538
20
180.3546652114
30
0.0000000000
10
132.2788461538
20
180.3386936043
30
0.0000000000
10
132.3451413308
20
180.3145442374
30
0.0000000000
10
132.4374881647
20
180.2971595915
30
0.0000000000
10
132.5986693232
20
180.2815521116
30
0.0000000000
10
132.7150363837
20
180.2786035183
30
0.0000000000
10
132.7788461538
20
180.2786035183
30
0.0000000000
11
132.2788461538
21
180.3546652114
31
0.0000000000
11
132.3169063799
21
180.3255576643
31
0.0000000000
11
132.4252927453
21
180.3008814750
31
0.0000000000
11
132.5875044215
21
180.2843933708
31
0.0000000000
11
132.7788461538
21
180.2786035183
31
0.0000000000
0
SPLINE
5
399
100
AcDbEntity
8
0
100
AcDbSpline
62
9
6
CONTINUOUS
70
0
71
3
72
11
73
7
74
5
42
0.0000001000
43
0.0000001000
44
0.0000000001
12
0.0000000000
22
0.7290255779
32
0.0000000000
13
0.7290255779
23
-0.0000000000
33
0.0000000000
40
0.0000000000
40
0.0000000000
40
0.0000000000
40
0.0000000000
40
0.2332175100
40
0.4765997713
40
0.7336719567
40
1.0000000000
40
1.0000000000
40
1.0000000000
40
1.0000000000
10
132.2788461538
20
180.8637396064
30
0.0000000000
10
132.2788461538
20
180.9204134497
30
0.0000000000
10
132.3063779050
20
181.0377002222
30
0.0000000000
10
132.4202209513
20
181.1812688814
30
0.0000000000
10
132.5858197380
20
181.2751881381
30
0.0000000000
10
132.7141261686
20
181.2967523083
30
0.0000000000
10
132.7788461538
20
181.2967523083
30
0.0000000000
11
132.2788461538
21
180.8637396064
31
0.0000000000
11
132.3169063876
21
181.0294463934
31
0.0000000000
11
132.4252927633
21
181.1699258242
31
0.0000000000
11
132.5875044377
21
181.2637911790
31
0.0000000000
11
132.7788461538
21
181.2967523083
31
0.0000000000
0
SPLINE
5
39A
100
AcDbEntity
8
0
100
AcDbSpline
62
9
6
CONTINUOUS
70
0
71
3
72
16
73
12
74
10
42
0.0000001000
43
0.0000001000
44
0.0000000001
12
-0.0008688775
22
6.2695674066
32
0.0000000000
13
-6.2695526914
23
-0.0136114025
33
0.0000000000
40
0.0000000000
40
0.0000000000
40
0.0000000000
40
0.0000000000
40
0.1242934781
40
0.2524598390
40
0.3806068990
40
0.5050563652
40
0.6228560538
40
0.7325553265
40
0.8330171169
40
0.9232351611
40
1.0000000000
40
1.0000000000
40
1.0000000000
40
1.0000000000
10
207.1788461538
20
218.4474483507
30
0.0000000000
10
207.1788101552
20
218.7072037971
30
0.0000000000
10
207.1271594210
20
219.2362287583
30
0.0000000000
10
206.8937389915
20
220.0020380405
30
0.0000000000
10
206.5118033413
20
220.7063369834
30
0.0000000000
10
206.0127697037
20
221.3045182296
30
0.0000000000
10
205.4400938685
20
221.7727759048
30
0.0000000000
10
204.8379113137
20
222.1070640631
30
0.0000000000
10
204.2440487897
20
222.3187103532
30
0.0000000000
10
203.6936321847
20
222.4251424549
30
0.0000000000
10
203.3444105507
20
222.4483608299
30
0.0000000000
10
203.1839834832
20
222.4480125375
30
0.0000000000
11
207.1788461538
21
218.4474483507
31
0.0000000000
11
207.1029423546
21
219.2230092139
31
0.0000000000
11
206.8687459558
21
219.9916709513
31
0.0000000000
11
206.4857163238
21
220.6979164216
31
0.0000000000
11
205.9859181419
21
221.2970683083
31
0.0000000000
11
205.4141658157
21
221.7645722677
31
0.0000000000
11
204.8128819056
21
222.0984601146
31
0.0000000000
11
204.2195084116
21
222.3096979042
31
0.0000000000
11
203.6643213621
21
222.4178760168
31
0.0000000000
11
203.1839834832
21
222.4480125375
31
0.0000000000
0
SPLINE
5
39B
100
AcDbEntity
8
0
100
AcDbSpline
62
9
6
CONTINUOUS
70
0
71
3
72
12
73
8
74
6
42
0.0000001000
43
0.0000001000
44
0.0000000001
12
1.0384749311
22
0.0000000836
32
0.0000000000
13
0.0000000000
23
-1.0384749311
33
0.0000000000
40
0.0000000000
40
0.0000000000
40
0.0000000000
40
0.0000000000
40
0.2976862335
40
0.5672483213
40
0.7836955845
40
0.9287281622
40
1.0000000000
40
1.0000000000
40
1.0000000000
40
1.0000000000
10
207.1788461538
20
218.4474483507
30
0.0000000000
10
207.2818927174
20
218.4474483590
30
0.0000000000
10
207.4786919102
20
218.4417445805
30
0.0000000000
10
207.7476326060
20
218.4197837710
30
0.0000000000
10
207.9674310209
20
218.3803212429
30
0.0000000000
10
208.1033235893
20
218.3450176291
30
0.0000000000
10
208.1788461538
20
218.2924518674
30
0.0000000000
10
208.1788461538
20
218.2677805285
30
0.0000000000
11
207.1788461538
21
218.4474483507
31
0.0000000000
11
207.4878607561
21
218.4386549416
31
0.0000000000
11
207.7666285687
21
218.4131352512
31
0.0000000000
11
207.9878612788
21
218.3733871175
31
0.0000000000
11
208.1299020929
21
218.3233012776
31
0.0000000000
11
208.1788461538
21
218.2677805285
31
0.0000000000
0
SPLINE
5
39C
100
AcDbEntity
8
0
100
AcDbSpline
62
9
6
CONTINUOUS
70
0
71
3
72
18
73
14
74
12
42
0.0000001000
43
0.0000001000
44
0.0000000001
12
3.1360835897
22
-1.7943928102
32
0.0000000000
13
3.5967129623
23
0.3442698154
33
0.0000000000
40
0.0000000000
40
0.0000000000
40
0.0000000000
40
0.0000000000
40
0.0642082230
40
0.1326558243
40
0.2050700908
40
0.2813951432
40
0.3618474728
40
0.4475471598
40
0.5399316661
40
0.6396857144
40
0.7480550177
40
0.8676732897
40
1.0000000000
40
1.0000000000
40
1.0000000000
40
1.0000000000
10
174.5289092411
20
182.3069558595
30
0.0000000000
10
174.5960300259
20
182.2685509350
30
0.0000000000
10
174.7359103746
20
182.1913111010
30
0.0000000000
10
174.9546056198
20
182.0765089700
30
0.0000000000
10
175.1885558958
20
181.9594643108
30
0.0000000000
10
175.4380372731
20
181.8412863226
30
0.0000000000
10
175.7049131044
20
181.7226059152
30
0.0000000000
10
175.9937038159
20
181.6059651355
30
0.0000000000
10
176.3094820233
20
181.4947887205
30
0.0000000000
10
176.6578442564
20
181.3955961251
30
0.0000000000
10
177.0452898907
20
181.3174344290
30
0.0000000000
10
177.4779097002
20
181.2742904235
30
0.0000000000
10
177.7824062118
20
181.2815683286
30
0.0000000000
10
177.9410532765
20
181.2967536927
30
0.0000000000
11
174.5289092411
21
182.3069558595
31
0.0000000000
11
174.7318124575
21
182.1944768540
31
0.0000000000
11
174.9507327014
21
182.0794249489
31
0.0000000000
11
175.1847431711
21
181.9623927100
31
0.0000000000
11
175.4339940665
21
181.8443872444
31
0.0000000000
11
175.6997765380
21
181.7266659353
31
0.0000000000
11
175.9870423090
21
181.6110847602
31
0.0000000000
11
176.3021140793
21
181.5008499435
31
0.0000000000
11
176.6489530642
21
181.4028193685
31
0.0000000000
11
177.0329449638
21
181.3262338816
31
0.0000000000
11
177.4631002348
21
181.2842529868
31
0.0000000000
11
177.9410532765
21
181.2967536927
31
0.0000000000
0
SPLINE
5
39D
100
AcDbEntity
8
0
100
AcDbSpline
62
9
6
CONTINUOUS
70
0
71
3
72
18
73
14
74
12
42
0.0000001000
43
0.0000001000
44
0.0000000001
12
2.0936102726
22
-3.5908459679
32
0.0000000000
13
4.1566066336
23
-0.0001807434
33
0.0000000000
40
0.0000000000
40
0.0000000000
40
0.0000000000
40
0.0000000000
40
0.0490945360
40
0.1039833013
40
0.1652800411
40
0.2335459461
40
0.3093855708
40
0.3940282352
40
0.4890634367
40
0.5952845352
40
0.7140743003
40
0.8483841113
40
1.0000000000
40
1.0000000000
40
1.0000000000
40
1.0000000000
10
174.5288461538
20
182.3070589416
30
0.0000000000
10
174.5631077621
20
182.2482953028
30
0.0000000000
10
174.6383172372
20
182.1253538560
30
0.0000000000
10
174.7667336684
20
181.9356281778
30
0.0000000000
10
174.9219216209
20
181.7323798466
30
0.0000000000
10
175.1088549510
20
181.5174950331
30
0.0000000000
10
175.3342450453
20
181.2942097157
30
0.0000000000
10
175.6059376634
20
181.0665166304
30
0.0000000000
10
175.9327060729
20
180.8414335310
30
0.0000000000
10
176.3233541989
20
180.6296368459
30
0.0000000000
10
176.7875766930
20
180.4459982948
30
0.0000000000
10
177.3340010136
20
180.3120838901
30
0.0000000000
10
177.7309799970
20
180.2786104185
30
0.0000000000
10
177.9410491999
20
180.2786012839
30
0.0000000000
11
174.5288461538
21
182.3070589416
31
0.0000000000
11
174.6353706013
21
182.1330021993
31
0.0000000000
11
174.7634244871
21
181.9441766607
31
0.0000000000
11
174.9180514345
21
181.7416757102
31
0.0000000000
11
175.1043952766
21
181.5276836624
31
0.0000000000
11
175.3283661566
21
181.3058493608
31
0.0000000000
11
175.5980630559
21
181.0799172909
31
0.0000000000
11
175.9234057654
21
180.8558725588
31
0.0000000000
11
176.3115904131
21
180.6455109842
31
0.0000000000
11
176.7707704375
21
180.4639760300
31
0.0000000000
11
177.3130488079
21
180.3312998469
31
0.0000000000
11
177.9410491999
21
180.2786012839
31
0.0000000000
0
SPLINE
5
39E
100
AcDbEntity
8
0
100
AcDbSpline
62
9
6
CONTINUOUS
70
0
71
3
72
14
73
10
74
8
42
0.0000001000
43
0.0000001000
44
0.0000000001
12
-1.6149523368
22
-0.3574835281
32
0.0000000000
13
-1.6540451998
23
0.0000147744
33
0.0000000000
40
0.0000000000
40
0.0000000000
40
0.0000000000
40
0.0000000000
40
0.1942459161
40
0.3702839839
40
0.5278831132
40
0.6686439113
40
0.7939972814
40
0.9047369301
40
1.0000000000
40
1.0000000000
40
1.0000000000
40
1.0000000000
10
145.8713521981
20
203.5199143815
30
0.0000000000
10
145.7667862328
20
203.4967678097
30
0.0000000000
10
145.5672712238
20
203.4534779414
30
0.0000000000
10
145.2824046108
20
203.3937931867
30
0.0000000000
10
145.0255940970
20
203.3440898238
30
0.0000000000
10
144.7952149099
20
203.3051893104
30
0.0000000000
10
144.5893347074
20
203.2768379994
30
0.0000000000
10
144.4074244400
20
203.2593462489
30
0.0000000000
10
144.2938397777
20
203.2547150483
30
0.0000000000
10
144.2413166366
20
203.2547155175
30
0.0000000000
11
145.8713521981
21
203.5199143815
31
0.0000000000
11
145.5573766404
21
203.4517411227
31
0.0000000000
11
145.2722963065
21
203.3924786736
31
0.0000000000
11
145.0162811277
21
203.3434047640
31
0.0000000000
11
144.7866442005
21
203.3050090203
31
0.0000000000
11
144.5811730622
21
203.2772323219
31
0.0000000000
11
144.3987858787
21
203.2603334376
31
0.0000000000
11
144.2413166366
21
203.2547155175
31
0.0000000000
0
SPLINE
5
39F
100
AcDbEntity
8
0
100
AcDbSpline
62
9
6
CONTINUOUS
70
0
71
3
72
14
73
10
74
8
42
0.0000001000
43
0.0000001000
44
0.0000000001
12
-1.3311315304
22
-0.9093805634
32
0.0000000000
13
-1.6062124132
23
-0.1377165345
33
0.0000000000
40
0.0000000000
40
0.0000000000
40
0.0000000000
40
0.0000000000
40
0.2137887540
40
0.4037420810
40
0.5680988634
40
0.7083216473
40
0.8259274907
40
0.9228441605
40
1.0000000000
40
1.0000000000
40
1.0000000000
40
1.0000000000
10
146.2341925127
20
203.3981549358
30
0.0000000000
10
146.1393321956
20
203.3333498233
30
0.0000000000
10
145.9614216156
20
203.2086319657
30
0.0000000000
10
145.7302858037
20
203.0088672373
30
0.0000000000
10
145.5193806299
20
202.8470498115
30
0.0000000000
10
145.3342326108
20
202.7157958055
30
0.0000000000
10
145.1706685566
20
202.6172902940
30
0.0000000000
10
145.0279222544
20
202.5517415752
30
0.0000000000
10
144.9361821985
20
202.5284357389
30
0.0000000000
10
144.8948726428
20
202.5248938606
30
0.0000000000
11
146.2341925127
21
203.3981549358
31
0.0000000000
11
145.9547442714
21
203.1964315566
31
0.0000000000
11
145.7178740724
21
203.0023538929
31
0.0000000000
11
145.5080173471
21
202.8406003534
31
0.0000000000
11
145.3225960104
21
202.7112972079
31
0.0000000000
11
145.1593032915
21
202.6149592397
31
0.0000000000
11
145.0162211137
21
202.5522026004
31
0.0000000000
11
144.8948726428
21
202.5248938606
31
0.0000000000
0
SPLINE
5
3A0
100
AcDbEntity
8
0
100
AcDbSpline
62
9
6
CONTINUOUS
70
0
71
3
72
10
73
6
74
4
42
0.0000001000
43
0.0000001000
44
0.0000000001
12
-0.3748370427
22
-0.0323834600
32
0.0000000000
13
-0.0007839915
23
-0.3762324846
33
0.0000000000
40
0.0000000000
40
0.0000000000
40
0.0000000000
40
0.0000000000
40
0.5354881229
40
0.8710350376
40
1.0000000000
40
1.0000000000
40
1.0000000000
40
1.0000000000
10
144.8948726428
20
202.5248938606
30
0.0000000000
10
144.8279657147
20
202.5191135412
30
0.0000000000
10
144.7109731440
20
202.5088082865
30
0.0000000000
10
144.6084185166
20
202.4871825442
30
0.0000000000
10
144.5288798563
20
202.4708891200
30
0.0000000000
10
144.5288461538
20
202.4547155172
30
0.0000000000
11
144.8948726428
21
202.5248938606
31
0.0000000000
11
144.6945735829
21
202.5032183273
31
0.0000000000
11
144.5705863983
21
202.4794547786
31
0.0000000000
11
144.5288461538
21
202.4547155172
31
0.0000000000
0
SPLINE
5
3A1
100
AcDbEntity
8
0
100
AcDbSpline
62
9
6
CONTINUOUS
70
0
71
3
72
11
73
7
74
5
42
0.0000001000
43
0.0000001000
44
0.0000000001
12
1.0699145784
22
0.0001162777
32
0.0000000000
13
0.0770796546
23
-1.0671344552
33
0.0000000000
40
0.0000000000
40
0.0000000000
40
0.0000000000
40
0.0000000000
40
0.2279199756
40
0.4688179532
40
0.7276755293
40
1.0000000000
40
1.0000000000
40
1.0000000000
40
1.0000000000
10
144.2412832434
20
203.2546814339
30
0.0000000000
10
144.3225682116
20
203.2546902679
30
0.0000000000
10
144.4917768555
20
203.2148368408
30
0.0000000000
10
144.7013256059
20
203.0506047645
30
0.0000000000
10
144.8457519128
20
202.8100906601
30
0.0000000000
10
144.8879157242
20
202.6217670943
30
0.0000000000
10
144.8949126162
20
202.5248981524
30
0.0000000000
11
144.2412832434
21
203.2546814339
31
0.0000000000
11
144.4790088352
21
203.2003513483
31
0.0000000000
11
144.6844362144
21
203.0446926404
31
0.0000000000
11
144.8296487202
21
202.8088586417
31
0.0000000000
11
144.8949126162
21
202.5248981524
31
0.0000000000
0
SPLINE
5
3A2
100
AcDbEntity
8
0
100
AcDbSpline
62
9
6
CONTINUOUS
70
0
71
3
72
11
73
7
74
5
42
0.0000001000
43
0.0000001000
44
0.0000000001
12
-0.5135516143
22
0.0000000814
32
0.0000000000
13
0.0000000000
23
0.5135516143
33
0.0000000000
40
0.0000000000
40
0.0000000000
40
0.0000000000
40
0.0000000000
40
0.3727666995
40
0.6902584057
40
0.9067047503
40
1.0000000000
40
1.0000000000
40
1.0000000000
40
1.0000000000
10
172.5288461538
20
179.7265304379
30
0.0000000000
10
172.4650345071
20
179.7265304480
30
0.0000000000
10
172.3486652733
20
179.7294791163
30
0.0000000000
10
172.1874833193
20
179.7450873762
30
0.0000000000
10
172.0951374920
20
179.7624717884
30
0.0000000000
10
172.0288461538
20
179.7866214890
30
0.0000000000
10
172.0288461538
20
179.8025921310
30
0.0000000000
11
172.5288461538
21
179.7265304379
31
0.0000000000
11
172.3374988005
21
179.7323206668
31
0.0000000000
11
172.1752863001
21
179.7488094010
31
0.0000000000
11
172.0669035451
21
179.7734856432
31
0.0000000000
11
172.0288461538
21
179.8025921310
31
0.0000000000
0
SPLINE
5
3A3
100
AcDbEntity
8
0
100
AcDbSpline
62
9
6
CONTINUOUS
70
0
71
3
72
9
73
5
74
3
42
0.0000001000
43
0.0000001000
44
0.0000000001
12
0.0229873397
22
-0.0001343437
32
0.0000000000
13
0.0229877322
23
0.0000005903
33
0.0000000000
40
0.0000000000
40
0.0000000000
40
0.0000000000
40
0.0000000000
40
0.5001350121
40
1.0000000000
40
1.0000000000
40
1.0000000000
40
1.0000000000
10
178.5058585519
20
182.1868351975
30
0.0000000000
10
178.5096908097
20
182.1868128008
30
0.0000000000
10
178.5173533143
20
182.1867766578
30
0.0000000000
10
178.5250158997
20
182.1867662264
30
0.0000000000
10
178.5288461538
20
182.1867663248
30
0.0000000000
11
178.5058585519
21
182.1868351975
31
0.0000000000
11
178.5173554036
21
182.1867830794
31
0.0000000000
11
178.5288461538
21
182.1867663248
31
0.0000000000
0
SPLINE
5
3A4
100
AcDbEntity
8
0
100
AcDbSpline
62
9
6
CONTINUOUS
70
0
71
3
72
10
73
6
74
4
42
0.0000001000
43
0.0000001000
44
0.0000000001
12
-0.2682629325
22
0.0015447871
32
0.0000000000
13
-0.0061653166
23
-0.2681965254
33
0.0000000000
40
0.0000000000
40
0.0000000000
40
0.0000000000
40
0.0000000000
40
0.1140034990
40
0.4506135762
40
1.0000000000
40
1.0000000000
40
1.0000000000
40
1.0000000000
10
178.5173539228
20
182.4547485191
30
0.0000000000
10
178.5071596185
20
182.4548072228
30
0.0000000000
10
178.5234301412
20
182.3902532528
30
0.0000000000
10
178.5016754673
20
182.3245868298
30
0.0000000000
10
178.5069912951
20
182.2359489042
30
0.0000000000
10
178.5058622481
20
182.1868343942
30
0.0000000000
11
178.5173539228
21
182.4547485191
31
0.0000000000
11
178.5137234915
21
182.4243813403
31
0.0000000000
11
178.5098537533
21
182.3341627908
31
0.0000000000
11
178.5058622481
21
182.1868343942
31
0.0000000000
0
SPLINE
5
3A5
100
AcDbEntity
8
0
100
AcDbSpline
62
9
6
CONTINUOUS
70
0
71
3
72
15
73
11
74
9
42
0.0000001000
43
0.0000001000
44
0.0000000001
12
0.8399134026
22
-1.8211713349
32
0.0000000000
13
2.0040833670
23
0.0759566516
33
0.0000000000
40
0.0000000000
40
0.0000000000
40
0.0000000000
40
0.0000000000
40
0.1494345205
40
0.2976103268
40
0.4356811832
40
0.5649653978
40
0.6863662585
40
0.7999407241
40
0.9050578522
40
1.0000000000
40
1.0000000000
40
1.0000000000
40
1.0000000000
10
176.8874221499
20
183.1592766897
30
0.0000000000
10
176.9292595021
20
183.0685614013
30
0.0000000000
10
177.0283978441
20
182.8949254219
30
0.0000000000
10
177.2120498069
20
182.6668724450
30
0.0000000000
10
177.4260829847
20
182.4872568574
30
0.0000000000
10
177.6511868694
20
182.3552424468
30
0.0000000000
10
177.8784142989
20
182.2653193050
30
0.0000000000
10
178.0998224461
20
182.2109689888
30
0.0000000000
10
178.3084470496
20
182.1860031283
30
0.0000000000
10
178.4424383176
20
182.1844339008
30
0.0000000000
10
178.5058623107
20
182.1868377300
30
0.0000000000
11
176.8874221499
21
183.1592766897
31
0.0000000000
11
177.0354511124
21
182.8986925871
31
0.0000000000
11
177.2234853362
21
182.6685772518
31
0.0000000000
11
177.4351689516
21
182.4900668321
31
0.0000000000
11
177.6587366465
21
182.3587472460
31
0.0000000000
11
177.8850035651
21
182.2688475286
31
0.0000000000
11
178.1061636958
21
182.2143483803
31
0.0000000000
11
178.3154678388
21
182.1891565032
31
0.0000000000
11
178.5058623107
21
182.1868377300
31
0.0000000000
0
SPLINE
5
3A6
100
AcDbEntity
8
0
100
AcDbSpline
62
9
6
CONTINUOUS
70
0
71
3
72
10
73
6
74
4
42
0.0000001000
43
0.0000001000
44
0.0000000001
12
0.0904537871
22
-0.1298319273
32
0.0000000000
13
-0.0543339269
23
-0.1486137320
33
0.0000000000
40
0.0000000000
40
0.0000000000
40
0.0000000000
40
0.0000000000
40
0.2753305119
40
0.5987013195
40
1.0000000000
40
1.0000000000
40
1.0000000000
40
1.0000000000
10
176.8873019095
20
183.3122707204
30
0.0000000000
10
176.8956034720
20
183.3003551567
30
0.0000000000
10
176.9071659778
20
183.2696765528
30
0.0000000000
10
176.9052943113
20
183.2161539926
30
0.0000000000
10
176.8946901943
20
183.1791561879
30
0.0000000000
10
176.8874221499
20
183.1592766897
30
0.0000000000
11
176.8873019095
21
183.3122707204
31
0.0000000000
11
176.9035558589
21
183.2718494573
31
0.0000000000
11
176.9035987201
21
183.2206809960
31
0.0000000000
11
176.8874221499
21
183.1592766897
31
0.0000000000
0
SPLINE
5
3A7
100
AcDbEntity
8
0
100
AcDbSpline
62
9
6
CONTINUOUS
70
0
71
3
72
10
73
6
74
4
42
0.0000001000
43
0.0000001000
44
0.0000000001
12
0.1018220749
22
-1.1246978873
32
0.0000000000
13
0.5898116661
23
-0.9608880227
33
0.0000000000
40
0.0000000000
40
0.0000000000
40
0.0000000000
40
0.0000000000
40
0.2040484265
40
0.6083519734
40
1.0000000000
40
1.0000000000
40
1.0000000000
40
1.0000000000
10
176.5393458596
20
184.2230183965
30
0.0000000000
10
176.5462714044
20
184.1465207851
30
0.0000000000
10
176.5771395759
20
183.9192874522
30
0.0000000000
10
176.6780548501
20
183.5553032992
30
0.0000000000
10
176.8102585312
20
183.2846512682
30
0.0000000000
10
176.8872580562
20
183.1592079689
30
0.0000000000
11
176.5393458596
21
184.2230183965
31
0.0000000000
11
176.5704124660
21
183.9947401331
31
0.0000000000
11
176.6927177092
21
183.5556150666
31
0.0000000000
11
176.8872580562
21
183.1592079689
31
0.0000000000
0
SPLINE
5
3A8
100
AcDbEntity
8
0
100
AcDbSpline
62
9
6
CONTINUOUS
70
0
71
3
72
9
73
5
74
3
42
0.0000001000
43
0.0000001000
44
0.0000000001
12
0.0232323903
22
0.1509013716
32
0.0000000000
13
-0.0000079418
23
0.1526792973
33
0.0000000000
40
0.0000000000
40
0.0000000000
40
0.0000000000
40
0.0000000000
40
0.5000877701
40
1.0000000000
40
1.0000000000
40
1.0000000000
40
1.0000000000
10
188.2672076643
20
179.7265304379
30
0.0000000000
10
188.2710804091
20
179.7516850814
30
0.0000000000
10
188.2769035640
20
179.8023000362
30
0.0000000000
10
188.2788474772
20
179.8532117415
30
0.0000000000
10
188.2788461538
20
179.8786538241
30
0.0000000000
11
188.2672076643
21
179.7265304379
31
0.0000000000
11
188.2759344353
21
179.8023831348
31
0.0000000000
11
188.2788461538
21
179.8786538241
31
0.0000000000
0
SPLINE
5
3A9
100
AcDbEntity
8
0
100
AcDbSpline
62
9
6
CONTINUOUS
70
0
71
3
72
11
73
7
74
5
42
0.0000001000
43
0.0000001000
44
0.0000000001
12
0.4961764626
22
-0.0746016180
32
0.0000000000
13
0.0763285382
23
0.4959137402
33
0.0000000000
40
0.0000000000
40
0.0000000000
40
0.0000000000
40
0.0000000000
40
0.3744128099
40
0.6915778634
40
0.9071334380
40
1.0000000000
40
1.0000000000
40
1.0000000000
40
1.0000000000
10
188.2672076643
20
179.7265304379
30
0.0000000000
10
188.3291326055
20
179.7172198375
30
0.0000000000
10
188.4421937549
20
179.7030444147
30
0.0000000000
10
188.6002281219
20
179.6944670750
30
0.0000000000
10
188.6917950959
20
179.6976350925
30
0.0000000000
10
188.7590261784
20
179.7111790855
30
0.0000000000
10
188.7613889681
20
179.7265303535
30
0.0000000000
11
188.2672076643
21
179.7265304379
31
0.0000000000
11
188.4537277936
21
179.7041091987
31
0.0000000000
11
188.6126721580
21
179.6962480321
31
0.0000000000
11
188.7205418370
21
179.7041091642
31
0.0000000000
11
188.7613889681
21
179.7265303535
31
0.0000000000
0
SPLINE
5
3AA
100
AcDbEntity
8
0
100
AcDbSpline
62
9
6
CONTINUOUS
70
0
71
3
72
11
73
7
74
5
42
0.0000001000
43
0.0000001000
44
0.0000000001
12
1.4272179823
22
-1.1152873263
32
0.0000000000
13
-0.0003522048
23
-1.8113025328
33
0.0000000000
40
0.0000000000
40
0.0000000000
40
0.0000000000
40
0.0000000000
40
0.2497935651
40
0.4997917999
40
0.7496639632
40
1.0000000000
40
1.0000000000
40
1.0000000000
40
1.0000000000
10
171.7601176672
20
203.2547155172
30
0.0000000000
10
171.8789542898
20
203.1618516514
30
0.0000000000
10
172.0964487965
20
202.9482973948
30
0.0000000000
10
172.3416434906
20
202.5633584627
30
0.0000000000
10
172.4942719002
20
202.1329184072
30
0.0000000000
10
172.5288755437
20
201.8297985900
30
0.0000000000
10
172.5288461538
20
201.6786538241
30
0.0000000000
11
171.7601176672
21
203.2547155172
31
0.0000000000
11
172.0828642399
21
202.9376237105
31
0.0000000000
11
172.3262279050
21
202.5557568584
31
0.0000000000
11
172.4774179065
21
202.1291622096
31
0.0000000000
11
172.5288461538
21
201.6786538241
31
0.0000000000
0
SPLINE
5
3AB
100
AcDbEntity
8
0
100
AcDbSpline
62
9
6
CONTINUOUS
70
0
71
3
72
11
73
7
74
5
42
0.0000001000
43
0.0000001000
44
0.0000000001
12
0.5135515042
22
0.0000000000
32
0.0000000000
13
0.0000000000
23
0.5135515042
33
0.0000000000
40
0.0000000000
40
0.0000000000
40
0.0000000000
40
0.0000000000
40
0.3727557855
40
0.6902458352
40
0.9066990775
40
1.0000000000
40
1.0000000000
40
1.0000000000
40
1.0000000000
10
188.2788461538
20
179.8786538241
30
0.0000000000
10
188.3426559186
20
179.8786538241
30
0.0000000000
10
188.4590229730
20
179.8816024174
30
0.0000000000
10
188.6202041294
20
179.8972098951
30
0.0000000000
10
188.7125509661
20
179.9145945418
30
0.0000000000
10
188.7788461538
20
179.9387439075
30
0.0000000000
10
188.7788461538
20
179.9547155172
30
0.0000000000
11
188.2788461538
21
179.8786538241
31
0.0000000000
11
188.4701878700
21
179.8844436758
31
0.0000000000
11
188.6323995444
21
179.9009317782
31
0.0000000000
11
188.7407859201
21
179.9256079674
31
0.0000000000
11
188.7788461538
21
179.9547155172
31
0.0000000000
0
SPLINE
5
3AC
100
AcDbEntity
8
0
100
AcDbSpline
62
9
6
CONTINUOUS
70
0
71
3
72
11
73
7
74
5
42
0.0000001000
43
0.0000001000
44
0.0000000001
12
0.5135515044
22
0.0000000052
32
0.0000000000
13
0.0000000000
23
0.5135515044
33
0.0000000000
40
0.0000000000
40
0.0000000000
40
0.0000000000
40
0.0000000000
40
0.3727558940
40
0.6902459553
40
0.9066991306
40
1.0000000000
40
1.0000000000
40
1.0000000000
40
1.0000000000
10
188.2788461538
20
180.2786035183
30
0.0000000000
10
188.3426559372
20
180.2786035190
30
0.0000000000
10
188.4590230121
20
180.2815521139
30
0.0000000000
10
188.6202041760
20
180.2971595991
30
0.0000000000
10
188.7125510011
20
180.3145442442
30
0.0000000000
10
188.7788461538
20
180.3386936108
30
0.0000000000
10
188.7788461538
20
180.3546652114
30
0.0000000000
11
188.2788461538
21
180.2786035183
31
0.0000000000
11
188.4701879257
21
180.2843933750
31
0.0000000000
11
188.6323996055
21
180.3008814838
31
0.0000000000
11
188.7407859460
21
180.3255576726
31
0.0000000000
11
188.7788461538
21
180.3546652114
31
0.0000000000
0
SPLINE
5
3AD
100
AcDbEntity
8
0
100
AcDbSpline
62
9
6
CONTINUOUS
70
0
71
3
72
12
73
8
74
6
42
0.0000001000
43
0.0000001000
44
0.0000000001
12
-1.0026282819
22
0.0000000000
32
0.0000000000
13
-0.0000000331
23
-1.0026282819
33
0.0000000000
40
0.0000000000
40
0.0000000000
40
0.0000000000
40
0.0000000000
40
0.0506325767
40
0.1928179279
40
0.4136795463
40
0.6917857045
40
1.0000000000
40
1.0000000000
40
1.0000000000
40
1.0000000000
10
115.7916073791
20
207.2547155172
30
0.0000000000
10
115.7746854946
20
207.2547155172
30
0.0000000000
10
115.7841290901
20
207.1548495270
30
0.0000000000
10
115.7571938920
20
207.0496361795
30
0.0000000000
10
115.7574950028
20
206.8184782346
30
0.0000000000
10
115.7483825753
20
206.5554006942
30
0.0000000000
10
115.7479879952
20
206.3577236404
30
0.0000000000
10
115.7479879918
20
206.2547155172
30
0.0000000000
11
115.7916073791
21
207.2547155172
31
0.0000000000
11
115.7781282477
21
207.2057720336
31
0.0000000000
11
115.7659685487
21
207.0637325121
31
0.0000000000
11
115.7563185579
21
206.8425007703
31
0.0000000000
11
115.7501228828
21
206.5637325122
31
0.0000000000
11
115.7479879918
21
206.2547155172
31
0.0000000000
0
SPLINE
5
3AE
100
AcDbEntity
8
0
100
AcDbSpline
62
9
6
CONTINUOUS
70
0
71
3
72
11
73
7
74
5
42
0.0000001000
43
0.0000001000
44
0.0000000001
12
0.7290255779
22
0.0000000000
32
0.0000000000
13
-0.0000000000
23
-0.7290255779
33
0.0000000000
40
0.0000000000
40
0.0000000000
40
0.0000000000
40
0.0000000000
40
0.2663280433
40
0.5234002287
40
0.7667824900
40
1.0000000000
40
1.0000000000
40
1.0000000000
40
1.0000000000
10
188.2788461538
20
181.2967523083
30
0.0000000000
10
188.3435661391
20
181.2967523083
30
0.0000000000
10
188.4718725697
20
181.2751881381
30
0.0000000000
10
188.6374713564
20
181.1812688814
30
0.0000000000
10
188.7513144027
20
181.0377002222
30
0.0000000000
10
188.7788461538
20
180.9204134497
30
0.0000000000
10
188.7788461538
20
180.8637396064
30
0.0000000000
11
188.2788461538
21
181.2967523083
31
0.0000000000
11
188.4701878700
21
181.2637911790
31
0.0000000000
11
188.6323995444
21
181.1699258242
31
0.0000000000
11
188.7407859201
21
181.0294463934
31
0.0000000000
11
188.7788461538
21
180.8637396064
31
0.0000000000
0
SPLINE
5
3AF
100
AcDbEntity
8
0
100
AcDbSpline
62
9
6
CONTINUOUS
70
0
71
3
72
11
73
7
74
5
42
0.0000001000
43
0.0000001000
44
0.0000000001
12
0.6443172709
22
0.0000000501
32
0.0000000000
13
0.1459690286
23
-0.6341982435
33
0.0000000000
40
0.0000000000
40
0.0000000000
40
0.0000000000
40
0.0000000000
40
0.3013478749
40
0.5922198078
40
0.8675976585
40
1.0000000000
40
1.0000000000
40
1.0000000000
40
1.0000000000
10
188.2788461538
20
182.1867663248
30
0.0000000000
10
188.3435673673
20
182.1867663298
30
0.0000000000
10
188.4718756309
20
182.1652014493
30
0.0000000000
10
188.6374749145
20
182.0712800123
30
0.0000000000
10
188.7332861332
20
181.9504486655
30
0.0000000000
10
188.7626629541
20
181.8661867182
30
0.0000000000
10
188.7691051678
20
181.8381969407
30
0.0000000000
11
188.2788461538
21
182.1867663248
31
0.0000000000
11
188.4701913933
21
182.1538039436
31
0.0000000000
11
188.6324036211
21
182.0599363276
31
0.0000000000
11
188.7407877265
21
181.9194566464
31
0.0000000000
11
188.7691051678
21
181.8381969407
31
0.0000000000
0
SPLINE
5
3B0
100
AcDbEntity
8
0
100
AcDbSpline
62
9
6
CONTINUOUS
70
0
71
3
72
8
73
4
74
2
42
0.0000001000
43
0.0000001000
44
0.0000000001
12
0.0191905370
22
-0.0833779945
32
0.0000000000
13
0.0000000000
23
-0.0847083422
33
0.0000000000
40
0.0000000000
40
0.0000000000
40
0.0000000000
40
0.0000000000
40
1.0000000000
40
1.0000000000
40
1.0000000000
40
1.0000000000
10
188.7691051678
20
181.8381969407
30
0.0000000000
10
188.7755020135
20
181.8104042759
30
0.0000000000
10
188.7788461538
20
181.7819897370
30
0.0000000000
10
188.7788461538
20
181.7537536229
30
0.0000000000
11
188.7691051678
21
181.8381969407
31
0.0000000000
11
188.7788461538
21
181.7537536229
31
0.0000000000
0
SPLINE
5
3B1
100
AcDbEntity
8
0
100
AcDbSpline
62
9
6
CONTINUOUS
70
0
71
3
72
13
73
9
74
7
42
0.0000001000
43
0.0000001000
44
0.0000000001
12
-27.0429020372
22
-0.0001400370
32
0.0000000000
13
-27.0010519351
23
1.5039099082
33
0.0000000000
40
0.0000000000
40
0.0000000000
40
0.0000000000
40
0.0000000000
40
0.2051867032
40
0.3944799067
40
0.5675005746
40
0.7250444202
40
0.8686804882
40
1.0000000000
40
1.0000000000
40
1.0000000000
40
1.0000000000
10
204.3843491300
20
203.7547155172
30
0.0000000000
10
202.5347344920
20
203.7547059393
30
0.0000000000
10
198.9787602829
20
203.7671707396
30
0.0000000000
10
193.8633813947
20
203.8209074682
30
0.0000000000
10
189.1779190292
20
203.9038110080
30
0.0000000000
10
184.9046701780
20
204.0128884339
30
0.0000000000
10
181.0082880717
20
204.1482181130
30
0.0000000000
10
178.5323171868
20
204.2632335449
30
0.0000000000
10
177.3503955341
20
204.3290644499
30
0.0000000000
11
204.3843491300
21
203.7547155172
31
0.0000000000
11
198.8355401545
21
203.7744065635
31
0.0000000000
11
193.7167921755
21
203.8288552249
31
0.0000000000
11
189.0385619197
21
203.9126682348
31
0.0000000000
11
184.7795458586
21
204.0229174488
31
0.0000000000
11
180.8976287226
21
204.1599809878
31
0.0000000000
11
177.3503955341
21
204.3290644499
31
0.0000000000
0
SPLINE
5
3B2
100
AcDbEntity
8
0
100
AcDbSpline
62
7
6
CONTINUOUS
70
0
71
3
72
27
73
23
74
21
42
0.0000001000
43
0.0000001000
44
0.0000000001
12
0.8226895704
22
0.4803923453
32
0.0000000000
13
-0.0000000000
23
0.9526777706
33
0.0000000000
40
0.0000000000
40
0.0000000000
40
0.0000000000
40
0.0000000000
40
0.0938523128
40
0.1808434594
40
0.2614221712
40
0.3360494805
40
0.4051841405
40
0.4692524691
40
0.5285929174
40
0.5835292108
40
0.6343858438
40
0.6814578150
40
0.7250215030
40
0.7653606498
40
0.8027689650
40
0.8375773317
40
0.8698572049
40
0.8997065491
40
0.9273220253
40
0.9535087716
40
0.9785228736
40
1.0000000000
40
1.0000000000
40
1.0000000000
40
1.0000000000
10
175.7244075605
20
203.7515966050
30
0.0000000000
10
175.7501446668
20
203.7666252492
30
0.0000000000
10
175.7996737270
20
203.7956926225
30
0.0000000000
10
175.8712924276
20
203.8376758818
30
0.0000000000
10
175.9377696087
20
203.8763574278
30
0.0000000000
10
175.9994935020
20
203.9119318798
30
0.0000000000
10
176.0568329745
20
203.9446123353
30
0.0000000000
10
176.1100928822
20
203.9746454472
30
0.0000000000
10
176.1595337382
20
204.0022706548
30
0.0000000000
10
176.2053859518
20
204.0277165602
30
0.0000000000
10
176.2478684869
20
204.0512053080
30
0.0000000000
10
176.2871817827
20
204.0729623163
30
0.0000000000
10
176.3235150598
20
204.0932062787
30
0.0000000000
10
176.3570585280
20
204.1121515414
30
0.0000000000
10
176.3880138944
20
204.1300229215
30
0.0000000000
10
176.4165146637
20
204.1470229698
30
0.0000000000
10
176.4426219330
20
204.1633370211
30
0.0000000000
10
176.4663274184
20
204.1791749230
30
0.0000000000
10
176.4877420543
20
204.1948911317
30
0.0000000000
10
176.5068174709
20
204.2112312747
30
0.0000000000
10
176.5223386915
20
204.2281885821
30
0.0000000000
10
176.5288461538
20
204.2425201029
30
0.0000000000
10
176.5288461538
20
204.2493403632
30
0.0000000000
11
175.7244075605
21
203.7515966050
31
0.0000000000
11
175.8015567435
21
203.7967887798
31
0.0000000000
11
175.8730725335
21
203.8386657397
31
0.0000000000
11
175.9394306987
21
203.8772603402
31
0.0000000000
11
176.0010342004
21
203.9127514421
31
0.0000000000
11
176.0582564732
21
203.9453636078
31
0.0000000000
11
176.1114208880
21
203.9753468692
31
0.0000000000
11
176.1607684498
21
204.0029280590
31
0.0000000000
11
176.2065256248
21
204.0283327656
31
0.0000000000
11
176.2489186566
21
204.0517897855
31
0.0000000000
11
176.2881457696
21
204.0735212295
31
0.0000000000
11
176.3243892366
21
204.0937410255
31
0.0000000000
11
176.3578378367
21
204.1126638179
31
0.0000000000
11
176.3886847826
21
204.1305114505
31
0.0000000000
11
176.4171424704
21
204.1475356201
31
0.0000000000
11
176.4431897019
21
204.1638833040
31
0.0000000000
11
176.4667911846
21
204.1797459012
31
0.0000000000
11
176.4879097283
21
204.1954351393
31
0.0000000000
11
176.5067200782
21
204.2118226358
31
0.0000000000
11
176.5221036414
21
204.2300224420
31
0.0000000000
11
176.5288461538
21
204.2493403632
31
0.0000000000
0
SPLINE
5
3B3
100
AcDbEntity
8
0
100
AcDbSpline
62
9
6
CONTINUOUS
70
0
71
3
72
14
73
10
74
8
42
0.0000001000
43
0.0000001000
44
0.0000000001
12
-1.6333667730
22
0.1381883889
32
0.0000000000
13
-1.5621821318
23
-0.4965581871
33
0.0000000000
40
0.0000000000
40
0.0000000000
40
0.0000000000
40
0.0000000000
40
0.1844006611
40
0.3505877452
40
0.5020046610
40
0.6408885081
40
0.7690484103
40
0.8881883201
40
1.0000000000
40
1.0000000000
40
1.0000000000
40
1.0000000000
10
177.3288462120
20
204.0205120492
30
0.0000000000
10
177.2284482411
20
204.0290060592
30
0.0000000000
10
177.0364780345
20
204.0341377426
30
0.0000000000
10
176.7625879032
20
204.0136714091
30
0.0000000000
10
176.5160638272
20
203.9742522492
30
0.0000000000
10
176.2929360589
20
203.9237835557
30
0.0000000000
10
176.0896165911
20
203.8671208544
30
0.0000000000
10
175.9022673391
20
203.8087568929
30
0.0000000000
10
175.7822192367
20
203.7698611025
30
0.0000000000
10
175.7239958339
20
203.7513541008
30
0.0000000000
11
177.3288462120
21
204.0205120492
31
0.0000000000
11
177.0266963421
21
204.0290304415
31
0.0000000000
11
176.7550118121
21
204.0091053623
31
0.0000000000
11
176.5098351606
21
203.9704648242
31
0.0000000000
11
176.2877038289
21
203.9206035857
31
0.0000000000
11
176.0851852964
21
203.8647481072
31
0.0000000000
11
175.8985612365
21
203.8072037557
31
0.0000000000
11
175.7239958339
21
203.7513541008
31
0.0000000000
0
SPLINE
5
3B4
100
AcDbEntity
8
0
100
AcDbSpline
62
9
6
CONTINUOUS
70
0
71
3
72
10
73
6
74
4
42
0.0000001000
43
0.0000001000
44
0.0000000001
12
0.0277715130
22
0.3080911982
32
0.0000000000
13
0.0172329498
23
0.3088599501
33
0.0000000000
40
0.0000000000
40
0.0000000000
40
0.0000000000
40
0.0000000000
40
0.3049992217
40
0.6438683376
40
1.0000000000
40
1.0000000000
40
1.0000000000
40
1.0000000000
10
177.3288462120
20
204.0205120492
30
0.0000000000
10
177.3316696420
20
204.0518345744
30
0.0000000000
10
177.3370951994
20
204.1180064071
30
0.0000000000
10
177.3443492717
20
204.2208659091
30
0.0000000000
10
177.3486805545
20
204.2924002181
30
0.0000000000
10
177.3507262876
20
204.3290651540
30
0.0000000000
11
177.3288462120
21
204.0205120492
31
0.0000000000
11
177.3366404050
21
204.1145381181
31
0.0000000000
11
177.3440551839
21
204.2191014360
31
0.0000000000
11
177.3507262876
21
204.3290651540
31
0.0000000000
0
SPLINE
5
3B5
100
AcDbEntity
8
0
100
AcDbSpline
62
9
6
CONTINUOUS
70
0
71
3
72
10
73
6
74
4
42
0.0000001000
43
0.0000001000
44
0.0000000001
12
-0.8267887009
22
0.0459701363
32
0.0000000000
13
-0.8043473031
23
-0.1967694726
33
0.0000000000
40
0.0000000000
40
0.0000000000
40
0.0000000000
40
0.0000000000
40
0.3675432814
40
0.6992449443
40
1.0000000000
40
1.0000000000
40
1.0000000000
40
1.0000000000
10
177.3503955341
20
204.3290644499
30
0.0000000000
10
177.2491019900
20
204.3346964548
30
0.0000000000
10
177.0555757675
20
204.3341510991
30
0.0000000000
10
176.7808307561
20
204.3038328163
30
0.0000000000
10
176.6094833265
20
204.2692275954
30
0.0000000000
10
176.5288461538
20
204.2495011242
30
0.0000000000
11
177.3503955341
21
204.3290644499
31
0.0000000000
11
177.0460462378
21
204.3284165899
31
0.0000000000
11
176.7729931319
21
204.2986502712
31
0.0000000000
11
176.5288461538
21
204.2495011242
31
0.0000000000
0
SPLINE
5
3B6
100
AcDbEntity
8
0
100
AcDbSpline
62
9
6
CONTINUOUS
70
0
71
3
72
11
73
7
74
5
42
0.0000001000
43
0.0000001000
44
0.0000000001
12
0.5012111617
22
0.0000000000
32
0.0000000000
13
0.0000000000
23
0.5012111617
33
0.0000000000
40
0.0000000000
40
0.0000000000
40
0.0000000000
40
0.0000000000
40
0.0777409001
40
0.2944501213
40
0.6182269414
40
1.0000000000
40
1.0000000000
40
1.0000000000
40
1.0000000000
10
205.2878946223
20
203.2547155172
30
0.0000000000
10
205.3008828245
20
203.2547155172
30
0.0000000000
10
205.2892311400
20
203.3321289285
30
0.0000000000
10
205.3102664120
20
203.4098096871
30
0.0000000000
10
205.3065454821
20
203.5766991718
30
0.0000000000
10
205.3097043159
20
203.6909325445
30
0.0000000000
10
205.3097043159
20
203.7547155172
30
0.0000000000
11
205.2878946223
21
203.2547155172
31
0.0000000000
11
205.2962408307
21
203.2927757510
31
0.0000000000
11
205.3033164046
21
203.4011621266
31
0.0000000000
11
205.3080441519
21
203.5633738010
31
0.0000000000
11
205.3097043159
21
203.7547155172
31
0.0000000000
0
SPLINE
5
3B7
100
AcDbEntity
8
0
100
AcDbSpline
62
9
6
CONTINUOUS
70
0
71
3
72
15
73
11
74
9
42
0.0000001000
43
0.0000001000
44
0.0000000001
12
-0.9997752700
22
0.5004475710
32
0.0000000000
13
-1.0003442694
23
0.4993091767
33
0.0000000000
40
0.0000000000
40
0.0000000000
40
0.0000000000
40
0.0000000000
40
0.0201324242
40
0.0786384541
40
0.1712797843
40
0.2922590714
40
0.4367643206
40
0.6034474832
40
0.7913434266
40
1.0000000000
40
1.0000000000
40
1.0000000000
40
1.0000000000
10
280.3670808371
20
216.2547155172
30
0.0000000000
10
280.3603715372
20
216.2580739248
30
0.0000000000
10
280.3341629272
20
216.2711887024
30
0.0000000000
10
280.2770675995
20
216.2997311079
30
0.0000000000
10
280.1863485044
20
216.3450649639
30
0.0000000000
10
280.0669762521
20
216.4047584825
30
0.0000000000
10
279.9229190613
20
216.4767836049
30
0.0000000000
10
279.7565646117
20
216.5599780588
30
0.0000000000
10
279.5688048487
20
216.6538212607
30
0.0000000000
10
279.4366578202
20
216.7199874699
30
0.0000000000
10
279.3670816844
20
216.7547155172
30
0.0000000000
11
280.3670808371
21
216.2547155172
31
0.0000000000
11
280.3469517377
21
216.2647883422
31
0.0000000000
11
280.2884458681
21
216.2940415788
31
0.0000000000
11
280.1957974020
21
216.3403478129
31
0.0000000000
11
280.0748174078
21
216.4008358380
31
0.0000000000
11
279.9303129073
21
216.4730897159
31
0.0000000000
11
279.7636321194
21
216.5564357649
31
0.0000000000
11
279.5757362313
21
216.6503835301
31
0.0000000000
11
279.3670816844
21
216.7547155172
31
0.0000000000
0
SPLINE
5
3B8
100
AcDbEntity
8
0
100
AcDbSpline
62
7
6
CONTINUOUS
70
0
71
3
72
13
73
9
74
7
42
0.0000001000
43
0.0000001000
44
0.0000000001
12
0.5000000000
22
-0.5000000000
32
0.0000000000
13
0.5000000000
23
-0.5000000000
33
0.0000000000
40
0.0000000000
40
0.0000000000
40
0.0000000000
40
0.0000000000
40
0.0529067781
40
0.1831006588
40
0.3600373173
40
0.5645616880
40
0.7825093358
40
1.0000000000
40
1.0000000000
40
1.0000000000
40
1.0000000000
10
276.8670808371
20
220.2547155172
30
0.0000000000
10
276.8758986335
20
220.2458977209
30
0.0000000000
10
276.9064154099
20
220.2153809444
30
0.0000000000
10
276.9664216295
20
220.1553747249
30
0.0000000000
10
277.0516974478
20
220.0700989065
30
0.0000000000
10
277.1515988940
20
219.9701974604
30
0.0000000000
10
277.2582593411
20
219.8635370133
30
0.0000000000
10
277.3308323931
20
219.7909639613
30
0.0000000000
10
277.3670808371
20
219.7547155172
30
0.0000000000
11
276.8670808371
21
220.2547155172
31
0.0000000000
11
276.8935342261
21
220.2282621282
31
0.0000000000
11
276.9586311665
21
220.1631651878
31
0.0000000000
11
277.0470994958
21
220.0746968586
31
0.0000000000
11
277.1493616811
21
219.9724346732
31
0.0000000000
11
277.2583355050
21
219.8634608493
31
0.0000000000
11
277.3670808371
21
219.7547155172
31
0.0000000000
0
SPLINE
5
3B9
100
AcDbEntity
8
0
100
AcDbSpline
62
7
6
CONTINUOUS
70
0
71
3
72
13
73
9
74
7
42
0.0000001000
43
0.0000001000
44
0.0000000001
12
-0.5000000000
22
-0.5000000000
32
0.0000000000
13
-0.5000000000
23
-0.5000000000
33
0.0000000000
40
0.0000000000
40
0.0000000000
40
0.0000000000
40
0.0000000000
40
0.0529067781
40
0.1831006588
40
0.3600373173
40
0.5645616880
40
0.7825093358
40
1.0000000000
40
1.0000000000
40
1.0000000000
40
1.0000000000
10
288.8670808371
20
220.2547155172
30
0.0000000000
10
288.8582630408
20
220.2458977209
30
0.0000000000
10
288.8277462643
20
220.2153809444
30
0.0000000000
10
288.7677400447
20
220.1553747249
30
0.0000000000
10
288.6824642264
20
220.0700989065
30
0.0000000000
10
288.5825627803
20
219.9701974604
30
0.0000000000
10
288.4759023331
20
219.8635370133
30
0.0000000000
10
288.4033292811
20
219.7909639613
30
0.0000000000
10
288.3670808371
20
219.7547155172
30
0.0000000000
11
288.8670808371
21
220.2547155172
31
0.0000000000
11
288.8406274481
21
220.2282621282
31
0.0000000000
11
288.7755305077
21
220.1631651878
31
0.0000000000
11
288.6870621785
21
220.0746968586
31
0.0000000000
11
288.5847999931
21
219.9724346732
31
0.0000000000
11
288.4758261692
21
219.8634608493
31
0.0000000000
11
288.3670808371
21
219.7547155172
31
0.0000000000
0
SPLINE
5
3BA
100
AcDbEntity
8
0
100
AcDbSpline
62
9
6
CONTINUOUS
70
0
71
3
72
15
73
11
74
9
42
0.0000001000
43
0.0000001000
44
0.0000000001
12
-1.0003445292
22
-0.4993086531
32
0.0000000000
13
-0.9997754617
23
-0.5004471850
33
0.0000000000
40
0.0000000000
40
0.0000000000
40
0.0000000000
40
0.0000000000
40
0.2086566368
40
0.3965525653
40
0.5632357149
40
0.7077409528
40
0.8287202304
40
0.9213615544
40
0.9798675701
40
1.0000000000
40
1.0000000000
40
1.0000000000
40
1.0000000000
10
286.3670799883
20
216.7547155172
30
0.0000000000
10
286.2975038133
20
216.7199874958
30
0.0000000000
10
286.1653567902
20
216.6538212357
30
0.0000000000
10
285.9775970125
20
216.5599780342
30
0.0000000000
10
285.8112425764
20
216.4767835865
30
0.0000000000
10
285.6671853966
20
216.4047584707
30
0.0000000000
10
285.5478131554
20
216.3450649529
30
0.0000000000
10
285.4570940651
20
216.2997311123
30
0.0000000000
10
285.3999987500
20
216.2711886940
30
0.0000000000
10
285.3737901402
20
216.2580739232
30
0.0000000000
10
285.3670808371
20
216.2547155172
30
0.0000000000
11
286.3670799883
21
216.7547155172
31
0.0000000000
11
286.1584253761
21
216.6503835029
31
0.0000000000
11
285.9705295059
21
216.5564357398
31
0.0000000000
11
285.8038487308
21
216.4730896980
31
0.0000000000
11
285.6593442420
21
216.4008358255
31
0.0000000000
11
285.5383642574
21
216.3403478054
31
0.0000000000
11
285.4457157969
21
216.2940415759
31
0.0000000000
11
285.3872099445
21
216.2647883405
31
0.0000000000
11
285.3670808371
21
216.2547155172
31
0.0000000000
0
SPLINE
5
3BB
100
AcDbEntity
8
0
100
AcDbSpline
62
9
6
CONTINUOUS
70
0
71
3
72
15
73
11
74
9
42
0.0000001000
43
0.0000001000
44
0.0000000001
12
-0.4993090575
22
-1.0003453394
32
0.0000000000
13
-0.4956387434
23
-1.0021765074
33
0.0000000000
40
0.0000000000
40
0.0000000000
40
0.0000000000
40
0.0000000000
40
0.2086212180
40
0.3965255269
40
0.5632176640
40
0.7077371875
40
0.8287435774
40
0.9213957462
40
0.9797756323
40
1.0000000000
40
1.0000000000
40
1.0000000000
40
1.0000000000
10
286.3670808371
20
216.7547155172
30
0.0000000000
10
286.3323586825
20
216.6851510962
30
0.0000000000
10
286.2661976807
20
216.5530125763
30
0.0000000000
10
286.1723585686
20
216.3652580845
30
0.0000000000
10
286.0891631990
20
216.1988907536
30
0.0000000000
10
286.0171573320
20
216.0548028047
30
0.0000000000
10
285.9574525588
20
215.9354143225
30
0.0000000000
10
285.9122147370
20
215.8446838306
30
0.0000000000
10
285.8834665314
20
215.7877011464
30
0.0000000000
10
285.8704221638
20
215.7614716460
30
0.0000000000
10
285.8670808371
20
215.7547155172
30
0.0000000000
11
286.3670808371
21
216.7547155172
31
0.0000000000
11
286.2627672919
21
216.5460957326
31
0.0000000000
11
286.1688170931
21
216.3581904146
31
0.0000000000
11
286.0854753192
21
216.1914961025
31
0.0000000000
11
286.0132327378
21
216.0469679661
31
0.0000000000
11
285.9527534761
21
215.9259495924
31
0.0000000000
11
285.9064260424
21
215.8332980828
31
0.0000000000
11
285.8771446001
21
215.7749640264
31
0.0000000000
11
285.8670808371
21
215.7547155172
31
0.0000000000
0
SPLINE
5
3BC
100
AcDbEntity
8
0
100
AcDbSpline
62
9
6
CONTINUOUS
70
0
71
3
72
15
73
11
74
9
42
0.0000001000
43
0.0000001000
44
0.0000000001
12
-0.4956391926
22
1.0021762836
32
0.0000000000
13
-0.4993095804
23
1.0003450783
33
0.0000000000
40
0.0000000000
40
0.0000000000
40
0.0000000000
40
0.0000000000
40
0.0202243594
40
0.0786042570
40
0.1712564219
40
0.2922628125
40
0.4367823360
40
0.6034744730
40
0.7913787821
40
1.0000000000
40
1.0000000000
40
1.0000000000
40
1.0000000000
10
279.8670808371
20
215.7547155172
30
0.0000000000
10
279.8637395087
20
215.7614716417
30
0.0000000000
10
279.8506951348
20
215.7877011403
30
0.0000000000
10
279.8219469494
20
215.8446838344
30
0.0000000000
10
279.7767091083
20
215.9354143200
30
0.0000000000
10
279.7170043448
20
216.0548028058
30
0.0000000000
10
279.6449984748
20
216.1988907534
30
0.0000000000
10
279.5618031055
20
216.3652580845
30
0.0000000000
10
279.4679639882
20
216.5530125737
30
0.0000000000
10
279.4018030280
20
216.6851511144
30
0.0000000000
10
279.3670808371
20
216.7547155172
30
0.0000000000
11
279.8670808371
21
215.7547155172
31
0.0000000000
11
279.8570170732
21
215.7749640155
31
0.0000000000
11
279.8277356333
21
215.8332980876
31
0.0000000000
11
279.7814081973
21
215.9259495912
31
0.0000000000
11
279.7209289366
21
216.0469679662
31
0.0000000000
11
279.6486863553
21
216.1914961027
31
0.0000000000
11
279.5653445802
21
216.3581904141
31
0.0000000000
11
279.4713943873
21
216.5460957352
31
0.0000000000
11
279.3670808371
21
216.7547155172
31
0.0000000000
0
SPLINE
5
3BD
100
AcDbEntity
8
0
100
AcDbSpline
62
7
6
CONTINUOUS
70
0
71
3
72
10
73
6
74
4
42
0.0000001000
43
0.0000001000
44
0.0000000001
12
-1.0458571573
22
0.0000599438
32
0.0000000000
13
-0.9057403783
23
-0.5229259643
33
0.0000000000
40
0.0000000000
40
0.0000000000
40
0.0000000000
40
0.0000000000
40
0.3333354070
40
0.6666683573
40
1.0000000000
40
1.0000000000
40
1.0000000000
40
1.0000000000
10
271.6834682849
20
182.4547485168
30
0.0000000000
10
271.5672612112
20
182.4547551773
30
0.0000000000
10
271.3343199769
20
182.4343978607
30
0.0000000000
10
270.9960271638
20
182.3437644780
30
0.0000000000
10
270.7841103320
20
182.2449378167
30
0.0000000000
10
270.6834730226
20
182.1868352265
30
0.0000000000
11
271.6834682849
21
182.4547485168
31
0.0000000000
11
271.3361721622
21
182.4243814389
31
0.0000000000
11
270.9994294870
21
182.3341631733
31
0.0000000000
11
270.6834730226
21
182.1868352265
31
0.0000000000
0
SPLINE
5
3BE
100
AcDbEntity
8
0
100
AcDbSpline
62
7
6
CONTINUOUS
70
0
71
3
72
10
73
6
74
4
42
0.0000001000
43
0.0000001000
44
0.0000000001
12
1.0458519188
22
0.0000597554
32
0.0000000000
13
0.9057370485
23
-0.5229212548
33
0.0000000000
40
0.0000000000
40
0.0000000000
40
0.0000000000
40
0.0000000000
40
0.3333354053
40
0.6666683550
40
1.0000000000
40
1.0000000000
40
1.0000000000
40
1.0000000000
10
294.0506933973
20
182.4547488082
30
0.0000000000
10
294.1668998884
20
182.4547554477
30
0.0000000000
10
294.3998399465
20
182.4343982885
30
0.0000000000
10
294.7381311466
20
182.3437657228
30
0.0000000000
10
294.9500470922
20
182.2449399629
30
0.0000000000
10
295.0506840323
20
182.1868378956
30
0.0000000000
11
294.0506933973
21
182.4547488082
31
0.0000000000
11
294.3979877858
21
182.4243819637
31
0.0000000000
11
294.7347288696
21
182.3341645077
31
0.0000000000
11
295.0506840323
21
182.1868378956
31
0.0000000000
0
SPLINE
5
3BF
100
AcDbEntity
8
0
100
AcDbSpline
62
9
6
CONTINUOUS
70
0
71
3
72
10
73
6
74
4
42
0.0000001000
43
0.0000001000
44
0.0000000001
12
0.0341951288
22
-1.2957054101
32
0.0000000000
13
0.0410330715
23
-1.2955068906
33
0.0000000000
40
0.0000000000
40
0.0000000000
40
0.0000000000
40
0.0000000000
40
0.3533945363
40
0.6932940906
40
1.0000000000
40
1.0000000000
40
1.0000000000
40
1.0000000000
10
270.6115569432
20
184.4547155172
30
0.0000000000
10
270.6155850671
20
184.3020837797
30
0.0000000000
10
270.6261107212
20
184.0027246489
30
0.0000000000
10
270.6394207521
20
183.5708785696
30
0.0000000000
10
270.6483739692
20
183.2916545095
30
0.0000000000
10
270.6525689977
20
183.1592079698
30
0.0000000000
11
270.6115569432
21
184.4547155172
31
0.0000000000
11
270.6259783765
21
183.9968879514
31
0.0000000000
11
270.6399584122
21
183.5565467803
31
0.0000000000
11
270.6525689977
21
183.1592079698
31
0.0000000000
0
SPLINE
5
3C0
100
AcDbEntity
8
0
100
AcDbSpline
62
7
6
CONTINUOUS
70
0
71
3
72
14
73
10
74
8
42
0.0000001000
43
0.0000001000
44
0.0000000001
12
-1.0846407756
22
-0.6485085521
32
0.0000000000
13
-1.2637281964
23
0.0000000000
33
0.0000000000
40
0.0000000000
40
0.0000000000
40
0.0000000000
40
0.0000000000
40
0.1546653880
40
0.3216965464
40
0.4922468878
40
0.6580272096
40
0.8095525598
40
0.9321854479
40
1.0000000000
40
1.0000000000
40
1.0000000000
40
1.0000000000
10
289.8670808371
20
221.2532638491
30
0.0000000000
10
289.8111620416
20
221.2198299068
30
0.0000000000
10
289.6976522878
20
221.1455353561
30
0.0000000000
10
289.5316645589
20
221.0211886834
30
0.0000000000
10
289.3688448084
20
220.8848357701
30
0.0000000000
10
289.2167699135
20
220.7479413868
30
0.0000000000
10
289.0833538918
20
220.6148439434
30
0.0000000000
10
288.9810464439
20
220.5249246885
30
0.0000000000
10
288.9202721628
20
220.4547155172
30
0.0000000000
10
288.8917057756
20
220.4547155172
30
0.0000000000
11
289.8670808371
21
221.2532638491
31
0.0000000000
11
289.7031787360
21
221.1467802217
31
0.0000000000
11
289.5339867495
21
221.0205674020
31
0.0000000000
11
289.3683175319
21
220.8827030523
31
0.0000000000
11
289.2130591203
21
220.7420417339
31
0.0000000000
11
289.0749346558
21
220.6094187762
31
0.0000000000
11
288.9630715781
21
220.5021630517
31
0.0000000000
11
288.8917057756
21
220.4547155172
31
0.0000000000
0
SPLINE
5
3C1
100
AcDbEntity
8
0
100
AcDbSpline
62
9
6
CONTINUOUS
70
0
71
3
72
14
73
10
74
8
42
0.0000001000
43
0.0000001000
44
0.0000000001
12
-0.9363187475
22
0.2699399477
32
0.0000000000
13
0.4623404886
23
0.8577888113
33
0.0000000000
40
0.0000000000
40
0.0000000000
40
0.0000000000
40
0.0000000000
40
0.0158510639
40
0.0715396733
40
0.1758009884
40
0.3312475726
40
0.5338901346
40
0.7709559530
40
1.0000000000
40
1.0000000000
40
1.0000000000
40
1.0000000000
10
294.0506933973
20
182.4547485353
30
0.0000000000
10
294.0457461812
20
182.4561748138
30
0.0000000000
10
294.0639793386
20
182.4891998337
30
0.0000000000
10
294.0744184166
20
182.5298212647
30
0.0000000000
10
294.1268345142
20
182.6297147908
30
0.0000000000
10
294.1929370990
20
182.7590354093
30
0.0000000000
10
294.2890318775
20
182.9290985995
30
0.0000000000
10
294.3984646578
20
183.1159376910
30
0.0000000000
10
294.4750559372
20
183.2467675238
30
0.0000000000
10
294.5103547161
20
183.3122579974
30
0.0000000000
11
294.0506933973
21
182.4547485353
31
0.0000000000
11
294.0531394549
21
182.4699997569
31
0.0000000000
11
294.0736050922
21
182.5202586314
31
0.0000000000
11
294.1173560571
21
182.6119536414
31
0.0000000000
11
294.1874372199
21
182.7462423830
31
0.0000000000
11
294.2836769991
21
182.9186681919
31
0.0000000000
11
294.3998596717
21
183.1183355942
31
0.0000000000
11
294.5103547161
21
183.3122579974
31
0.0000000000
0
SPLINE
5
3C2
100
AcDbEntity
8
0
100
AcDbSpline
62
9
6
CONTINUOUS
70
0
71
3
72
14
73
10
74
8
42
0.0000001000
43
0.0000001000
44
0.0000000001
12
0.8714566208
22
-0.5031901762
32
0.0000000000
13
-0.3777086954
23
0.9327235050
33
0.0000000000
40
0.0000000000
40
0.0000000000
40
0.0000000000
40
0.0000000000
40
0.0183305894
40
0.0666487266
40
0.1586854564
40
0.2995890524
40
0.4902572338
40
0.7306197336
40
1.0000000000
40
1.0000000000
40
1.0000000000
40
1.0000000000
10
295.0506840323
20
182.1868378956
30
0.0000000000
10
295.0560088035
20
182.1837633048
30
0.0000000000
10
295.0806761556
20
182.1992533459
30
0.0000000000
10
295.0953777438
20
182.2487796476
30
0.0000000000
10
295.1262832705
20
182.3391418977
30
0.0000000000
10
295.1490808704
20
182.4794211866
30
0.0000000000
10
295.1656717079
20
182.6710987385
30
0.0000000000
10
295.1505649775
20
182.9059511079
30
0.0000000000
10
295.1155279146
20
183.0755268652
30
0.0000000000
10
295.0816121583
20
183.1592793006
30
0.0000000000
11
295.0506840323
21
182.1868378956
31
0.0000000000
11
295.0681786302
21
182.1926856056
31
0.0000000000
11
295.0916141031
21
182.2352875289
31
0.0000000000
11
295.1188748418
21
182.3238011250
31
0.0000000000
11
295.1449171288
21
182.4631801598
31
0.0000000000
11
295.1599643797
21
182.6544583485
31
0.0000000000
11
295.1458450133
21
182.8959223546
31
0.0000000000
11
295.0816121583
21
183.1592793006
31
0.0000000000
0
SPLINE
5
3C3
100
AcDbEntity
8
0
100
AcDbSpline
62
9
6
CONTINUOUS
70
0
71
3
72
10
73
6
74
4
42
0.0000001000
43
0.0000001000
44
0.0000000001
12
0.6121833874
22
1.1424932337
32
0.0000000000
13
0.6183409923
23
1.1391723777
33
0.0000000000
40
0.0000000000
40
0.0000000000
40
0.0000000000
40
0.0000000000
40
0.3061217573
40
0.6457730365
40
1.0000000000
40
1.0000000000
40
1.0000000000
40
1.0000000000
10
294.5103547161
20
183.3122579974
30
0.0000000000
10
294.5728222676
20
183.4288386762
30
0.0000000000
10
294.7045217686
20
183.6748110211
30
0.0000000000
10
294.9089204994
20
184.0554597888
30
0.0000000000
10
295.0495937136
20
184.3202069931
30
0.0000000000
10
295.1226047310
20
184.4547155172
30
0.0000000000
11
294.5103547161
21
183.3122579974
31
0.0000000000
11
294.6977501745
21
183.6620038895
31
0.0000000000
11
294.9056645932
21
184.0500609212
31
0.0000000000
11
295.1226047310
21
184.4547155172
31
0.0000000000
0
SPLINE
5
3C4
100
AcDbEntity
8
0
100
AcDbSpline
62
9
6
CONTINUOUS
70
0
71
3
72
10
73
6
74
4
42
0.0000001000
43
0.0000001000
44
0.0000000001
12
0.0410362937
22
1.2955067892
32
0.0000000000
13
0.0340873897
23
1.2957082496
33
0.0000000000
40
0.0000000000
40
0.0000000000
40
0.0000000000
40
0.0000000000
40
0.3061142756
40
0.6457693610
40
1.0000000000
40
1.0000000000
40
1.0000000000
40
1.0000000000
10
295.0815926766
20
183.1592079697
30
0.0000000000
10
295.0857799417
20
183.2913990104
30
0.0000000000
10
295.0947209484
20
183.5702620431
30
0.0000000000
10
295.1080294528
20
184.0021081344
30
0.0000000000
10
295.1185797984
20
184.3017223301
30
0.0000000000
10
295.1226047310
20
184.4547155172
30
0.0000000000
11
295.0815926766
21
183.1592079697
31
0.0000000000
11
295.0941786351
21
183.5557803258
31
0.0000000000
11
295.1081507409
21
183.9958047192
31
0.0000000000
11
295.1226047310
21
184.4547155172
31
0.0000000000
0
SPLINE
5
3C5
100
AcDbEntity
8
0
100
AcDbSpline
62
9
6
CONTINUOUS
70
0
71
3
72
10
73
6
74
4
42
0.0000001000
43
0.0000001000
44
0.0000000001
12
0.5825584066
22
-0.1051629851
32
0.0000000000
13
0.5570923535
23
-0.2002040465
33
0.0000000000
40
0.0000000000
40
0.0000000000
40
0.0000000000
40
0.0000000000
40
0.3329586509
40
0.6670413742
40
1.0000000000
40
1.0000000000
40
1.0000000000
40
1.0000000000
10
294.5103684395
20
183.3122600160
30
0.0000000000
10
294.5750243932
20
183.3005883741
30
0.0000000000
10
294.7039266882
20
183.2735620528
30
0.0000000000
10
294.8946140644
20
183.2224678022
30
0.0000000000
10
295.0197599854
20
183.1814224484
30
0.0000000000
10
295.0815895535
20
183.1592025604
30
0.0000000000
11
294.5103684395
21
183.3122600160
31
0.0000000000
11
294.7032844218
21
183.2718496220
31
0.0000000000
11
294.8943140755
21
183.2206636510
31
0.0000000000
11
295.0815895535
21
183.1592025604
31
0.0000000000
0
SPLINE
5
3C6
100
AcDbEntity
8
0
100
AcDbSpline
62
9
6
CONTINUOUS
70
0
71
3
72
14
73
10
74
8
42
0.0000001000
43
0.0000001000
44
0.0000000001
12
-1.3703395895
22
0.0811773471
32
0.0000000000
13
-0.4827151201
23
1.2850706071
33
0.0000000000
40
0.0000000000
40
0.0000000000
40
0.0000000000
40
0.0000000000
40
0.1197302349
40
0.2460117919
40
0.3792701702
40
0.5218303509
40
0.6749162980
40
0.8397306588
40
1.0000000000
40
1.0000000000
40
1.0000000000
40
1.0000000000
10
266.0860684659
20
202.5248938606
30
0.0000000000
10
266.0313781056
20
202.5281336549
30
0.0000000000
10
265.9194629379
20
202.5476579355
30
0.0000000000
10
265.7573000171
20
202.6123652508
30
0.0000000000
10
265.6011163332
20
202.7114882390
30
0.0000000000
10
265.4547764398
20
202.8433566126
30
0.0000000000
10
265.3197188645
20
203.0062878495
30
0.0000000000
10
265.2087593238
20
203.1953785099
30
0.0000000000
10
265.1429033976
20
203.3292526884
30
0.0000000000
10
265.1171152529
20
203.3979051616
30
0.0000000000
11
266.0860684659
21
202.5248938606
31
0.0000000000
11
265.9240370882
21
202.5524550405
31
0.0000000000
11
265.7626883213
21
202.6158386852
31
0.0000000000
11
265.6077698061
21
202.7131187172
31
0.0000000000
11
265.4616594857
21
202.8433093949
31
0.0000000000
11
265.3276748952
21
203.0052047294
31
0.0000000000
11
265.2101670696
21
203.1985434959
31
0.0000000000
11
265.1171152529
21
203.3979051616
31
0.0000000000
0
SPLINE
5
3C7
100
AcDbEntity
8
0
100
AcDbSpline
62
9
6
CONTINUOUS
70
0
71
3
72
10
73
6
74
4
42
0.0000001000
43
0.0000001000
44
0.0000000001
12
0.3746397228
22
-0.3690816944
32
0.0000000000
13
0.3750999427
23
-0.3730625620
33
0.0000000000
40
0.0000000000
40
0.0000000000
40
0.0000000000
40
0.0000000000
40
0.2615831892
40
0.7717669172
40
1.0000000000
40
1.0000000000
40
1.0000000000
40
1.0000000000
10
285.2755134090
20
216.0571404824
30
0.0000000000
10
285.3081798935
20
216.0249586269
30
0.0000000000
10
285.4046307058
20
215.9309015048
30
0.0000000000
10
285.5252798650
20
215.8046781450
30
0.0000000000
10
285.6213568176
20
215.7142052674
30
0.0000000000
10
285.6498935564
20
215.6858235278
30
0.0000000000
11
285.2755134090
21
216.0571404824
31
0.0000000000
11
285.3731786506
21
215.9608133035
31
0.0000000000
11
285.5626325979
21
215.7703938205
31
0.0000000000
11
285.6498935564
21
215.6858235278
31
0.0000000000
0
SPLINE
5
3C8
100
AcDbEntity
8
0
100
AcDbSpline
62
9
6
CONTINUOUS
70
0
71
3
72
9
73
5
74
3
42
0.0000001000
43
0.0000001000
44
0.0000000001
12
0.1419593114
22
-0.1411882497
32
0.0000000000
13
0.1366423531
23
-0.1441113885
33
0.0000000000
40
0.0000000000
40
0.0000000000
40
0.0000000000
40
0.0000000000
40
0.5427575166
40
1.0000000000
40
1.0000000000
40
1.0000000000
40
1.0000000000
10
285.6498935564
20
215.6858235278
30
0.0000000000
10
285.6755767175
20
215.6602798666
30
0.0000000000
10
285.7211665926
20
215.6125933145
30
0.0000000000
10
285.7590487428
20
215.5620770294
30
0.0000000000
10
285.7798749724
20
215.5401124130
30
0.0000000000
11
285.6498935564
21
215.6858235278
31
0.0000000000
11
285.7227946265
21
215.6076817985
31
0.0000000000
11
285.7798749724
21
215.5401124130
31
0.0000000000
0
SPLINE
5
3C9
100
AcDbEntity
8
0
100
AcDbSpline
62
9
6
CONTINUOUS
70
0
71
3
72
9
73
5
74
3
42
0.0000001000
43
0.0000001000
44
0.0000000001
12
0.0817444592
22
-0.0862127098
32
0.0000000000
13
0.0000000000
23
-0.1192033882
33
0.0000000000
40
0.0000000000
40
0.0000000000
40
0.0000000000
40
0.0000000000
40
0.5267558330
40
1.0000000000
40
1.0000000000
40
1.0000000000
40
1.0000000000
10
285.7798749724
20
215.5401124130
30
0.0000000000
10
285.7942280960
20
215.5249747304
30
0.0000000000
10
285.8246366193
20
215.4972593056
30
0.0000000000
10
285.8670808371
20
215.4735196199
30
0.0000000000
10
285.8670808371
20
215.4547155172
30
0.0000000000
11
285.7798749724
21
215.5401124130
31
0.0000000000
11
285.8296033947
21
215.4968793622
31
0.0000000000
11
285.8670808371
21
215.4547155172
31
0.0000000000
0
SPLINE
5
3CA
100
AcDbEntity
8
0
100
AcDbSpline
62
9
6
CONTINUOUS
70
0
71
3
72
9
73
5
74
3
42
0.0000001000
43
0.0000001000
44
0.0000000001
12
0.0000000000
22
0.1193796301
32
0.0000000000
13
0.0809764078
23
0.0870311328
33
0.0000000000
40
0.0000000000
40
0.0000000000
40
0.0000000000
40
0.0000000000
40
0.4643913206
40
1.0000000000
40
1.0000000000
40
1.0000000000
40
1.0000000000
10
279.8670808371
20
215.4547155172
30
0.0000000000
10
279.8670808371
20
215.4731951386
30
0.0000000000
10
279.9105165671
20
215.4960992940
30
0.0000000000
10
279.9409272317
20
215.5238643379
30
0.0000000000
10
279.9553844540
20
215.5394025479
30
0.0000000000
11
279.8670808371
21
215.4547155172
31
0.0000000000
11
279.9046142127
21
215.4955164164
31
0.0000000000
11
279.9553844540
21
215.5394025479
31
0.0000000000
0
SPLINE
5
3CB
100
AcDbEntity
8
0
100
AcDbSpline
62
9
6
CONTINUOUS
70
0
71
3
72
9
73
5
74
3
42
0.0000001000
43
0.0000001000
44
0.0000000001
12
0.1351462080
22
0.1452512886
32
0.0000000000
13
0.1421058341
23
0.1410492997
33
0.0000000000
40
0.0000000000
40
0.0000000000
40
0.0000000000
40
0.0000000000
40
0.4559667589
40
1.0000000000
40
1.0000000000
40
1.0000000000
40
1.0000000000
10
279.9553844540
20
215.5394025479
30
0.0000000000
10
279.9759251801
20
215.5614791343
30
0.0000000000
10
280.0128677497
20
215.6128492210
30
0.0000000000
10
280.0583202931
20
215.6606601630
30
0.0000000000
10
280.0840903923
20
215.6862386656
30
0.0000000000
11
279.9553844540
21
215.5394025479
31
0.0000000000
11
280.0113836195
21
215.6075852718
31
0.0000000000
11
280.0840903923
21
215.6862386656
31
0.0000000000
0
SPLINE
5
3CC
100
AcDbEntity
8
0
100
AcDbSpline
62
9
6
CONTINUOUS
70
0
71
3
72
10
73
6
74
4
42
0.0000001000
43
0.0000001000
44
0.0000000001
12
0.3749800001
22
0.3721920832
32
0.0000000000
13
0.3740632690
23
0.3685828796
33
0.0000000000
40
0.0000000000
40
0.0000000000
40
0.0000000000
40
0.0000000000
40
0.2282444553
40
0.7391284353
40
1.0000000000
40
1.0000000000
40
1.0000000000
40
1.0000000000
10
280.0840903923
20
215.6862386656
30
0.0000000000
10
280.1126194276
20
215.7145555920
30
0.0000000000
10
280.2091426734
20
215.8045393622
30
0.0000000000
10
280.3294400322
20
215.9307240032
30
0.0000000000
10
280.4256282977
20
216.0247796376
30
0.0000000000
10
280.4581557878
20
216.0568305685
30
0.0000000000
11
280.0840903923
21
215.6862386656
31
0.0000000000
11
280.1715071066
21
215.7704430087
31
0.0000000000
11
280.3609830509
21
215.9608133307
31
0.0000000000
11
280.4581557878
21
216.0568305685
31
0.0000000000
0
SPLINE
5
3CD
100
AcDbEntity
8
0
100
AcDbSpline
62
9
6
CONTINUOUS
70
0
71
3
72
11
73
7
74
5
42
0.0000001000
43
0.0000001000
44
0.0000000001
12
0.9303584301
22
-0.0000005430
32
0.0000000000
13
0.0468177202
23
-0.9291796971
33
0.0000000000
40
0.0000000000
40
0.0000000000
40
0.0000000000
40
0.0000000000
40
0.1875781264
40
0.4150030152
40
0.6908878890
40
1.0000000000
40
1.0000000000
40
1.0000000000
40
1.0000000000
10
265.6301124477
20
203.2547151669
30
0.0000000000
10
265.6882840781
20
203.2547151330
30
0.0000000000
10
265.8175559033
20
203.2067209527
30
0.0000000000
10
265.9578257591
20
203.0374579095
30
0.0000000000
10
266.0536878166
20
202.8017429911
30
0.0000000000
10
266.0812459500
20
202.6206343176
30
0.0000000000
10
266.0860699247
20
202.5248940850
30
0.0000000000
11
265.6301124477
21
203.2547151669
31
0.0000000000
11
265.7959474808
21
203.2003627148
31
0.0000000000
11
265.9392486854
21
203.0446910074
31
0.0000000000
11
266.0405441954
21
202.8088528386
31
0.0000000000
11
266.0860699247
21
202.5248940850
31
0.0000000000
0
SPLINE
5
3CE
100
AcDbEntity
8
0
100
AcDbSpline
62
9
6
CONTINUOUS
70
0
71
3
72
13
73
9
74
7
42
0.0000001000
43
0.0000001000
44
0.0000000001
12
-0.5984187490
22
-0.0000090979
32
0.0000000000
13
-0.3513974354
23
0.4843808849
33
0.0000000000
40
0.0000000000
40
0.0000000000
40
0.0000000000
40
0.0000000000
40
0.1605191137
40
0.3242390986
40
0.4891205737
40
0.6569016836
40
0.8278218093
40
1.0000000000
40
1.0000000000
40
1.0000000000
40
1.0000000000
10
265.6300955739
20
203.2547155175
30
0.0000000000
10
265.5980763581
20
203.2547150307
30
0.0000000000
10
265.5332894766
20
203.2600073341
30
0.0000000000
10
265.4381389713
20
203.2832459192
30
0.0000000000
10
265.3463622432
20
203.3214349161
30
0.0000000000
10
265.2602605122
20
203.3739648453
30
0.0000000000
10
265.1822721147
20
203.4401452543
30
0.0000000000
10
265.1372439041
20
203.4921538867
30
0.0000000000
10
265.1170762459
20
203.5199538281
30
0.0000000000
11
265.6300955739
21
203.2547155175
31
0.0000000000
11
265.5343484943
21
203.2624335710
31
0.0000000000
11
265.4391514838
21
203.2855908419
31
0.0000000000
11
265.3480353428
21
203.3234492074
31
0.0000000000
11
265.2623201081
21
203.3757343260
31
0.0000000000
11
265.1842876010
21
203.4418591779
31
0.0000000000
11
265.1170762459
21
203.5199538281
31
0.0000000000
0
SPLINE
5
3CF
100
AcDbEntity
8
0
100
AcDbSpline
62
9
6
CONTINUOUS
70
0
71
3
72
17
73
13
74
11
42
0.0000001000
43
0.0000001000
44
0.0000000001
12
0.7309584000
22
-4.9999420166
32
0.0000000000
13
0.7305432671
23
-5.0000026839
33
0.0000000000
40
0.0000000000
40
0.0000000000
40
0.0000000000
40
0.0000000000
40
0.0061146171
40
0.0276445439
40
0.0691053867
40
0.1343199948
40
0.2259019588
40
0.3446857350
40
0.4886039529
40
0.6518008765
40
0.8255198723
40
1.0000000000
40
1.0000000000
40
1.0000000000
40
1.0000000000
10
290.0685535807
20
223.2677806532
30
0.0000000000
10
290.0700434243
20
223.2575897428
30
0.0000000000
10
290.0767779468
20
223.2115158695
30
0.0000000000
10
290.0936031407
20
223.0963397299
30
0.0000000000
10
290.1248260550
20
222.8826644323
30
0.0000000000
10
290.1731069676
20
222.5522355767
30
0.0000000000
10
290.2402188036
20
222.0929353409
30
0.0000000000
10
290.3264916353
20
221.5024616988
30
0.0000000000
10
290.4302031921
20
220.7926296464
30
0.0000000000
10
290.5472966379
20
219.9912394841
30
0.0000000000
10
290.6718275173
20
219.1389120721
30
0.0000000000
10
290.7566259491
20
218.5585808995
30
0.0000000000
10
290.7991143766
20
218.2677805305
30
0.0000000000
11
290.0685535807
21
223.2677806532
31
0.0000000000
11
290.0730224146
21
223.2372078202
31
0.0000000000
11
290.0887510212
21
223.1295581379
31
0.0000000000
11
290.1190409132
21
222.9222539516
31
0.0000000000
11
290.1666858943
21
222.5961811581
31
0.0000000000
11
290.2335937376
21
222.1382715680
31
0.0000000000
11
290.3203710075
21
221.5443524533
31
0.0000000000
11
290.4255092238
21
220.8247609383
31
0.0000000000
11
290.5447335068
21
220.0087761558
31
0.0000000000
11
290.6716441391
21
219.1401809136
31
0.0000000000
11
290.7991143766
21
218.2677805305
31
0.0000000000
0
SPLINE
5
3D0
100
AcDbEntity
8
0
100
AcDbSpline
62
9
6
CONTINUOUS
70
0
71
3
72
14
73
10
74
8
42
0.0000001000
43
0.0000001000
44
0.0000000001
12
-1.7399249098
22
-1.8418070128
32
0.0000000000
13
-1.7397788805
23
-1.8419449731
33
0.0000000000
40
0.0000000000
40
0.0000000000
40
0.0000000000
40
0.0000000000
40
0.2191596993
40
0.4364699767
40
0.6332536773
40
0.7927484779
40
0.9075063258
40
0.9766989236
40
1.0000000000
40
1.0000000000
40
1.0000000000
40
1.0000000000
10
270.0813447602
20
184.1485973706
30
0.0000000000
10
269.9542376202
20
184.0140474136
30
0.0000000000
10
269.7010544967
20
183.7461220975
30
0.0000000000
10
269.3337564729
20
183.3573703405
30
0.0000000000
10
269.0010553909
20
183.0052558014
30
0.0000000000
10
268.7278359119
20
182.7160983039
30
0.0000000000
10
268.5286284324
20
182.5052618647
30
0.0000000000
10
268.4084063411
20
182.3780429770
30
0.0000000000
10
268.3547631363
20
182.3212570449
30
0.0000000000
10
268.3412502294
20
182.3069506114
30
0.0000000000
11
270.0813447602
21
184.1485973706
31
0.0000000000
11
269.6999875092
21
183.7449813516
31
0.0000000000
11
269.3218487717
21
183.3447709886
31
0.0000000000
11
268.9794260225
21
182.9823654039
31
0.0000000000
11
268.7018878601
21
182.6886343358
31
0.0000000000
11
268.5021956883
21
182.4772934382
31
0.0000000000
11
268.3817914673
21
182.3498675337
31
0.0000000000
11
268.3412502294
21
182.3069506114
31
0.0000000000
0
SPLINE
5
3D1
100
AcDbEntity
8
0
100
AcDbSpline
62
9
6
CONTINUOUS
70
0
71
3
72
14
73
10
74
8
42
0.0000001000
43
0.0000001000
44
0.0000000001
12
1.7399248091
22
-1.8418070931
32
0.0000000000
13
1.7397798172
23
-1.8419440734
33
0.0000000000
40
0.0000000000
40
0.0000000000
40
0.0000000000
40
0.0000000000
40
0.2191425751
40
0.4364511148
40
0.6332420757
40
0.7927433270
40
0.9075043372
40
0.9766983797
40
1.0000000000
40
1.0000000000
40
1.0000000000
40
1.0000000000
10
295.6528169140
20
184.1485973706
30
0.0000000000
10
295.7799141151
20
184.0140579209
30
0.0000000000
10
296.0330862557
20
183.7461441459
30
0.0000000000
10
296.4003775471
20
183.3573995111
30
0.0000000000
10
296.7330855596
20
183.0052776110
30
0.0000000000
10
297.0063148290
20
182.7161097608
30
0.0000000000
10
297.2055287429
20
182.5052665546
30
0.0000000000
10
297.3257538365
20
182.3780445198
30
0.0000000000
10
297.3793982179
20
182.3212573893
30
0.0000000000
10
297.3929114475
20
182.3069506288
30
0.0000000000
11
295.6528169140
21
184.1485973706
31
0.0000000000
11
296.0341443285
21
183.7450128547
31
0.0000000000
11
296.4122800268
21
183.3448056809
31
0.0000000000
11
296.7547154000
21
182.9823867191
31
0.0000000000
11
297.0322647934
21
182.6886437792
31
0.0000000000
11
297.2319624868
21
182.4772970774
31
0.0000000000
11
297.3523692454
21
182.3498685356
31
0.0000000000
11
297.3929114475
21
182.3069506288
31
0.0000000000
0
SPLINE
5
3D2
100
AcDbEntity
8
0
100
AcDbSpline
62
7
6
CONTINUOUS
70
0
71
3
72
8
73
4
74
2
42
0.0000001000
43
0.0000001000
44
0.0000000001
12
-0.0856991616
22
0.0000000000
32
0.0000000000
13
-0.0634767015
23
0.0673423278
33
0.0000000000
40
0.0000000000
40
0.0000000000
40
0.0000000000
40
0.0000000000
40
1.0000000000
40
1.0000000000
40
1.0000000000
40
1.0000000000
10
276.8424558987
20
220.4547155172
30
0.0000000000
10
276.8138895115
20
220.4547155172
30
0.0000000000
10
276.7922489966
20
220.4797156091
30
0.0000000000
10
276.7710900961
20
220.5021630517
30
0.0000000000
11
276.8424558987
21
220.4547155172
31
0.0000000000
11
276.7710900961
21
220.5021630517
31
0.0000000000
0
SPLINE
5
3D3
100
AcDbEntity
8
0
100
AcDbSpline
62
7
6
CONTINUOUS
70
0
71
3
72
13
73
9
74
7
42
0.0000001000
43
0.0000001000
44
0.0000000001
12
-0.8725569309
22
0.9256942070
32
0.0000000000
13
-1.0110863473
23
0.6045302351
33
0.0000000000
40
0.0000000000
40
0.0000000000
40
0.0000000000
40
0.0000000000
40
0.1315541756
40
0.2941026798
40
0.4719431751
40
0.6549006991
40
0.8340830268
40
1.0000000000
40
1.0000000000
40
1.0000000000
40
1.0000000000
10
276.7710900961
20
220.5021630517
30
0.0000000000
10
276.7328272602
20
220.5427560311
30
0.0000000000
10
276.6508077824
20
220.6148439434
30
0.0000000000
10
276.5173917607
20
220.7479413868
30
0.0000000000
10
276.3653168658
20
220.8848357701
30
0.0000000000
10
276.2024971153
20
221.0211886834
30
0.0000000000
10
276.0365093864
20
221.1455353561
30
0.0000000000
10
275.9229996326
20
221.2198299068
30
0.0000000000
10
275.8670808371
20
221.2532638491
30
0.0000000000
11
276.7710900961
21
220.5021630517
31
0.0000000000
11
276.6592270185
21
220.6094187762
31
0.0000000000
11
276.5211025539
21
220.7420417339
31
0.0000000000
11
276.3658441423
21
220.8827030523
31
0.0000000000
11
276.2001749248
21
221.0205674020
31
0.0000000000
11
276.0309829382
21
221.1467802217
31
0.0000000000
11
275.8670808371
21
221.2532638491
31
0.0000000000
0
SPLINE
5
3D4
100
AcDbEntity
8
0
100
AcDbSpline
62
9
6
CONTINUOUS
70
0
71
3
72
11
73
7
74
5
42
0.0000001000
43
0.0000001000
44
0.0000000001
12
-0.7799899668
22
0.0000000000
32
0.0000000000
13
-0.0000000000
23
0.7799899668
33
0.0000000000
40
0.0000000000
40
0.0000000000
40
0.0000000000
40
0.0000000000
40
0.2498900216
40
0.4998444812
40
0.7498900416
40
1.0000000000
40
1.0000000000
40
1.0000000000
40
1.0000000000
10
266.8732043530
20
203.2547155172
30
0.0000000000
10
266.8082337831
20
203.2547155172
30
0.0000000000
10
266.6768515980
20
203.2807435441
30
0.0000000000
10
266.5108163235
20
203.3920358828
30
0.0000000000
10
266.3996662523
20
203.5582274789
30
0.0000000000
10
266.3736802422
20
203.6896877645
30
0.0000000000
10
266.3736802422
20
203.7547155172
30
0.0000000000
11
266.8732043530
21
203.2547155172
31
0.0000000000
11
266.6820447517
21
203.2927757510
31
0.0000000000
11
266.5199874669
21
203.4011621266
31
0.0000000000
11
266.4117042510
21
203.5633738010
31
0.0000000000
11
266.3736802422
21
203.7547155172
31
0.0000000000
0
SPLINE
5
3D5
100
AcDbEntity
8
0
100
AcDbSpline
62
9
6
CONTINUOUS
70
0
71
3
72
16
73
12
74
10
42
0.0000001000
43
0.0000001000
44
0.0000000001
12
0.7305493713
22
5.0000527823
32
0.0000000000
13
0.7903627344
23
4.9910471140
33
0.0000000000
40
0.0000000000
40
0.0000000000
40
0.0000000000
40
0.0000000000
40
0.1938664266
40
0.3855493810
40
0.5617334366
40
0.7113424311
40
0.8282374457
40
0.9118787915
40
0.9649575763
40
0.9923092622
40
1.0000000000
40
1.0000000000
40
1.0000000000
40
1.0000000000
10
274.9350472976
20
218.2677805305
30
0.0000000000
10
274.9822569630
20
218.5908946525
30
0.0000000000
10
275.0761511678
20
219.2334827719
30
0.0000000000
10
275.2129352763
20
220.1697161207
30
0.0000000000
10
275.3389697410
20
221.0321821826
30
0.0000000000
10
275.4467410908
20
221.7700080079
30
0.0000000000
10
275.5320915599
20
222.3535770715
30
0.0000000000
10
275.5936621259
20
222.7763018890
30
0.0000000000
10
275.6339851236
20
223.0497022685
30
0.0000000000
10
275.6548971402
20
223.1966548586
30
0.0000000000
10
275.6639219271
20
223.2549855319
30
0.0000000000
10
275.6659480847
20
223.2677804769
30
0.0000000000
11
274.9350472976
21
218.2677805305
31
0.0000000000
11
275.0766799971
21
219.2371223553
31
0.0000000000
11
275.2167145637
21
220.1955471418
31
0.0000000000
11
275.3454319186
21
221.0764758125
31
0.0000000000
11
275.4547312370
21
221.8245283077
31
0.0000000000
11
275.5401302241
21
222.4090093448
31
0.0000000000
11
275.6012349820
21
222.8272203974
31
0.0000000000
11
275.6400117738
21
223.0926171057
31
0.0000000000
11
275.6599947435
21
223.2293768014
31
0.0000000000
11
275.6659480847
21
223.2677804769
31
0.0000000000
0
SPLINE
5
3D6
100
AcDbEntity
8
0
100
AcDbSpline
62
9
6
CONTINUOUS
70
0
71
3
72
12
73
8
74
6
42
0.0000001000
43
0.0000001000
44
0.0000000001
12
-1.5636002845
22
0.0000000000
32
0.0000000000
13
-0.0000000017
23
-1.5636002845
33
0.0000000000
40
0.0000000000
40
0.0000000000
40
0.0000000000
40
0.0000000000
40
0.1999042194
40
0.3998457525
40
0.5998461945
40
0.7999050912
40
1.0000000000
40
1.0000000000
40
1.0000000000
40
1.0000000000
10
267.3727284638
20
207.2547155172
30
0.0000000000
10
267.2685383657
20
207.2547155172
30
0.0000000000
10
267.0586677198
20
207.2215357512
30
0.0000000000
10
266.7757878695
20
207.0771441928
30
0.0000000000
10
266.5510419796
20
206.8521677717
30
0.0000000000
10
266.4068171431
20
206.5690329705
30
0.0000000000
10
266.3736802420
20
206.3590050027
30
0.0000000000
10
266.3736802419
20
206.2547155172
30
0.0000000000
11
267.3727284638
21
207.2547155172
31
0.0000000000
11
267.0640134271
21
207.2057745839
31
0.0000000000
11
266.7855125223
21
207.0637396888
31
0.0000000000
11
266.5644882423
21
206.8425100934
31
0.0000000000
11
266.4225792713
21
206.5637390696
31
0.0000000000
11
266.3736802419
21
206.2547155172
31
0.0000000000
0
SPLINE
5
3D7
100
AcDbEntity
8
0
100
AcDbSpline
62
9
6
CONTINUOUS
70
0
71
3
72
18
73
14
74
12
42
0.0000001000
43
0.0000001000
44
0.0000000001
12
0.2091123532
22
-1.3586247746
32
0.0000000000
13
1.1905564148
23
0.6871423998
33
0.0000000000
40
0.0000000000
40
0.0000000000
40
0.0000000000
40
0.0000000000
40
0.0847116013
40
0.1738094141
40
0.2677119124
40
0.3660748630
40
0.4678553801
40
0.5716933702
40
0.6752049905
40
0.7736602728
40
0.8619299691
40
0.9360587283
40
1.0000000000
40
1.0000000000
40
1.0000000000
40
1.0000000000
10
268.3412494256
20
182.3069558342
30
0.0000000000
10
268.3471541730
20
182.2685920741
30
0.0000000000
10
268.3639195004
20
182.1905212483
30
0.0000000000
10
268.4031628734
20
182.0740657286
30
0.0000000000
10
268.4562398957
20
181.9563765971
30
0.0000000000
10
268.5216983508
20
181.8384764223
30
0.0000000000
10
268.5970050514
20
181.7212085258
30
0.0000000000
10
268.6804786998
20
181.6066602238
30
0.0000000000
10
268.7695000696
20
181.4983888254
30
0.0000000000
10
268.8614564242
20
181.4018777647
30
0.0000000000
10
268.9537871916
20
181.3259234377
30
0.0000000000
10
269.0470366680
20
181.2756096585
30
0.0000000000
10
269.1164428635
20
181.2821078652
30
0.0000000000
10
269.1418180939
20
181.2967534515
30
0.0000000000
11
268.3412494256
21
182.3069558342
31
0.0000000000
11
268.3655661265
21
182.1930765330
31
0.0000000000
11
268.4042828471
21
182.0768811409
31
0.0000000000
11
268.4569564286
21
181.9590368129
31
0.0000000000
11
268.5221519723
21
181.8405807983
31
0.0000000000
11
268.5976184898
21
181.7227691821
31
0.0000000000
11
268.6816628777
21
181.6073971215
31
0.0000000000
11
268.7723368667
21
181.4977407232
31
0.0000000000
11
268.8666107479
21
181.4006373746
31
0.0000000000
11
268.9615767603
21
181.3251107872
31
0.0000000000
11
269.0548435599
21
181.2840652652
31
0.0000000000
11
269.1418180939
21
181.2967534515
31
0.0000000000
0
SPLINE
5
3D8
100
AcDbEntity
8
0
100
AcDbSpline
62
9
6
CONTINUOUS
70
0
71
3
72
18
73
14
74
12
42
0.0000001000
43
0.0000001000
44
0.0000000001
12
1.1905295472
22
-0.6870836117
32
0.0000000000
13
0.2091043430
23
1.3585727313
33
0.0000000000
40
0.0000000000
40
0.0000000000
40
0.0000000000
40
0.0000000000
40
0.0646043217
40
0.1396221601
40
0.2286823459
40
0.3277197136
40
0.4315147142
40
0.5353624223
40
0.6369189832
40
0.7347842555
40
0.8279661766
40
0.9162023367
40
1.0000000000
40
1.0000000000
40
1.0000000000
40
1.0000000000
10
296.5923436795
20
181.2967554735
30
0.0000000000
10
296.6179814641
20
181.2819592832
30
0.0000000000
10
296.6882889783
20
181.2757394277
30
0.0000000000
10
296.7821553564
20
181.3271379858
30
0.0000000000
10
296.8750216563
20
181.4040501218
30
0.0000000000
10
296.9672590910
20
181.5013336157
30
0.0000000000
10
297.0563207825
20
181.6100821952
30
0.0000000000
10
297.1396139556
20
181.7247945762
30
0.0000000000
10
297.2145151189
20
181.8419286492
30
0.0000000000
10
297.2794204775
20
181.9593742151
30
0.0000000000
10
297.3318427689
20
182.0763053094
30
0.0000000000
10
297.3705326801
20
182.1917296285
30
0.0000000000
10
297.3870714319
20
182.2690074382
30
0.0000000000
10
297.3929122503
20
182.3069558449
30
0.0000000000
11
296.5923436795
21
181.2967554735
31
0.0000000000
11
296.6802624792
21
181.2842537193
31
0.0000000000
11
296.7744186748
21
181.3262988427
31
0.0000000000
11
296.8699420652
21
181.4028613683
31
0.0000000000
11
296.9645181302
21
181.5007786582
31
0.0000000000
11
297.0552147434
21
181.6109143458
31
0.0000000000
11
297.1390548423
21
181.7264446963
31
0.0000000000
11
297.2141256179
21
181.8441375532
31
0.0000000000
11
297.2787489742
21
181.9621213960
31
0.0000000000
11
297.3307694559
21
182.0791669905
31
0.0000000000
11
297.3689289287
21
182.1942945343
31
0.0000000000
11
297.3929122503
21
182.3069558449
31
0.0000000000
0
SPLINE
5
3D9
100
AcDbEntity
8
0
100
AcDbSpline
62
9
6
CONTINUOUS
70
0
71
3
72
11
73
7
74
5
42
0.0000001000
43
0.0000001000
44
0.0000000001
12
0.7799899668
22
0.0000000000
32
0.0000000000
13
-0.0000000001
23
0.7799899668
33
0.0000000000
40
0.0000000000
40
0.0000000000
40
0.0000000000
40
0.0000000000
40
0.2498895970
40
0.4998439529
40
0.7498896936
40
1.0000000000
40
1.0000000000
40
1.0000000000
40
1.0000000000
10
298.8609573212
20
203.2547155172
30
0.0000000000
10
298.9259277807
20
203.2547155172
30
0.0000000000
10
299.0573098214
20
203.2807434694
30
0.0000000000
10
299.2233451013
20
203.3920356272
30
0.0000000000
10
299.3344953562
20
203.5582272452
30
0.0000000000
10
299.3604814320
20
203.6896876740
30
0.0000000000
10
299.3604814320
20
203.7547155172
30
0.0000000000
11
298.8609573212
21
203.2547155172
31
0.0000000000
11
299.0521166106
21
203.2927756216
31
0.0000000000
11
299.2141739104
21
203.4011618294
31
0.0000000000
11
299.3224573174
21
203.5633735453
31
0.0000000000
11
299.3604814320
21
203.7547155172
31
0.0000000000
0
SPLINE
5
3DA
100
AcDbEntity
8
0
100
AcDbSpline
62
9
6
CONTINUOUS
70
0
71
3
72
14
73
10
74
8
42
0.0000001000
43
0.0000001000
44
0.0000000001
12
-0.3513480309
22
-0.4845747296
32
0.0000000000
13
-0.5985466626
23
0.0000095670
33
0.0000000000
40
0.0000000000
40
0.0000000000
40
0.0000000000
40
0.0000000000
40
0.1489339374
40
0.2966305292
40
0.4416427924
40
0.5836530665
40
0.7239241055
40
0.8632262414
40
1.0000000000
40
1.0000000000
40
1.0000000000
40
1.0000000000
10
300.6170791674
20
203.5199143815
30
0.0000000000
10
300.5996366189
20
203.4958578407
30
0.0000000000
10
300.5612088881
20
203.4505424054
30
0.0000000000
10
300.4956869332
20
203.3912699717
30
0.0000000000
10
300.4239305566
20
203.3420787630
30
0.0000000000
10
300.3476659357
20
203.3034424793
30
0.0000000000
10
300.2680703454
20
203.2754946921
30
0.0000000000
10
300.1865058333
20
203.2585535272
30
0.0000000000
10
300.1313551019
20
203.2547150813
30
0.0000000000
10
300.1040666096
20
203.2547155175
30
0.0000000000
11
300.6170791674
21
203.5199143815
31
0.0000000000
11
300.5596418652
21
203.4517411227
31
0.0000000000
11
300.4940438016
21
203.3924786736
31
0.0000000000
11
300.4224518870
21
203.3434047640
31
0.0000000000
11
300.3466183276
21
203.3050090203
31
0.0000000000
11
300.2673874700
21
203.2772323219
31
0.0000000000
11
300.1857390974
21
203.2603334376
31
0.0000000000
11
300.1040666096
21
203.2547155175
31
0.0000000000
0
SPLINE
5
3DB
100
AcDbEntity
8
0
100
AcDbSpline
62
9
6
CONTINUOUS
70
0
71
3
72
14
73
10
74
8
42
0.0000001000
43
0.0000001000
44
0.0000000001
12
-0.4831514819
22
-1.2851719405
32
0.0000000000
13
-1.3705839579
23
-0.0812519885
33
0.0000000000
40
0.0000000000
40
0.0000000000
40
0.0000000000
40
0.0000000000
40
0.1621303935
40
0.3277624304
40
0.4809889879
40
0.6229971071
40
0.7554407557
40
0.8809638255
40
1.0000000000
40
1.0000000000
40
1.0000000000
40
1.0000000000
10
300.6170770160
20
203.3981549358
30
0.0000000000
10
300.5909658360
20
203.3286997916
30
0.0000000000
10
300.5247500237
20
203.1935961768
30
0.0000000000
10
300.4125380503
20
203.0036810481
30
0.0000000000
10
300.2770283061
20
202.8408396101
30
0.0000000000
10
300.1306848213
20
202.7097557704
30
0.0000000000
10
299.9750756517
20
202.6115112918
30
0.0000000000
10
299.8137527551
20
202.5474503880
30
0.0000000000
10
299.7024762320
20
202.5281178359
30
0.0000000000
10
299.6480932083
20
202.5248938606
30
0.0000000000
11
300.6170770160
21
203.3981549358
31
0.0000000000
11
300.5229495747
21
203.1964315566
31
0.0000000000
11
300.4044181329
21
203.0023538929
31
0.0000000000
11
300.2699007138
21
202.8406003534
31
0.0000000000
11
300.1239683815
21
202.7112972079
31
0.0000000000
11
299.9697406985
21
202.6149592397
31
0.0000000000
11
299.8092310322
21
202.5522026004
31
0.0000000000
11
299.6480932083
21
202.5248938606
31
0.0000000000
0
SPLINE
5
3DC
100
AcDbEntity
8
0
100
AcDbSpline
62
9
6
CONTINUOUS
70
0
71
3
72
10
73
6
74
4
42
0.0000001000
43
0.0000001000
44
0.0000000001
12
-1.1776874316
22
-0.0703090253
32
0.0000000000
13
-1.1776904141
23
-0.0702590512
33
0.0000000000
40
0.0000000000
40
0.0000000000
40
0.0000000000
40
0.0000000000
40
0.3088199418
40
0.6475611426
40
1.0000000000
40
1.0000000000
40
1.0000000000
40
1.0000000000
10
299.6480932083
20
202.5248938606
30
0.0000000000
10
299.5268620869
20
202.5176562509
30
0.0000000000
10
299.2726514228
20
202.5025209865
30
0.0000000000
10
298.8800859621
20
202.4791346851
30
0.0000000000
10
298.6087526035
20
202.4629695238
30
0.0000000000
10
298.4703979822
20
202.4547155172
30
0.0000000000
11
299.6480932083
21
202.5248938606
31
0.0000000000
11
299.2843976195
21
202.5032183273
31
0.0000000000
11
298.8854632033
21
202.4794547786
31
0.0000000000
11
298.4703979822
21
202.4547155172
31
0.0000000000
0
SPLINE
5
3DD
100
AcDbEntity
8
0
100
AcDbSpline
62
9
6
CONTINUOUS
70
0
71
3
72
12
73
8
74
6
42
0.0000001000
43
0.0000001000
44
0.0000000001
12
1.5636002844
22
0.0000000000
32
0.0000000000
13
-0.0000000023
23
-1.5636002844
33
0.0000000000
40
0.0000000000
40
0.0000000000
40
0.0000000000
40
0.0000000000
40
0.1999094280
40
0.3998534605
40
0.5998534717
40
0.7999094462
40
1.0000000000
40
1.0000000000
40
1.0000000000
40
1.0000000000
10
298.3614332105
20
207.2547155172
30
0.0000000000
10
298.4656260233
20
207.2547155172
30
0.0000000000
10
298.6755008002
20
207.2215342135
30
0.0000000000
10
298.9583827021
20
207.0771379345
30
0.0000000000
10
299.1831255827
20
206.8521591801
30
0.0000000000
10
299.3273458809
20
206.5690268132
30
0.0000000000
10
299.3604814322
20
206.3590027328
30
0.0000000000
10
299.3604814320
20
206.2547155172
30
0.0000000000
11
298.3614332105
21
207.2547155172
31
0.0000000000
11
298.6701560888
21
207.2057720336
31
0.0000000000
11
298.9486590208
21
207.0637325121
31
0.0000000000
11
299.1696801995
21
206.8425007703
31
0.0000000000
11
299.3115845317
21
206.5637325122
31
0.0000000000
11
299.3604814320
21
206.2547155172
31
0.0000000000
0
SPLINE
5
3DE
100
AcDbEntity
8
0
100
AcDbSpline
62
9
6
CONTINUOUS
70
0
71
3
72
14
73
10
74
8
42
0.0000001000
43
0.0000001000
44
0.0000000001
12
-0.4317056916
22
0.7510074578
32
0.0000000000
13
0.8662459269
23
-0.0000000000
33
0.0000000000
40
0.0000000000
40
0.0000000000
40
0.0000000000
40
0.0000000000
40
0.0508371062
40
0.1897771660
40
0.3893492053
40
0.6106373437
40
0.8101888608
40
0.9491004669
40
1.0000000000
40
1.0000000000
40
1.0000000000
40
1.0000000000
10
277.4340681352
20
221.2047155173
30
0.0000000000
10
277.4267525792
20
221.2174418659
30
0.0000000000
10
277.4044025615
20
221.1085425939
30
0.0000000000
10
277.3472419314
20
221.0630795913
30
0.0000000000
10
277.2667357086
20
220.8970169765
30
0.0000000000
10
277.1839835593
20
220.7534163878
30
0.0000000000
10
277.0803083906
20
220.6007863974
30
0.0000000000
10
277.0696981339
20
220.5283574262
30
0.0000000000
10
276.9863582623
20
220.4547155172
30
0.0000000000
10
277.0010554333
20
220.4547155172
30
0.0000000000
11
277.4340681352
21
221.2047155173
31
0.0000000000
11
277.4143829451
21
221.1653227632
31
0.0000000000
11
277.3563143384
21
221.0599013875
31
0.0000000000
11
277.2708457970
21
220.9096279950
31
0.0000000000
11
277.1750529404
21
220.7435895506
31
0.0000000000
11
277.0876618897
21
220.5944465923
31
0.0000000000
11
277.0254339512
21
220.4914544530
31
0.0000000000
11
277.0010554333
21
220.4547155172
31
0.0000000000
0
SPLINE
5
3DF
100
AcDbEntity
8
0
100
AcDbSpline
62
9
6
CONTINUOUS
70
0
71
3
72
13
73
9
74
7
42
0.0000001000
43
0.0000001000
44
0.0000000001
12
1.7496182211
22
0.0032536300
32
0.0000000000
13
0.1783352943
23
1.7405088418
33
0.0000000000
40
0.0000000000
40
0.0000000000
40
0.0000000000
40
0.0000000000
40
0.1611600520
40
0.3231123518
40
0.4904770951
40
0.6624125594
40
0.8343458811
40
1.0000000000
40
1.0000000000
40
1.0000000000
40
1.0000000000
10
295.5132045279
20
178.4547155172
30
0.0000000000
10
295.6071940491
20
178.4548903023
30
0.0000000000
10
295.7974227359
20
178.4967080220
30
0.0000000000
10
296.0382359719
20
178.6598155195
30
0.0000000000
10
296.2278081832
20
178.8860738662
30
0.0000000000
10
296.3671830961
20
179.1516862563
30
0.0000000000
10
296.4587203540
20
179.4356193027
30
0.0000000000
10
296.4917187130
20
179.6304229517
30
0.0000000000
10
296.5015660384
20
179.7265304379
30
0.0000000000
11
295.5132045279
21
178.4547155172
31
0.0000000000
11
295.7890980421
21
178.5129333377
31
0.0000000000
11
296.0265961492
21
178.6674804494
31
0.0000000000
11
296.2173640213
21
178.8896381577
31
0.0000000000
11
296.3591910498
21
179.1549284408
31
0.0000000000
11
296.4526763401
21
179.4408516569
31
0.0000000000
11
296.5015660384
21
179.7265304379
31
0.0000000000
0
SPLINE
5
3E0
100
AcDbEntity
8
0
100
AcDbSpline
62
9
6
CONTINUOUS
70
0
71
3
72
11
73
7
74
5
42
0.0000001000
43
0.0000001000
44
0.0000000001
12
-0.2333222815
22
0.4041260540
32
0.0000000000
13
-0.4372986616
23
-0.1628712226
33
0.0000000000
40
0.0000000000
40
0.0000000000
40
0.0000000000
40
0.0000000000
40
0.1888464301
40
0.4135949965
40
0.6865115055
40
1.0000000000
40
1.0000000000
40
1.0000000000
40
1.0000000000
10
277.4340681352
20
221.2047155173
30
0.0000000000
10
277.4193807752
20
221.2301547715
30
0.0000000000
10
277.3685598426
20
221.2756054387
30
0.0000000000
10
277.2624494930
20
221.3018028717
30
0.0000000000
10
277.1352940622
20
221.2949468887
30
0.0000000000
10
277.0467514666
20
221.2702832659
30
0.0000000000
10
277.0010554336
20
221.2532638478
30
0.0000000000
11
277.4340681352
21
221.2047155173
31
0.0000000000
11
277.3702389602
21
221.2654749132
31
0.0000000000
11
277.2696718431
21
221.2952337191
31
0.0000000000
11
277.1423865252
21
221.2910211620
31
0.0000000000
11
277.0010554336
21
221.2532638478
31
0.0000000000
0
SPLINE
5
3E1
100
AcDbEntity
8
0
100
AcDbSpline
62
9
6
CONTINUOUS
70
0
71
3
72
9
73
5
74
3
42
0.0000001000
43
0.0000001000
44
0.0000000001
12
0.0234138213
22
0.2281851006
32
0.0000000000
13
0.0234212222
23
0.2281843410
33
0.0000000000
40
0.0000000000
40
0.0000000000
40
0.0000000000
40
0.0000000000
40
0.4985559913
40
1.0000000000
40
1.0000000000
40
1.0000000000
40
1.0000000000
10
296.5015660384
20
179.7265304379
30
0.0000000000
10
296.5054570720
20
179.7644514543
30
0.0000000000
10
296.5132608244
20
179.8405132421
30
0.0000000000
10
296.5210652564
20
179.9165749603
30
0.0000000000
10
296.5249800669
20
179.9547155172
30
0.0000000000
11
296.5015660384
21
179.7265304379
31
0.0000000000
11
296.5132384559
21
179.8402935570
31
0.0000000000
11
296.5249800669
21
179.9547155172
31
0.0000000000
0
SPLINE
5
3E2
100
AcDbEntity
8
0
100
AcDbSpline
62
9
6
CONTINUOUS
70
0
71
3
72
11
73
7
74
5
42
0.0000001000
43
0.0000001000
44
0.0000000001
12
0.4961760950
22
-0.0746015598
32
0.0000000000
13
0.0763180964
23
0.4959149707
33
0.0000000000
40
0.0000000000
40
0.0000000000
40
0.0000000000
40
0.0000000000
40
0.3744134146
40
0.6915786907
40
0.9071339681
40
1.0000000000
40
1.0000000000
40
1.0000000000
40
1.0000000000
10
296.5015660384
20
179.7265300765
30
0.0000000000
10
296.5634910337
20
179.7172194683
30
0.0000000000
10
296.6765522030
20
179.7030439920
30
0.0000000000
10
296.8345866642
20
179.6944669147
30
0.0000000000
10
296.9261532595
20
179.6976346061
30
0.0000000000
10
296.9933843407
20
179.7111792194
30
0.0000000000
10
296.9957467936
20
179.7265304379
30
0.0000000000
11
296.5015660384
21
179.7265300765
31
0.0000000000
11
296.6880863332
21
179.7041088401
31
0.0000000000
11
296.8470306950
21
179.6962477480
31
0.0000000000
11
296.9549001343
21
179.7041090138
31
0.0000000000
11
296.9957467936
21
179.7265304379
31
0.0000000000
0
SPLINE
5
3E3
100
AcDbEntity
8
0
100
AcDbSpline
62
9
6
CONTINUOUS
70
0
71
3
72
10
73
6
74
4
42
0.0000001000
43
0.0000001000
44
0.0000000001
12
-0.2549196137
22
0.4415337632
32
0.0000000000
13
-0.5088505608
23
-0.0317361042
33
0.0000000000
40
0.0000000000
40
0.0000000000
40
0.0000000000
40
0.0000000000
40
0.3263633978
40
0.6587505202
40
1.0000000000
40
1.0000000000
40
1.0000000000
40
1.0000000000
10
276.5316321290
20
222.7677805306
30
0.0000000000
10
276.5038999852
20
222.8158140170
30
0.0000000000
10
276.4279955092
20
222.9026005629
30
0.0000000000
10
276.2731417020
20
222.9810910280
30
0.0000000000
10
276.1565010902
20
222.9936127273
30
0.0000000000
10
276.0986194271
20
222.9900027510
30
0.0000000000
11
276.5316321290
21
222.7677805306
31
0.0000000000
11
276.4222820159
21
222.8931964040
31
0.0000000000
11
276.2715132602
21
222.9705710213
31
0.0000000000
11
276.0986194271
21
222.9900027510
31
0.0000000000
0
SPLINE
5
3E4
100
AcDbEntity
8
0
100
AcDbSpline
62
9
6
CONTINUOUS
70
0
71
3
72
9
73
5
74
3
42
0.0000001000
43
0.0000001000
44
0.0000000001
12
0.1829814900
22
-0.3521834557
32
0.0000000000
13
0.1829993649
23
-0.3521741676
33
0.0000000000
40
0.0000000000
40
0.0000000000
40
0.0000000000
40
0.0000000000
40
0.8136898124
40
1.0000000000
40
1.0000000000
40
1.0000000000
40
1.0000000000
10
276.0986194271
20
222.9900027528
30
0.0000000000
10
276.1482494852
20
222.8944800561
30
0.0000000000
10
276.2092659186
20
222.7770973161
30
0.0000000000
10
276.2702678261
20
222.6597070281
30
0.0000000000
10
276.2816327081
20
222.6378358163
30
0.0000000000
11
276.0986194271
21
222.9900027528
31
0.0000000000
11
276.2475367682
21
222.7034487793
31
0.0000000000
11
276.2816327081
21
222.6378358163
31
0.0000000000
0
SPLINE
5
3E5
100
AcDbEntity
8
0
100
AcDbSpline
62
9
6
CONTINUOUS
70
0
71
3
72
8
73
4
74
2
42
0.0000001000
43
0.0000001000
44
0.0000000001
12
0.0601107397
22
-0.1156804546
32
0.0000000000
13
0.0601051747
23
-0.1156833464
33
0.0000000000
40
0.0000000000
40
0.0000000000
40
0.0000000000
40
0.0000000000
40
1.0000000000
40
1.0000000000
40
1.0000000000
40
1.0000000000
10
276.2816327081
20
222.6378358163
30
0.0000000000
10
276.3016696213
20
222.5992756648
30
0.0000000000
10
276.3217053073
20
222.5607148755
30
0.0000000000
10
276.3417403655
20
222.5221537601
30
0.0000000000
11
276.2816327081
21
222.6378358163
31
0.0000000000
11
276.3417403655
21
222.5221537601
31
0.0000000000
0
SPLINE
5
3E6
100
AcDbEntity
8
0
100
AcDbSpline
62
9
6
CONTINUOUS
70
0
71
3
72
10
73
6
74
4
42
0.0000001000
43
0.0000001000
44
0.0000000001
12
0.6592820800
22
-1.2689083350
32
0.0000000000
13
0.6593259225
23
-1.2688855542
33
0.0000000000
40
0.0000000000
40
0.0000000000
40
0.0000000000
40
0.0000000000
40
0.1625392180
40
0.5450035332
40
1.0000000000
40
1.0000000000
40
1.0000000000
40
1.0000000000
10
276.3417403655
20
222.5221537601
30
0.0000000000
10
276.3774600968
20
222.4534046372
30
0.0000000000
10
276.4972237606
20
222.2228813187
30
0.0000000000
10
276.7170011007
20
221.7999205235
30
0.0000000000
10
276.9010609149
20
221.4457099971
30
0.0000000000
10
277.0010579033
20
221.2532638491
30
0.0000000000
11
276.3417403655
21
222.5221537601
31
0.0000000000
11
276.4488969706
21
222.3159050464
31
0.0000000000
11
276.7010612016
21
221.8305993123
31
0.0000000000
11
277.0010579033
21
221.2532638491
31
0.0000000000
0
SPLINE
5
3E7
100
AcDbEntity
8
0
100
AcDbSpline
62
9
6
CONTINUOUS
70
0
71
3
72
11
73
7
74
5
42
0.0000001000
43
0.0000001000
44
0.0000000001
12
0.5390836504
22
0.0001156026
32
0.0000000000
13
0.2485776500
23
-0.4783516985
33
0.0000000000
40
0.0000000000
40
0.0000000000
40
0.0000000000
40
0.0000000000
40
0.2077604345
40
0.4421449572
40
0.7080247064
40
1.0000000000
40
1.0000000000
40
1.0000000000
40
1.0000000000
10
275.6659480847
20
223.2677804769
30
0.0000000000
10
275.7032815025
20
223.2677884827
30
0.0000000000
10
275.7830534585
20
223.2576650259
30
0.0000000000
10
275.9022547732
20
223.2089985434
30
0.0000000000
10
276.0155737988
20
223.1197175182
30
0.0000000000
10
276.0744265830
20
223.0365583786
30
0.0000000000
10
276.0986194271
20
222.9900027528
30
0.0000000000
11
275.6659480847
21
223.2677804769
31
0.0000000000
11
275.7770722995
21
223.2537995530
31
0.0000000000
11
275.8941716814
21
223.2063360749
31
0.0000000000
11
276.0070843336
21
223.1180488644
31
0.0000000000
11
276.0986194271
21
222.9900027528
31
0.0000000000
0
SPLINE
5
3E8
100
AcDbEntity
8
0
100
AcDbSpline
62
9
6
CONTINUOUS
70
0
71
3
72
11
73
7
74
5
42
0.0000001000
43
0.0000001000
44
0.0000000001
12
-0.9303555379
22
0.0001449367
32
0.0000000000
13
-0.0468205720
23
-0.9291766688
33
0.0000000000
40
0.0000000000
40
0.0000000000
40
0.0000000000
40
0.0000000000
40
0.1875780573
40
0.4149997234
40
0.6908844814
40
1.0000000000
40
1.0000000000
40
1.0000000000
40
1.0000000000
10
300.1040492284
20
203.2546814339
30
0.0000000000
10
300.0458778003
20
203.2546904963
30
0.0000000000
10
299.9165989990
20
203.2067143841
30
0.0000000000
10
299.7763183815
20
203.0374599765
30
0.0000000000
10
299.6804497392
20
202.8017482921
30
0.0000000000
10
299.6528896577
20
202.6206391283
30
0.0000000000
10
299.6480653359
20
202.5248981524
30
0.0000000000
11
300.1040492284
21
203.2546814339
31
0.0000000000
11
299.9382075027
21
203.2003513483
31
0.0000000000
11
299.7948975715
21
203.0446926404
31
0.0000000000
11
299.6935946400
21
202.8088586417
31
0.0000000000
11
299.6480653359
21
202.5248981524
31
0.0000000000
0
SPLINE
5
3E9
100
AcDbEntity
8
0
100
AcDbSpline
62
9
6
CONTINUOUS
70
0
71
3
72
14
73
10
74
8
42
0.0000001000
43
0.0000001000
44
0.0000000001
12
0.8662610120
22
0.0000000000
32
0.0000000000
13
0.4331305991
23
0.7502039890
33
0.0000000000
40
0.0000000000
40
0.0000000000
40
0.0000000000
40
0.0000000000
40
0.0508956069
40
0.1899203729
40
0.3894384184
40
0.6106400160
40
0.8102624531
40
0.9490416203
40
1.0000000000
40
1.0000000000
40
1.0000000000
40
1.0000000000
10
288.7331062409
20
220.4547155172
30
0.0000000000
10
288.7478025342
20
220.4547155172
30
0.0000000000
10
288.6644358543
20
220.5283931827
30
0.0000000000
10
288.6537066348
20
220.6009428407
30
0.0000000000
10
288.5486382774
20
220.7515326414
30
0.0000000000
10
288.4709001133
20
220.9032002256
30
0.0000000000
10
288.3769802509
20
221.0453397959
30
0.0000000000
10
288.3484961197
20
221.1415625161
30
0.0000000000
10
288.2927363281
20
221.1919724578
30
0.0000000000
10
288.3000935393
20
221.2047155177
30
0.0000000000
11
288.7331062409
21
220.4547155172
31
0.0000000000
11
288.7087319174
21
220.4914540759
31
0.0000000000
11
288.6462296516
21
220.5943971157
31
0.0000000000
11
288.5586118949
21
220.7433768579
31
0.0000000000
11
288.4632522623
21
220.9095819149
31
0.0000000000
11
288.3779175744
21
221.0599850171
31
0.0000000000
11
288.3196666613
21
221.1651488640
31
0.0000000000
11
288.3000935393
21
221.2047155177
31
0.0000000000
0
SPLINE
5
3EA
100
AcDbEntity
8
0
100
AcDbSpline
62
9
6
CONTINUOUS
70
0
71
3
72
12
73
8
74
6
42
0.0000001000
43
0.0000001000
44
0.0000000001
12
0.2335941040
22
0.4045968611
32
0.0000000000
13
0.4457079847
23
-0.1400329169
33
0.0000000000
40
0.0000000000
40
0.0000000000
40
0.0000000000
40
0.0000000000
40
0.1822865935
40
0.3734557624
40
0.5715335375
40
0.7699510258
40
1.0000000000
40
1.0000000000
40
1.0000000000
40
1.0000000000
10
288.3000935393
20
221.2047155177
30
0.0000000000
10
288.3142872304
20
221.2292997122
30
0.0000000000
10
288.3591190584
20
221.2715491232
30
0.0000000000
10
288.4466132019
20
221.2957518414
30
0.0000000000
10
288.5384297598
20
221.2995812701
30
0.0000000000
10
288.6356704816
20
221.2857674412
30
0.0000000000
10
288.6989280193
20
221.2640019908
30
0.0000000000
10
288.7331062409
20
221.2532638478
30
0.0000000000
11
288.3000935393
21
221.2047155177
31
0.0000000000
11
288.3609925575
21
221.2642461903
31
0.0000000000
11
288.4458516292
21
221.2920952139
31
0.0000000000
11
288.5382739601
21
221.2967525330
31
0.0000000000
11
288.6300661504
21
221.2838230796
31
0.0000000000
11
288.7331062409
21
221.2532638478
31
0.0000000000
0
SPLINE
5
3EB
100
AcDbEntity
8
0
100
AcDbSpline
62
9
6
CONTINUOUS
70
0
71
3
72
9
73
5
74
3
42
0.0000001000
43
0.0000001000
44
0.0000000001
12
0.0234163346
22
-0.2281848426
32
0.0000000000
13
0.0234112828
23
-0.2281853610
33
0.0000000000
40
0.0000000000
40
0.0000000000
40
0.0000000000
40
0.0000000000
40
0.5014610407
40
1.0000000000
40
1.0000000000
40
1.0000000000
40
1.0000000000
10
269.2091816073
20
179.9547155172
30
0.0000000000
10
269.2130957338
20
179.9165735810
30
0.0000000000
10
269.2208997896
20
179.8405118242
30
0.0000000000
10
269.2287051570
20
179.7644502021
30
0.0000000000
10
269.2325956359
20
179.7265304379
30
0.0000000000
11
269.2091816073
21
179.9547155172
31
0.0000000000
11
269.2209229235
21
179.8402895994
31
0.0000000000
11
269.2325956359
21
179.7265304379
31
0.0000000000
0
SPLINE
5
3EC
100
AcDbEntity
8
0
100
AcDbSpline
62
9
6
CONTINUOUS
70
0
71
3
72
13
73
9
74
7
42
0.0000001000
43
0.0000001000
44
0.0000000001
12
0.1783362781
22
-1.7405088255
32
0.0000000000
13
1.7496182496
23
-0.0032833818
33
0.0000000000
40
0.0000000000
40
0.0000000000
40
0.0000000000
40
0.0000000000
40
0.1656541168
40
0.3375874475
40
0.5095228838
40
0.6768876335
40
0.8388397665
40
1.0000000000
40
1.0000000000
40
1.0000000000
40
1.0000000000
10
269.2325956359
20
179.7265304379
30
0.0000000000
10
269.2424430154
20
179.6304229538
30
0.0000000000
10
269.2754407692
20
179.4356191584
30
0.0000000000
10
269.3669789519
20
179.1516864268
30
0.0000000000
10
269.5063533317
20
178.8860736956
30
0.0000000000
10
269.6959257566
20
178.6598159292
30
0.0000000000
10
269.9367386903
20
178.4967069776
30
0.0000000000
10
270.1269675178
20
178.4548919007
30
0.0000000000
10
270.2209571463
20
178.4547155172
30
0.0000000000
11
269.2325956359
21
179.7265304379
31
0.0000000000
11
269.2814850871
21
179.4408516042
31
0.0000000000
11
269.3749707604
21
179.1549284817
31
0.0000000000
11
269.5167976169
21
178.8896381457
31
0.0000000000
11
269.7075655508
21
178.6674804570
31
0.0000000000
11
269.9450632809
21
178.5129332759
31
0.0000000000
11
270.2209571463
21
178.4547155172
31
0.0000000000
0
SPLINE
5
3ED
100
AcDbEntity
8
0
100
AcDbSpline
62
9
6
CONTINUOUS
70
0
71
3
72
10
73
6
74
4
42
0.0000001000
43
0.0000001000
44
0.0000000001
12
0.6593259200
22
1.2688855563
32
0.0000000000
13
0.6592821770
23
1.2689082854
33
0.0000000000
40
0.0000000000
40
0.0000000000
40
0.0000000000
40
0.0000000000
40
0.4549964656
40
0.8374607786
40
1.0000000000
40
1.0000000000
40
1.0000000000
40
1.0000000000
10
288.7331037742
20
221.2532638491
30
0.0000000000
10
288.8331007620
20
221.4457099969
30
0.0000000000
10
289.0171605820
20
221.7999205187
30
0.0000000000
10
289.2369378955
20
222.2228813280
30
0.0000000000
10
289.3567015769
20
222.4534046382
30
0.0000000000
10
289.3924213141
20
222.5221537598
30
0.0000000000
11
288.7331037742
21
221.2532638491
31
0.0000000000
11
289.0331004733
21
221.8305993120
31
0.0000000000
11
289.2852646941
21
222.3159050483
31
0.0000000000
11
289.3924213141
21
222.5221537598
31
0.0000000000
0
SPLINE
5
3EE
100
AcDbEntity
8
0
100
AcDbSpline
62
9
6
CONTINUOUS
70
0
71
3
72
8
73
4
74
2
42
0.0000001000
43
0.0000001000
44
0.0000000001
12
0.0601051740
22
0.1156833235
32
0.0000000000
13
0.0601107378
23
0.1156804324
33
0.0000000000
40
0.0000000000
40
0.0000000000
40
0.0000000000
40
0.0000000000
40
1.0000000000
40
1.0000000000
40
1.0000000000
40
1.0000000000
10
289.3924213141
20
222.5221537598
30
0.0000000000
10
289.4124563721
20
222.5607148676
30
0.0000000000
10
289.4324920579
20
222.5992756492
30
0.0000000000
10
289.4525289705
20
222.6378357933
30
0.0000000000
11
289.3924213141
21
222.5221537598
31
0.0000000000
11
289.4525289705
21
222.6378357933
31
0.0000000000
0
SPLINE
5
3EF
100
AcDbEntity
8
0
100
AcDbSpline
62
9
6
CONTINUOUS
70
0
71
3
72
9
73
5
74
3
42
0.0000001000
43
0.0000001000
44
0.0000000001
12
0.1829993964
22
0.3521741720
32
0.0000000000
13
0.1829814199
23
0.3521835129
33
0.0000000000
40
0.0000000000
40
0.0000000000
40
0.0000000000
40
0.0000000000
40
0.1863102434
40
1.0000000000
40
1.0000000000
40
1.0000000000
40
1.0000000000
10
289.4525289705
20
222.6378357933
30
0.0000000000
10
289.4638938579
20
222.6597070119
30
0.0000000000
10
289.5248957751
20
222.7770973018
30
0.0000000000
10
289.5859122114
20
222.8944800471
30
0.0000000000
10
289.6355422471
20
222.9900027528
30
0.0000000000
11
289.4525289705
21
222.6378357933
31
0.0000000000
11
289.4866249259
21
222.7034487770
31
0.0000000000
11
289.6355422471
21
222.9900027528
31
0.0000000000
0
SPLINE
5
3F0
100
AcDbEntity
8
0
100
AcDbSpline
62
9
6
CONTINUOUS
70
0
71
3
72
11
73
7
74
5
42
0.0000001000
43
0.0000001000
44
0.0000000001
12
-0.4961081200
22
-0.0745904488
32
0.0000000000
13
-0.0763967424
23
0.4958331772
33
0.0000000000
40
0.0000000000
40
0.0000000000
40
0.0000000000
40
0.0000000000
40
0.3744083546
40
0.6915693173
40
0.9071254539
40
1.0000000000
40
1.0000000000
40
1.0000000000
40
1.0000000000
10
269.2325956376
20
179.7265337360
30
0.0000000000
10
269.1706799627
20
179.7172246402
30
0.0000000000
10
269.0576351233
20
179.7030518434
30
0.0000000000
10
268.8996260427
20
179.6944770918
30
0.0000000000
10
268.8080666662
20
179.6976469994
30
0.0000000000
10
268.7408482627
20
179.7111907800
30
0.0000000000
10
268.7384831584
20
179.7265408737
30
0.0000000000
11
269.2325956376
21
179.7265337360
31
0.0000000000
11
269.0461033720
21
179.7041166552
31
0.0000000000
11
268.8871829088
21
179.6962583625
31
0.0000000000
11
268.7793279882
21
179.7041205313
31
0.0000000000
11
268.7384831584
21
179.7265408737
31
0.0000000000
0
SPLINE
5
3F1
100
AcDbEntity
8
0
100
AcDbSpline
62
9
6
CONTINUOUS
70
0
71
3
72
10
73
6
74
4
42
0.0000001000
43
0.0000001000
44
0.0000000001
12
-1.1776904303
22
0.0702587798
32
0.0000000000
13
-1.1776871240
23
0.0703141787
33
0.0000000000
40
0.0000000000
40
0.0000000000
40
0.0000000000
40
0.0000000000
40
0.3524386440
40
0.6911918130
40
1.0000000000
40
1.0000000000
40
1.0000000000
40
1.0000000000
10
267.2637636920
20
202.4547155172
30
0.0000000000
10
267.1254091525
20
202.4629694869
30
0.0000000000
10
266.8540711920
20
202.4791351330
30
0.0000000000
10
266.4615057589
20
202.5025218976
30
0.0000000000
10
266.2072949411
20
202.5176559959
30
0.0000000000
10
266.0860684659
20
202.5248938606
30
0.0000000000
11
267.2637636920
21
202.4547155172
31
0.0000000000
11
266.8486987348
21
202.4794549744
31
0.0000000000
11
266.4497502262
21
202.5032194043
31
0.0000000000
11
266.0860684659
21
202.5248938606
31
0.0000000000
0
SPLINE
5
3F2
100
AcDbEntity
8
0
100
AcDbSpline
62
9
6
CONTINUOUS
70
0
71
3
72
10
73
6
74
4
42
0.0000001000
43
0.0000001000
44
0.0000000001
12
0.2549611178
22
0.4415170574
32
0.0000000000
13
0.5088555432
23
-0.0317571997
33
0.0000000000
40
0.0000000000
40
0.0000000000
40
0.0000000000
40
0.0000000000
40
0.3263596040
40
0.6587473939
40
1.0000000000
40
1.0000000000
40
1.0000000000
40
1.0000000000
10
289.2025062072
20
222.7677940066
30
0.0000000000
10
289.2302425437
20
222.8158251172
30
0.0000000000
10
289.3061551901
20
222.9026055420
30
0.0000000000
10
289.4610165043
20
222.9810850858
30
0.0000000000
10
289.5776594863
20
222.9936008194
30
0.0000000000
10
289.6355422464
20
222.9899884104
30
0.0000000000
11
289.2025062072
21
222.7677940066
31
0.0000000000
11
289.3118670927
21
222.8932006424
31
0.0000000000
11
289.4626436799
21
222.9705653203
31
0.0000000000
11
289.6355422464
21
222.9899884104
31
0.0000000000
0
SPLINE
5
3F3
100
AcDbEntity
8
0
100
AcDbSpline
62
9
6
CONTINUOUS
70
0
71
3
72
11
73
7
74
5
42
0.0000001000
43
0.0000001000
44
0.0000000001
12
0.2486300012
22
0.4785486660
32
0.0000000000
13
0.5392871241
23
-0.0001720518
33
0.0000000000
40
0.0000000000
40
0.0000000000
40
0.0000000000
40
0.0000000000
40
0.3018186416
40
0.5670739020
40
0.7965665454
40
1.0000000000
40
1.0000000000
40
1.0000000000
40
1.0000000000
10
289.6355422471
20
222.9900027528
30
0.0000000000
10
289.6605559702
20
223.0381477222
30
0.0000000000
10
289.7208887046
20
223.1225361319
30
0.0000000000
10
289.8358056804
20
223.2111243539
30
0.0000000000
10
289.9537343762
20
223.2581412522
30
0.0000000000
10
290.0318647948
20
223.2677922347
30
0.0000000000
10
290.0684344757
20
223.2677805677
30
0.0000000000
11
289.6355422471
21
222.9900027528
31
0.0000000000
11
289.7308625854
21
223.1219370278
31
0.0000000000
11
289.8444695839
21
223.2088625654
31
0.0000000000
11
289.9595425676
21
223.2544157092
31
0.0000000000
11
290.0684344757
21
223.2677805677
31
0.0000000000
0
SPLINE
5
3F4
100
AcDbEntity
8
0
100
AcDbSpline
62
9
6
CONTINUOUS
70
0
71
3
72
13
73
9
74
7
42
0.0000001000
43
0.0000001000
44
0.0000000001
12
0.4618620726
22
-0.8577905827
32
0.0000000000
13
-0.9347597922
23
-0.2744911449
33
0.0000000000
40
0.0000000000
40
0.0000000000
40
0.0000000000
40
0.0000000000
40
0.2116179332
40
0.4323299576
40
0.6428117982
40
0.8247480893
40
0.9531580172
40
1.0000000000
40
1.0000000000
40
1.0000000000
40
1.0000000000
10
271.2238068197
20
183.3122582509
30
0.0000000000
10
271.2563862521
20
183.2517502942
30
0.0000000000
10
271.3268517239
20
183.1307043708
30
0.0000000000
10
271.4340207656
20
182.9495770234
30
0.0000000000
10
271.5268995707
20
182.7799735578
30
0.0000000000
10
271.6213734669
20
182.6198121881
30
0.0000000000
10
271.6389433218
20
182.5377622733
30
0.0000000000
10
271.6980636190
20
182.4590344385
30
0.0000000000
10
271.6834682849
20
182.4547485354
30
0.0000000000
11
271.2238068197
21
183.3122582509
31
0.0000000000
11
271.3257557532
21
183.1330653237
31
0.0000000000
11
271.4340050417
21
182.9472767544
31
0.0000000000
11
271.5346003222
21
182.7685895027
31
0.0000000000
11
271.6169823052
21
182.6116503580
31
0.0000000000
11
271.6700675662
21
182.4983714125
31
0.0000000000
11
271.6834682849
21
182.4547485354
31
0.0000000000
0
SPLINE
5
3F5
100
AcDbEntity
8
0
100
AcDbSpline
62
9
6
CONTINUOUS
70
0
71
3
72
13
73
9
74
7
42
0.0000001000
43
0.0000001000
44
0.0000000001
12
-0.3781674987
22
-0.9298944657
32
0.0000000000
13
0.8698755587
23
0.5010298262
33
0.0000000000
40
0.0000000000
40
0.0000000000
40
0.0000000000
40
0.0000000000
40
0.2522593493
40
0.4784020971
40
0.6782977714
40
0.8438004278
40
0.9569180535
40
1.0000000000
40
1.0000000000
40
1.0000000000
40
1.0000000000
10
270.6525349375
20
183.1592670969
30
0.0000000000
10
270.6207361751
20
183.0810755726
30
0.0000000000
10
270.5862471922
20
182.9230451340
30
0.0000000000
10
270.5696708713
20
182.6953288279
30
0.0000000000
10
270.5797600303
20
182.5006086766
30
0.0000000000
10
270.6131603398
20
182.3330966809
30
0.0000000000
10
270.6308865848
20
182.2489520552
30
0.0000000000
10
270.6709709659
20
182.1796686098
30
0.0000000000
10
270.6834629434
20
182.1868637232
30
0.0000000000
11
270.6525349375
21
183.1592670969
31
0.0000000000
11
270.5907030919
21
182.9137014138
31
0.0000000000
11
270.5740102545
21
182.6873026310
31
0.0000000000
11
270.5861144760
21
182.4870028018
31
0.0000000000
11
270.6153718078
21
182.3234594032
31
0.0000000000
11
270.6512539362
21
182.2157246357
31
0.0000000000
11
270.6834629434
21
182.1868637232
31
0.0000000000
0
SPLINE
5
3F6
100
AcDbEntity
8
0
100
AcDbSpline
62
9
6
CONTINUOUS
70
0
71
3
72
10
73
6
74
4
42
0.0000001000
43
0.0000001000
44
0.0000000001
12
-0.5825927869
22
-0.1052282442
32
0.0000000000
13
-0.5572150711
23
-0.1999967581
33
0.0000000000
40
0.0000000000
40
0.0000000000
40
0.0000000000
40
0.0000000000
40
0.3329558285
40
0.6670403293
40
1.0000000000
40
1.0000000000
40
1.0000000000
40
1.0000000000
10
271.2238204082
20
183.3122736674
30
0.0000000000
10
271.1591611868
20
183.3005948817
30
0.0000000000
10
271.0302509991
20
183.2735595437
30
0.0000000000
10
270.8395451486
20
183.2224777960
30
0.0000000000
10
270.7143783197
20
183.1814640485
30
0.0000000000
10
270.6525349375
20
183.1592670969
30
0.0000000000
11
271.2238204082
21
183.3122736674
31
0.0000000000
11
271.0308931080
21
183.2718516767
31
0.0000000000
11
270.8398429597
21
183.2206794900
31
0.0000000000
11
270.6525349375
21
183.1592670969
31
0.0000000000
0
SPLINE
5
3F7
100
AcDbEntity
8
0
100
AcDbSpline
62
9
6
CONTINUOUS
70
0
71
3
72
10
73
6
74
4
42
0.0000001000
43
0.0000001000
44
0.0000000001
12
0.6182461103
22
-1.1392235453
32
0.0000000000
13
0.6121867112
23
-1.1424911246
33
0.0000000000
40
0.0000000000
40
0.0000000000
40
0.0000000000
40
0.0000000000
40
0.3533909545
40
0.6932867633
40
1.0000000000
40
1.0000000000
40
1.0000000000
40
1.0000000000
10
270.6115569432
20
184.4547155172
30
0.0000000000
10
270.6843844709
20
184.3205184185
30
0.0000000000
10
270.8249515463
20
184.0560044614
30
0.0000000000
10
271.0293487585
20
183.6753549479
30
0.0000000000
10
271.1612182305
20
183.4290639678
30
0.0000000000
10
271.2238068197
20
183.3122582509
30
0.0000000000
11
270.6115569432
21
184.4547155172
31
0.0000000000
11
270.8279836422
21
184.0510152884
31
0.0000000000
11
271.0360495004
21
183.6626799284
31
0.0000000000
11
271.2238068197
21
183.3122582509
31
0.0000000000
0
SPLINE
5
3F8
100
AcDbEntity
8
0
100
AcDbSpline
62
7
6
CONTINUOUS
70
0
71
3
72
12
73
8
74
6
42
0.0000001000
43
0.0000001000
44
0.0000000001
12
-0.4175537143
22
0.5699803152
32
0.0000000000
13
-0.6803519680
23
0.1884648853
33
0.0000000000
40
0.0000000000
40
0.0000000000
40
0.0000000000
40
0.0000000000
40
0.1655660699
40
0.3548125526
40
0.5535729551
40
0.7666917650
40
1.0000000000
40
1.0000000000
40
1.0000000000
40
1.0000000000
10
207.1917822426
20
93.5087000926
30
0.0000000000
10
207.1687380001
20
93.5401565595
30
0.0000000000
10
207.1145516446
20
93.6037439491
30
0.0000000000
10
207.0187095411
20
93.6922277608
30
0.0000000000
10
206.9041691173
20
93.7754883886
30
0.0000000000
10
206.7709971595
20
93.8489322440
30
0.0000000000
10
206.6722636569
20
93.8858144279
30
0.0000000000
10
206.6193530846
20
93.9004712312
30
0.0000000000
11
207.1917822426
21
93.5087000926
31
0.0000000000
11
207.1165908233
21
93.5980033858
31
0.0000000000
11
207.0187497636
21
93.6887379020
31
0.0000000000
11
206.9053833162
21
93.7711329646
31
0.0000000000
11
206.7736631787
21
93.8434579879
31
0.0000000000
11
206.6193530846
21
93.9004712312
31
0.0000000000
0
SPLINE
5
3F9
100
AcDbEntity
8
0
100
AcDbSpline
62
7
6
CONTINUOUS
70
0
71
3
72
9
73
5
74
3
42
0.0000001000
43
0.0000001000
44
0.0000000001
12
-0.2268354487
22
0.0628358833
32
0.0000000000
13
-0.2359475287
23
-0.0000565825
33
0.0000000000
40
0.0000000000
40
0.0000000000
40
0.0000000000
40
0.0000000000
40
0.7783102737
40
1.0000000000
40
1.0000000000
40
1.0000000000
40
1.0000000000
10
206.6193530846
20
93.9004712312
30
0.0000000000
10
206.5605036312
20
93.9167731690
30
0.0000000000
10
206.4828076694
20
93.9303779373
30
0.0000000000
10
206.4041610200
20
93.9328689071
30
0.0000000000
10
206.3867253056
20
93.9328647258
30
0.0000000000
11
206.6193530846
21
93.9004712312
31
0.0000000000
11
206.4389846055
21
93.9312182598
31
0.0000000000
11
206.3867253056
21
93.9328647258
31
0.0000000000
0
SPLINE
5
3FA
100
AcDbEntity
8
0
100
AcDbSpline
62
7
6
CONTINUOUS
70
0
71
3
72
9
73
5
74
3
42
0.0000001000
43
0.0000001000
44
0.0000000001
12
0.1865768982
22
-0.2548403977
32
0.0000000000
13
0.0000503273
23
-0.3145450403
33
0.0000000000
40
0.0000000000
40
0.0000000000
40
0.0000000000
40
0.0000000000
40
0.4550569417
40
1.0000000000
40
1.0000000000
40
1.0000000000
40
1.0000000000
10
207.1919814119
20
93.5087063581
30
0.0000000000
10
207.2202824495
20
93.4700507275
30
0.0000000000
10
207.2702881931
20
93.3761324798
30
0.0000000000
10
207.2885984885
20
93.2704009070
30
0.0000000000
10
207.2886076303
20
93.2132645283
30
0.0000000000
11
207.1919814119
21
93.5087063581
31
0.0000000000
11
207.2592299784
21
93.3821281606
31
0.0000000000
11
207.2886076303
21
93.2132645283
31
0.0000000000
0
SPLINE
5
3FB
100
AcDbEntity
8
0
100
AcDbSpline
62
7
6
CONTINUOUS
70
0
71
3
72
8
73
4
74
2
42
0.0000001000
43
0.0000001000
44
0.0000000001
12
0.0506869422
22
-0.0000136678
32
0.0000000000
13
0.0505659445
23
0.0030276430
33
0.0000000000
40
0.0000000000
40
0.0000000000
40
0.0000000000
40
0.0000000000
40
1.0000000000
40
1.0000000000
40
1.0000000000
40
1.0000000000
10
206.3867253060
20
104.2257151681
30
0.0000000000
10
206.4036209534
20
104.2257106122
30
0.0000000000
10
206.4205157348
20
104.2262146249
30
0.0000000000
10
206.4373710496
20
104.2272238392
30
0.0000000000
11
206.3867253060
21
104.2257151681
31
0.0000000000
11
206.4373710496
21
104.2272238392
31
0.0000000000
0
SPLINE
5
3FC
100
AcDbEntity
8
0
100
AcDbSpline
62
7
6
CONTINUOUS
70
0
71
3
72
8
73
4
74
2
42
0.0000001000
43
0.0000001000
44
0.0000000001
12
0.1829476480
22
0.0109540160
32
0.0000000000
13
0.1765927950
23
0.0480376019
33
0.0000000000
40
0.0000000000
40
0.0000000000
40
0.0000000000
40
0.0000000000
40
1.0000000000
40
1.0000000000
40
1.0000000000
40
1.0000000000
10
206.4373710496
20
104.2272238392
30
0.0000000000
10
206.4983535989
20
104.2308751779
30
0.0000000000
10
206.5588195339
20
104.2411395718
30
0.0000000000
10
206.6176837989
20
104.2571521057
30
0.0000000000
11
206.4373710496
21
104.2272238392
31
0.0000000000
11
206.6176837989
21
104.2571521057
31
0.0000000000
0
SPLINE
5
3FD
100
AcDbEntity
8
0
100
AcDbSpline
62
7
6
CONTINUOUS
70
0
71
3
72
12
73
8
74
6
42
0.0000001000
43
0.0000001000
44
0.0000000001
12
0.6833596003
22
0.1858906897
32
0.0000000000
13
0.4188200185
23
0.5716262366
33
0.0000000000
40
0.0000000000
40
0.0000000000
40
0.0000000000
40
0.0000000000
40
0.2320740518
40
0.4448594627
40
0.6438670432
40
0.8327403583
40
1.0000000000
40
1.0000000000
40
1.0000000000
40
1.0000000000
10
206.6176837989
20
104.2571521057
30
0.0000000000
10
206.6705471426
20
104.2715322409
30
0.0000000000
10
206.7694039982
20
104.3079837908
30
0.0000000000
10
206.9028867073
20
104.3812317809
30
0.0000000000
10
207.0177153714
20
104.4646824510
30
0.0000000000
10
207.1140436316
20
104.5537791935
30
0.0000000000
10
207.1685429803
20
104.6178662562
30
0.0000000000
10
207.1918935423
20
104.6497362560
30
0.0000000000
11
206.6176837989
21
104.2571521057
31
0.0000000000
11
206.7718856445
21
104.3134170630
31
0.0000000000
11
206.9039678336
21
104.3855664171
31
0.0000000000
11
207.0178507709
21
104.4682921533
31
0.0000000000
11
207.1157416455
21
104.5591971883
31
0.0000000000
11
207.1918935423
21
104.6497362560
31
0.0000000000
0
SPLINE
5
3FE
100
AcDbEntity
8
0
100
AcDbSpline
62
7
6
CONTINUOUS
70
0
71
3
72
8
73
4
74
2
42
0.0000001000
43
0.0000001000
44
0.0000000001
12
0.0000000000
22
-0.0937252259
32
0.0000000000
13
-0.0176703600
23
-0.0927071345
33
0.0000000000
40
0.0000000000
40
0.0000000000
40
0.0000000000
40
0.0000000000
40
1.0000000000
40
1.0000000000
40
1.0000000000
40
1.0000000000
10
207.2886079711
20
104.9453153359
30
0.0000000000
10
207.2886079711
20
104.9140735939
30
0.0000000000
10
207.2856097494
20
104.8826746822
30
0.0000000000
10
207.2797196294
20
104.8517723040
30
0.0000000000
11
207.2886079711
21
104.9453153359
31
0.0000000000
11
207.2797196294
21
104.8517723040
31
0.0000000000
0
SPLINE
5
3FF
100
AcDbEntity
8
0
100
AcDbSpline
62
7
6
CONTINUOUS
70
0
71
3
72
9
73
5
74
3
42
0.0000001000
43
0.0000001000
44
0.0000000001
12
-0.0415091302
22
-0.2177766903
32
0.0000000000
13
-0.1306305284
23
-0.1786434971
33
0.0000000000
40
0.0000000000
40
0.0000000000
40
0.0000000000
40
0.0000000000
40
0.4160903731
40
1.0000000000
40
1.0000000000
40
1.0000000000
40
1.0000000000
10
207.2797196294
20
104.8517723040
30
0.0000000000
10
207.2739624463
20
104.8215673759
30
0.0000000000
10
207.2534860837
20
104.7501152190
30
0.0000000000
10
207.2176251538
20
104.6849288711
30
0.0000000000
10
207.1921996795
20
104.6501583185
30
0.0000000000
11
207.2797196294
21
104.8517723040
31
0.0000000000
11
207.2542588630
21
104.7631910737
31
0.0000000000
11
207.1921996795
21
104.6501583185
31
0.0000000000
0
SPLINE
5
400
100
AcDbEntity
8
0
100
AcDbSpline
62
7
6
CONTINUOUS
70
0
71
3
72
12
73
8
74
6
42
0.0000001000
43
0.0000001000
44
0.0000000001
12
0.4175537143
22
-0.5699803152
32
0.0000000000
13
0.6803519680
23
-0.1884648853
33
0.0000000000
40
0.0000000000
40
0.0000000000
40
0.0000000000
40
0.0000000000
40
0.1655660699
40
0.3548125526
40
0.5535729551
40
0.7666917650
40
1.0000000000
40
1.0000000000
40
1.0000000000
40
1.0000000000
10
113.8659100651
20
104.6498797716
30
0.0000000000
10
113.8889543076
20
104.6184233047
30
0.0000000000
10
113.9431406631
20
104.5548359151
30
0.0000000000
10
114.0389827666
20
104.4663521034
30
0.0000000000
10
114.1535231903
20
104.3830914757
30
0.0000000000
10
114.2866951482
20
104.3096476203
30
0.0000000000
10
114.3854286508
20
104.2727654363
30
0.0000000000
10
114.4383392230
20
104.2581086331
30
0.0000000000
11
113.8659100651
21
104.6498797716
31
0.0000000000
11
113.9411014844
21
104.5605764784
31
0.0000000000
11
114.0389425441
21
104.4698419622
31
0.0000000000
11
114.1523089915
21
104.3874468996
31
0.0000000000
11
114.2840291290
21
104.3151218763
31
0.0000000000
11
114.4383392230
21
104.2581086331
31
0.0000000000
0
SPLINE
5
401
100
AcDbEntity
8
0
100
AcDbSpline
62
7
6
CONTINUOUS
70
0
71
3
72
9
73
5
74
3
42
0.0000001000
43
0.0000001000
44
0.0000000001
12
0.2268354487
22
-0.0628358833
32
0.0000000000
13
0.2359475287
23
0.0000565825
33
0.0000000000
40
0.0000000000
40
0.0000000000
40
0.0000000000
40
0.0000000000
40
0.7783102737
40
1.0000000000
40
1.0000000000
40
1.0000000000
40
1.0000000000
10
114.4383392230
20
104.2581086331
30
0.0000000000
10
114.4971886764
20
104.2418066952
30
0.0000000000
10
114.5748846383
20
104.2282019270
30
0.0000000000
10
114.6535312877
20
104.2257109572
30
0.0000000000
10
114.6709670021
20
104.2257151384
30
0.0000000000
11
114.4383392230
21
104.2581086331
31
0.0000000000
11
114.6187077022
21
104.2273616045
31
0.0000000000
11
114.6709670021
21
104.2257151384
31
0.0000000000
0
SPLINE
5
402
100
AcDbEntity
8
0
100
AcDbSpline
62
7
6
CONTINUOUS
70
0
71
3
72
9
73
5
74
3
42
0.0000001000
43
0.0000001000
44
0.0000000001
12
-0.1865768982
22
0.2548403977
32
0.0000000000
13
-0.0000503273
23
0.3145450403
33
0.0000000000
40
0.0000000000
40
0.0000000000
40
0.0000000000
40
0.0000000000
40
0.4550569417
40
1.0000000000
40
1.0000000000
40
1.0000000000
40
1.0000000000
10
113.8657108958
20
104.6498735061
30
0.0000000000
10
113.8374098582
20
104.6885291368
30
0.0000000000
10
113.7874041146
20
104.7824473844
30
0.0000000000
10
113.7690938192
20
104.8881789572
30
0.0000000000
10
113.7690846773
20
104.9453153360
30
0.0000000000
11
113.8657108958
21
104.6498735061
31
0.0000000000
11
113.7984623293
21
104.7764517037
31
0.0000000000
11
113.7690846773
21
104.9453153360
31
0.0000000000
0
SPLINE
5
403
100
AcDbEntity
8
0
100
AcDbSpline
62
7
6
CONTINUOUS
70
0
71
3
72
8
73
4
74
2
42
0.0000001000
43
0.0000001000
44
0.0000000001
12
-0.0506869422
22
0.0000136678
32
0.0000000000
13
-0.0505659445
23
-0.0030276430
33
0.0000000000
40
0.0000000000
40
0.0000000000
40
0.0000000000
40
0.0000000000
40
1.0000000000
40
1.0000000000
40
1.0000000000
40
1.0000000000
10
114.6709670017
20
93.9328646961
30
0.0000000000
10
114.6540713543
20
93.9328692521
30
0.0000000000
10
114.6371765729
20
93.9323652394
30
0.0000000000
10
114.6203212581
20
93.9313560250
30
0.0000000000
11
114.6709670017
21
93.9328646961
31
0.0000000000
11
114.6203212581
21
93.9313560250
31
0.0000000000
0
SPLINE
5
404
100
AcDbEntity
8
0
100
AcDbSpline
62
7
6
CONTINUOUS
70
0
71
3
72
8
73
4
74
2
42
0.0000001000
43
0.0000001000
44
0.0000000001
12
-0.1829476480
22
-0.0109540160
32
0.0000000000
13
-0.1765927950
23
-0.0480376019
33
0.0000000000
40
0.0000000000
40
0.0000000000
40
0.0000000000
40
0.0000000000
40
1.0000000000
40
1.0000000000
40
1.0000000000
40
1.0000000000
10
114.6203212581
20
93.9313560250
30
0.0000000000
10
114.5593387088
20
93.9277046864
30
0.0000000000
10
114.4988727738
20
93.9174402925
30
0.0000000000
10
114.4400085088
20
93.9014277585
30
0.0000000000
11
114.6203212581
21
93.9313560250
31
0.0000000000
11
114.4400085088
21
93.9014277585
31
0.0000000000
0
SPLINE
5
405
100
AcDbEntity
8
0
100
AcDbSpline
62
7
6
CONTINUOUS
70
0
71
3
72
12
73
8
74
6
42
0.0000001000
43
0.0000001000
44
0.0000000001
12
-0.6833596003
22
-0.1858906897
32
0.0000000000
13
-0.4188200185
23
-0.5716262366
33
0.0000000000
40
0.0000000000
40
0.0000000000
40
0.0000000000
40
0.0000000000
40
0.2320740518
40
0.4448594627
40
0.6438670432
40
0.8327403583
40
1.0000000000
40
1.0000000000
40
1.0000000000
40
1.0000000000
10
114.4400085088
20
93.9014277585
30
0.0000000000
10
114.3871451651
20
93.8870476233
30
0.0000000000
10
114.2882883095
20
93.8505960734
30
0.0000000000
10
114.1548056004
20
93.7773480834
30
0.0000000000
10
114.0399769363
20
93.6938974133
30
0.0000000000
10
113.9436486761
20
93.6048006708
30
0.0000000000
10
113.8891493274
20
93.5407136081
30
0.0000000000
10
113.8657987654
20
93.5088436082
30
0.0000000000
11
114.4400085088
21
93.9014277585
31
0.0000000000
11
114.2858066632
21
93.8451628012
31
0.0000000000
11
114.1537244741
21
93.7730134472
31
0.0000000000
11
114.0398415368
21
93.6902877110
31
0.0000000000
11
113.9419506622
21
93.5993826759
31
0.0000000000
11
113.8657987654
21
93.5088436082
31
0.0000000000
0
SPLINE
5
406
100
AcDbEntity
8
0
100
AcDbSpline
62
7
6
CONTINUOUS
70
0
71
3
72
8
73
4
74
2
42
0.0000001000
43
0.0000001000
44
0.0000000001
12
0.0000000000
22
0.0937252259
32
0.0000000000
13
0.0176703600
23
0.0927071345
33
0.0000000000
40
0.0000000000
40
0.0000000000
40
0.0000000000
40
0.0000000000
40
1.0000000000
40
1.0000000000
40
1.0000000000
40
1.0000000000
10
113.7690843366
20
93.2132645283
30
0.0000000000
10
113.7690843366
20
93.2445062703
30
0.0000000000
10
113.7720825583
20
93.2759051820
30
0.0000000000
10
113.7779726783
20
93.3068075602
30
0.0000000000
11
113.7690843366
21
93.2132645283
31
0.0000000000
11
113.7779726783
21
93.3068075602
31
0.0000000000
0
SPLINE
5
407
100
AcDbEntity
8
0
100
AcDbSpline
62
7
6
CONTINUOUS
70
0
71
3
72
9
73
5
74
3
42
0.0000001000
43
0.0000001000
44
0.0000000001
12
0.0415091302
22
0.2177766903
32
0.0000000000
13
0.1306305284
23
0.1786434971
33
0.0000000000
40
0.0000000000
40
0.0000000000
40
0.0000000000
40
0.0000000000
40
0.4160903731
40
1.0000000000
40
1.0000000000
40
1.0000000000
40
1.0000000000
10
113.7779726783
20
93.3068075602
30
0.0000000000
10
113.7837298614
20
93.3370124883
30
0.0000000000
10
113.8042062240
20
93.4084646452
30
0.0000000000
10
113.8400671539
20
93.4736509932
30
0.0000000000
10
113.8654926282
20
93.5084215458
30
0.0000000000
11
113.7779726783
21
93.3068075602
31
0.0000000000
11
113.8034334447
21
93.3953887906
31
0.0000000000
11
113.8654926282
21
93.5084215458
31
0.0000000000
0
SPLINE
5
408
100
AcDbEntity
8
0
100
AcDbSpline
62
9
6
CONTINUOUS
70
0
71
3
72
10
73
6
74
4
42
0.0000001000
43
0.0000001000
44
0.0000000001
12
0.4352046372
22
-0.0322749828
32
0.0000000000
13
0.2532250567
23
-0.3543544178
33
0.0000000000
40
0.0000000000
40
0.0000000000
40
0.0000000000
40
0.0000000000
40
0.4298731624
40
0.7967164284
40
1.0000000000
40
1.0000000000
40
1.0000000000
40
1.0000000000
10
206.7886079683
20
93.6462772302
30
0.0000000000
10
206.8509688996
20
93.6416525139
30
0.0000000000
10
206.9682910367
20
93.6373184553
30
0.0000000000
10
207.1051842607
20
93.5871104712
30
0.0000000000
10
207.1754580810
20
93.5334261069
30
0.0000000000
10
207.1926169123
20
93.5094146297
30
0.0000000000
11
206.7886079683
21
93.6462772302
31
0.0000000000
11
206.9751688351
21
93.6265920401
31
0.0000000000
11
207.1243564530
21
93.5685234334
31
0.0000000000
11
207.1926169123
21
93.5094146297
31
0.0000000000
0
SPLINE
5
409
100
AcDbEntity
8
0
100
AcDbSpline
62
9
6
CONTINUOUS
70
0
71
3
72
11
73
7
74
5
42
0.0000001000
43
0.0000001000
44
0.0000000001
12
0.5819227399
22
-0.1879584696
32
0.0000000000
13
0.1633727364
23
-0.5892977265
33
0.0000000000
40
0.0000000000
40
0.0000000000
40
0.0000000000
40
0.0000000000
40
0.2381322957
40
0.4915305250
40
0.7494672121
40
1.0000000000
40
1.0000000000
40
1.0000000000
40
1.0000000000
10
206.7886079683
20
93.6462772302
30
0.0000000000
10
206.8347995010
20
93.6313575696
30
0.0000000000
10
206.9256901607
20
93.5858386435
30
0.0000000000
10
207.0423869746
20
93.4852228085
30
0.0000000000
10
207.1349860779
20
93.3589703238
30
0.0000000000
10
207.1760492094
20
93.2624773293
30
0.0000000000
10
207.1896926184
20
93.2132645286
30
0.0000000000
11
206.7886079683
21
93.6462772302
31
0.0000000000
11
206.9194977008
21
93.5824480552
31
0.0000000000
11
207.0373901621
21
93.4818809381
31
0.0000000000
11
207.1305495389
21
93.3545956202
31
0.0000000000
11
207.1896926184
21
93.2132645286
31
0.0000000000
0
SPLINE
5
40A
100
AcDbEntity
8
0
100
AcDbSpline
62
9
6
CONTINUOUS
70
0
71
3
72
11
73
7
74
5
42
0.0000001000
43
0.0000001000
44
0.0000000001
12
2.2863837808
22
0.4593965977
32
0.0000000000
13
1.8427883044
23
1.4292401100
33
0.0000000000
40
0.0000000000
40
0.0000000000
40
0.0000000000
40
0.0000000000
40
0.2645485255
40
0.5214915762
40
0.7676120245
40
1.0000000000
40
1.0000000000
40
1.0000000000
40
1.0000000000
10
204.6578660996
20
92.7438412240
30
0.0000000000
10
204.8594859189
20
92.7843521215
30
0.0000000000
10
205.2536813801
20
92.8818126136
30
0.0000000000
10
205.8172075468
20
93.0812054208
30
0.0000000000
10
206.3330245028
20
93.3306293612
30
0.0000000000
10
206.6453710248
20
93.5353956879
30
0.0000000000
10
206.7881183060
20
93.6461084264
30
0.0000000000
11
204.6578660996
21
92.7438412240
31
0.0000000000
11
205.2565086080
21
92.8930132933
31
0.0000000000
11
205.8208524202
21
93.0944350154
31
0.0000000000
11
206.3365022095
21
93.3465257630
31
0.0000000000
11
206.7881183060
21
93.6461084264
31
0.0000000000
0
SPLINE
5
40B
100
AcDbEntity
8
0
100
AcDbSpline
62
9
6
CONTINUOUS
70
0
71
3
72
10
73
6
74
4
42
0.0000001000
43
0.0000001000
44
0.0000000001
12
0.2922937443
22
-0.3636932979
32
0.0000000000
13
0.0823096329
23
-0.4592750507
33
0.0000000000
40
0.0000000000
40
0.0000000000
40
0.0000000000
40
0.0000000000
40
0.2733138716
40
0.6189292207
40
1.0000000000
40
1.0000000000
40
1.0000000000
40
1.0000000000
10
204.6578661007
20
92.7438412242
30
0.0000000000
10
204.6844954124
20
92.7107070831
30
0.0000000000
10
204.7317093658
20
92.6255801014
30
0.0000000000
10
204.7855235683
20
92.4794792152
30
0.0000000000
10
204.8117463837
20
92.3691672894
30
0.0000000000
10
204.8222016490
20
92.3108285222
30
0.0000000000
11
204.6578661007
21
92.7438412242
31
0.0000000000
11
204.7234821091
21
92.6344910375
31
0.0000000000
11
204.7807013804
21
92.4837222660
31
0.0000000000
11
204.8222016490
21
92.3108285222
31
0.0000000000
0
SPLINE
5
40C
100
AcDbEntity
8
0
100
AcDbSpline
62
9
6
CONTINUOUS
70
0
71
3
72
11
73
7
74
5
42
0.0000001000
43
0.0000001000
44
0.0000000001
12
2.5105062335
22
0.4539240222
32
0.0000000000
13
2.0919496902
23
1.4602859514
33
0.0000000000
40
0.0000000000
40
0.0000000000
40
0.0000000000
40
0.0000000000
40
0.2668129587
40
0.5250064799
40
0.7704995634
40
1.0000000000
40
1.0000000000
40
1.0000000000
40
1.0000000000
10
204.8222016491
20
92.3108285221
30
0.0000000000
10
205.0454801812
20
92.3511994593
30
0.0000000000
10
205.4819040837
20
92.4482257911
30
0.0000000000
10
206.1072849773
20
92.6470303747
30
0.0000000000
10
206.6801719039
20
92.8960289947
30
0.0000000000
10
207.0296581617
20
93.1015549105
30
0.0000000000
10
207.1896926175
20
93.2132669983
30
0.0000000000
11
204.8222016491
21
92.3108285221
31
0.0000000000
11
205.4864091952
21
92.4597458633
31
0.0000000000
11
206.1135842870
21
92.6611060661
31
0.0000000000
11
206.6868829742
21
92.9132702970
31
0.0000000000
11
207.1896926175
21
93.2132669983
31
0.0000000000
0
SPLINE
5
40D
100
AcDbEntity
8
0
100
AcDbSpline
62
9
6
CONTINUOUS
70
0
71
3
72
11
73
7
74
5
42
0.0000001000
43
0.0000001000
44
0.0000000001
12
1.6279905893
22
0.4875908057
32
0.0000000000
13
1.6723286607
23
0.3023491414
33
0.0000000000
40
0.0000000000
40
0.0000000000
40
0.0000000000
40
0.0000000000
40
0.2240787097
40
0.4690041579
40
0.7325527112
40
1.0000000000
40
1.0000000000
40
1.0000000000
40
1.0000000000
10
203.1795794737
20
91.8781571733
30
0.0000000000
10
203.3011788173
20
91.9145767461
30
0.0000000000
10
203.5556795474
20
91.9908356452
30
0.0000000000
10
203.9542576904
20
92.1064100139
30
0.0000000000
10
204.3791332163
20
92.2191797958
30
0.0000000000
10
204.6731150604
20
92.2838743694
30
0.0000000000
10
204.8222016491
20
92.3108285221
30
0.0000000000
11
203.1795794737
21
91.8781571733
31
0.0000000000
11
203.5445229408
21
91.9869291209
31
0.0000000000
11
203.9445356014
21
92.1020050767
31
0.0000000000
11
204.3777919571
21
92.2155391668
31
0.0000000000
11
204.8222016491
21
92.3108285221
31
0.0000000000
0
SPLINE
5
40E
100
AcDbEntity
8
0
100
AcDbSpline
62
9
6
CONTINUOUS
70
0
71
3
72
11
73
7
74
5
42
0.0000001000
43
0.0000001000
44
0.0000000001
12
1.4291578938
22
0.9507741338
32
0.0000000000
13
1.5926556368
23
0.6402435174
33
0.0000000000
40
0.0000000000
40
0.0000000000
40
0.0000000000
40
0.0000000000
40
0.2304693414
40
0.4791561209
40
0.7416891356
40
1.0000000000
40
1.0000000000
40
1.0000000000
40
1.0000000000
10
203.1787779776
20
91.8777935793
30
0.0000000000
10
203.2885703371
20
91.9508350087
30
0.0000000000
10
203.5165946640
20
92.1030412194
30
0.0000000000
10
203.8734218191
20
92.3328841539
30
0.0000000000
10
204.2525884079
20
92.5569012879
30
0.0000000000
10
204.5207326815
20
92.6887139386
30
0.0000000000
10
204.6578660996
20
92.7438412240
30
0.0000000000
11
203.1787779776
21
91.8777935793
31
0.0000000000
11
203.5085031351
21
92.0963937488
31
0.0000000000
11
203.8681665799
21
92.3263211140
31
0.0000000000
11
204.2575935498
21
92.5530973813
31
0.0000000000
11
204.6578660996
21
92.7438412240
31
0.0000000000
0
SPLINE
5
40F
100
AcDbEntity
8
0
100
AcDbSpline
62
9
6
CONTINUOUS
70
0
71
3
72
12
73
8
74
6
42
0.0000001000
43
0.0000001000
44
0.0000000001
12
0.5742370869
22
0.2116759709
32
0.0000000000
13
0.1393649164
23
0.5959298354
33
0.0000000000
40
0.0000000000
40
0.0000000000
40
0.0000000000
40
0.0000000000
40
0.2277656580
40
0.4499590654
40
0.6461592470
40
0.8199526826
40
1.0000000000
40
1.0000000000
40
1.0000000000
40
1.0000000000
10
206.7886079689
20
104.5123026343
30
0.0000000000
10
206.8322051315
20
104.5283734732
30
0.0000000000
10
206.9158953384
20
104.5680305588
30
0.0000000000
10
207.0196247009
20
104.6512086462
30
0.0000000000
10
207.0969049930
20
104.7450344785
30
0.0000000000
10
207.1532606795
20
104.8422194383
30
0.0000000000
10
207.1813285253
20
104.9095501465
30
0.0000000000
10
207.1896926184
20
104.9453153359
30
0.0000000000
11
206.7886079689
21
104.5123026343
31
0.0000000000
11
206.9139960451
21
104.5732016525
31
0.0000000000
11
207.0202536669
21
104.6580607243
31
0.0000000000
11
207.0969114939
21
104.7504830551
31
0.0000000000
11
207.1506451959
21
104.8422752454
31
0.0000000000
11
207.1896926184
21
104.9453153359
31
0.0000000000
0
SPLINE
5
410
100
AcDbEntity
8
0
100
AcDbSpline
62
9
6
CONTINUOUS
70
0
71
3
72
11
73
7
74
5
42
0.0000001000
43
0.0000001000
44
0.0000000001
12
-2.0919497146
22
1.4602859150
32
0.0000000000
13
-2.5105063087
23
0.4539236017
33
0.0000000000
40
0.0000000000
40
0.0000000000
40
0.0000000000
40
0.0000000000
40
0.2295004361
40
0.4749935191
40
0.7331870412
40
1.0000000000
40
1.0000000000
40
1.0000000000
40
1.0000000000
10
207.1896926175
20
104.9453128692
30
0.0000000000
10
207.0296581602
20
105.0570249540
30
0.0000000000
10
206.6801719069
20
105.2625508764
30
0.0000000000
10
206.1072849687
20
105.5115494683
30
0.0000000000
10
205.4819040922
20
105.7103540979
30
0.0000000000
10
205.0454801879
20
105.8073804424
30
0.0000000000
10
204.8222016492
20
105.8477513421
30
0.0000000000
11
207.1896926175
21
104.9453128692
31
0.0000000000
11
206.6868829744
21
105.2453095680
31
0.0000000000
11
206.1135842844
21
105.4974737887
31
0.0000000000
11
205.4864091996
21
105.6988340208
31
0.0000000000
11
204.8222016492
21
105.8477513421
31
0.0000000000
0
SPLINE
5
411
100
AcDbEntity
8
0
100
AcDbSpline
62
9
6
CONTINUOUS
70
0
71
3
72
11
73
7
74
5
42
0.0000001000
43
0.0000001000
44
0.0000000001
12
-1.8428115972
22
1.4292580909
32
0.0000000000
13
-2.2864127003
23
0.4594020432
33
0.0000000000
40
0.0000000000
40
0.0000000000
40
0.0000000000
40
0.0000000000
40
0.2323976608
40
0.4785150075
40
0.7354548068
40
1.0000000000
40
1.0000000000
40
1.0000000000
40
1.0000000000
10
206.7881428307
20
104.5124551787
30
0.0000000000
10
206.6453877959
20
104.6231739243
30
0.0000000000
10
206.3330332059
20
104.8279459642
30
0.0000000000
10
205.8172075796
20
105.0773744972
30
0.0000000000
10
205.2536813773
20
105.2767672519
30
0.0000000000
10
204.8594859295
20
105.3742277728
30
0.0000000000
10
204.6578660996
20
105.4147386402
30
0.0000000000
11
206.7881428307
21
104.5124551787
31
0.0000000000
11
206.3365022097
21
104.8120541022
31
0.0000000000
11
205.8208524066
21
105.0641448422
31
0.0000000000
11
205.2565086254
21
105.2655665852
31
0.0000000000
11
204.6578660996
21
105.4147386402
31
0.0000000000
0
SPLINE
5
412
100
AcDbEntity
8
0
100
AcDbSpline
62
9
6
CONTINUOUS
70
0
71
3
72
9
73
5
74
3
42
0.0000001000
43
0.0000001000
44
0.0000000001
12
-0.4576130872
22
0.1840044760
32
0.0000000000
13
-0.4322551580
23
0.2379092121
33
0.0000000000
40
0.0000000000
40
0.0000000000
40
0.0000000000
40
0.0000000000
40
0.8668731207
40
1.0000000000
40
1.0000000000
40
1.0000000000
40
1.0000000000
10
204.6578660996
20
105.4147386402
30
0.0000000000
10
204.5256352713
20
105.4679081517
30
0.0000000000
10
204.3775417231
20
105.5402349017
30
0.0000000000
10
204.2330138720
20
105.6187715366
30
0.0000000000
10
204.2138322786
20
105.6293289069
30
0.0000000000
11
204.6578660996
21
105.4147386402
31
0.0000000000
11
204.2715581496
21
105.5979709187
31
0.0000000000
11
204.2138322786
21
105.6293289069
31
0.0000000000
0
SPLINE
5
413
100
AcDbEntity
8
0
100
AcDbSpline
62
9
6
CONTINUOUS
70
0
71
3
72
10
73
6
74
4
42
0.0000001000
43
0.0000001000
44
0.0000000001
12
0.2922725811
22
0.3637326116
32
0.0000000000
13
0.0823116450
23
0.4592923552
33
0.0000000000
40
0.0000000000
40
0.0000000000
40
0.0000000000
40
0.0000000000
40
0.2733187861
40
0.6189344245
40
1.0000000000
40
1.0000000000
40
1.0000000000
40
1.0000000000
10
204.6578661002
20
105.4147172302
30
0.0000000000
10
204.6844939625
20
105.4478555489
30
0.0000000000
10
204.7317056981
20
105.5329883167
30
0.0000000000
10
204.7855187583
20
105.6790958004
30
0.0000000000
10
204.8117416376
20
105.7894111730
30
0.0000000000
10
204.8221970158
20
105.8477513416
30
0.0000000000
11
204.6578661002
21
105.4147172302
31
0.0000000000
11
204.7234793970
21
105.5240772605
31
0.0000000000
11
204.7806971243
21
105.6748531901
31
0.0000000000
11
204.8221970158
21
105.8477513416
31
0.0000000000
0
SPLINE
5
414
100
AcDbEntity
8
0
100
AcDbSpline
62
9
6
CONTINUOUS
70
0
71
3
72
9
73
5
74
3
42
0.0000001000
43
0.0000001000
44
0.0000000001
12
-0.7542880122
22
0.1364044780
32
0.0000000000
13
-0.7401307670
23
0.1994614663
33
0.0000000000
40
0.0000000000
40
0.0000000000
40
0.0000000000
40
0.0000000000
40
0.5723218434
40
1.0000000000
40
1.0000000000
40
1.0000000000
40
1.0000000000
10
204.8222016492
20
105.8477513421
30
0.0000000000
10
204.6783031473
20
105.8737737629
30
0.0000000000
10
204.4285248319
20
105.9283990499
30
0.0000000000
10
204.1810995304
20
105.9922386211
30
0.0000000000
10
204.0755869430
20
106.0206737252
30
0.0000000000
11
204.8222016492
21
105.8477513421
31
0.0000000000
11
204.3931667106
21
105.9393184127
31
0.0000000000
11
204.0755869430
21
106.0206737252
31
0.0000000000
0
SPLINE
5
415
100
AcDbEntity
8
0
100
AcDbSpline
62
7
6
CONTINUOUS
70
0
71
3
72
10
73
6
74
4
42
0.0000001000
43
0.0000001000
44
0.0000000001
12
0.1737171215
22
-0.3903320679
32
0.0000000000
13
0.0007565986
23
-0.4281760280
33
0.0000000000
40
0.0000000000
40
0.0000000000
40
0.0000000000
40
0.0000000000
40
0.4089723593
40
0.8129000995
40
1.0000000000
40
1.0000000000
40
1.0000000000
40
1.0000000000
10
207.1896926175
20
106.0792899321
30
0.0000000000
10
207.2133744511
20
106.0260782566
30
0.0000000000
10
207.2542884943
20
105.9173627423
30
0.0000000000
10
207.2837461402
20
105.7773054617
30
0.0000000000
10
207.2885657737
20
105.6929406459
30
0.0000000000
10
207.2886129602
20
105.6662367484
30
0.0000000000
11
207.1896926175
21
106.0792899321
31
0.0000000000
11
207.2502476025
21
105.9153878310
31
0.0000000000
11
207.2842525305
21
105.7461958445
31
0.0000000000
11
207.2886129602
21
105.6662367484
31
0.0000000000
0
SPLINE
5
416
100
AcDbEntity
8
0
100
AcDbSpline
62
9
6
CONTINUOUS
70
0
71
3
72
10
73
6
74
4
42
0.0000001000
43
0.0000001000
44
0.0000000001
12
-0.4352046372
22
0.0322749828
32
0.0000000000
13
-0.2532250567
23
0.3543544178
33
0.0000000000
40
0.0000000000
40
0.0000000000
40
0.0000000000
40
0.0000000000
40
0.4298731624
40
0.7967164284
40
1.0000000000
40
1.0000000000
40
1.0000000000
40
1.0000000000
10
114.2690843393
20
104.5123026340
30
0.0000000000
10
114.2067234081
20
104.5169273504
30
0.0000000000
10
114.0894012710
20
104.5212614089
30
0.0000000000
10
113.9525080470
20
104.5714693930
30
0.0000000000
10
113.8822342267
20
104.6251537573
30
0.0000000000
10
113.8650753954
20
104.6491652346
30
0.0000000000
11
114.2690843393
21
104.5123026340
31
0.0000000000
11
114.0825234726
21
104.5319878241
31
0.0000000000
11
113.9333358547
21
104.5900564309
31
0.0000000000
11
113.8650753954
21
104.6491652346
31
0.0000000000
0
SPLINE
5
417
100
AcDbEntity
8
0
100
AcDbSpline
62
9
6
CONTINUOUS
70
0
71
3
72
11
73
7
74
5
42
0.0000001000
43
0.0000001000
44
0.0000000001
12
-0.5819227399
22
0.1879584696
32
0.0000000000
13
-0.1633727364
23
0.5892977265
33
0.0000000000
40
0.0000000000
40
0.0000000000
40
0.0000000000
40
0.0000000000
40
0.2381322957
40
0.4915305250
40
0.7494672121
40
1.0000000000
40
1.0000000000
40
1.0000000000
40
1.0000000000
10
114.2690843393
20
104.5123026340
30
0.0000000000
10
114.2228928067
20
104.5272222947
30
0.0000000000
10
114.1320021470
20
104.5727412208
30
0.0000000000
10
114.0153053331
20
104.6733570557
30
0.0000000000
10
113.9227062298
20
104.7996095405
30
0.0000000000
10
113.8816430983
20
104.8961025349
30
0.0000000000
10
113.8679996893
20
104.9453153357
30
0.0000000000
11
114.2690843393
21
104.5123026340
31
0.0000000000
11
114.1381946069
21
104.5761318091
31
0.0000000000
11
114.0203021456
21
104.6766989261
31
0.0000000000
11
113.9271427688
21
104.8039842440
31
0.0000000000
11
113.8679996893
21
104.9453153357
31
0.0000000000
0
SPLINE
5
418
100
AcDbEntity
8
0
100
AcDbSpline
62
9
6
CONTINUOUS
70
0
71
3
72
11
73
7
74
5
42
0.0000001000
43
0.0000001000
44
0.0000000001
12
-2.2863837811
22
-0.4593965965
32
0.0000000000
13
-1.8427883045
23
-1.4292401100
33
0.0000000000
40
0.0000000000
40
0.0000000000
40
0.0000000000
40
0.0000000000
40
0.2645485248
40
0.5214915753
40
0.7676120239
40
1.0000000000
40
1.0000000000
40
1.0000000000
40
1.0000000000
10
116.3998262081
20
105.4147386402
30
0.0000000000
10
116.1982063893
20
105.3742277429
30
0.0000000000
10
115.8040109288
20
105.2767672509
30
0.0000000000
10
115.2404847625
20
105.0773744441
30
0.0000000000
10
114.7246678059
20
104.8279505036
30
0.0000000000
10
114.4123212832
20
104.6231841767
30
0.0000000000
10
114.2695740017
20
104.5124714378
30
0.0000000000
11
116.3998262081
21
105.4147386402
31
0.0000000000
11
115.8011837012
21
105.2655665714
31
0.0000000000
11
115.2368398895
21
105.0641448497
31
0.0000000000
11
114.7211900994
21
104.8120541019
31
0.0000000000
11
114.2695740017
21
104.5124714378
31
0.0000000000
0
SPLINE
5
419
100
AcDbEntity
8
0
100
AcDbSpline
62
9
6
CONTINUOUS
70
0
71
3
72
10
73
6
74
4
42
0.0000001000
43
0.0000001000
44
0.0000000001
12
-0.2922936850
22
0.3636933409
32
0.0000000000
13
-0.0823096844
23
0.4592750378
33
0.0000000000
40
0.0000000000
40
0.0000000000
40
0.0000000000
40
0.0000000000
40
0.2733136846
40
0.6189290111
40
1.0000000000
40
1.0000000000
40
1.0000000000
40
1.0000000000
10
116.3998262082
20
105.4147386402
30
0.0000000000
10
116.3731969202
20
105.4478727626
30
0.0000000000
10
116.3259829836
20
105.5329997129
30
0.0000000000
10
116.2721687699
20
105.6791005940
30
0.0000000000
10
116.2459459366
20
105.7894125445
30
0.0000000000
10
116.2354906590
20
105.8477513421
30
0.0000000000
11
116.3998262082
21
105.4147386402
31
0.0000000000
11
116.3342102485
21
105.5240887533
31
0.0000000000
11
116.2769909689
21
105.6748575090
31
0.0000000000
11
116.2354906590
21
105.8477513421
31
0.0000000000
0
SPLINE
5
41A
100
AcDbEntity
8
0
100
AcDbSpline
62
9
6
CONTINUOUS
70
0
71
3
72
11
73
7
74
5
42
0.0000001000
43
0.0000001000
44
0.0000000001
12
-2.5105062336
22
-0.4539240212
32
0.0000000000
13
-2.0919496902
23
-1.4602859514
33
0.0000000000
40
0.0000000000
40
0.0000000000
40
0.0000000000
40
0.0000000000
40
0.2668129585
40
0.5250064794
40
0.7704995632
40
1.0000000000
40
1.0000000000
40
1.0000000000
40
1.0000000000
10
116.2354906585
20
105.8477513421
30
0.0000000000
10
116.0122121267
20
105.8073804051
30
0.0000000000
10
115.5757882246
20
105.7103540732
30
0.0000000000
10
114.9504073311
20
105.5115494898
30
0.0000000000
10
114.3775204043
20
105.2625508698
30
0.0000000000
10
114.0280341461
20
105.0570249538
30
0.0000000000
10
113.8679996902
20
104.9453128659
30
0.0000000000
11
116.2354906585
21
105.8477513421
31
0.0000000000
11
115.5712831130
21
105.6988340010
31
0.0000000000
11
114.9441080217
21
105.4974737986
31
0.0000000000
11
114.3708093341
21
105.2453095676
31
0.0000000000
11
113.8679996902
21
104.9453128659
31
0.0000000000
0
SPLINE
5
41B
100
AcDbEntity
8
0
100
AcDbSpline
62
9
6
CONTINUOUS
70
0
71
3
72
9
73
5
74
3
42
0.0000001000
43
0.0000001000
44
0.0000000001
12
-0.7406675158
22
-0.1996350457
32
0.0000000000
13
-0.7548425105
23
-0.1365045038
33
0.0000000000
40
0.0000000000
40
0.0000000000
40
0.0000000000
40
0.0000000000
40
0.4282766253
40
1.0000000000
40
1.0000000000
40
1.0000000000
40
1.0000000000
10
116.9826493167
20
106.0208204664
30
0.0000000000
10
116.8769124553
20
105.9923207918
30
0.0000000000
10
116.6293067978
20
105.9284283540
30
0.0000000000
10
116.3793443610
20
105.8737656140
30
0.0000000000
10
116.2354906585
20
105.8477513421
30
0.0000000000
11
116.9826493167
21
106.0208204664
31
0.0000000000
11
116.6643927420
21
105.9392864357
31
0.0000000000
11
116.2354906585
21
105.8477513421
31
0.0000000000
0
SPLINE
5
41C
100
AcDbEntity
8
0
100
AcDbSpline
62
9
6
CONTINUOUS
70
0
71
3
72
9
73
5
74
3
42
0.0000001000
43
0.0000001000
44
0.0000000001
12
-0.4328438669
22
-0.2382981139
32
0.0000000000
13
-0.4582668704
23
-0.1842671160
33
0.0000000000
40
0.0000000000
40
0.0000000000
40
0.0000000000
40
0.0000000000
40
0.1346333676
40
1.0000000000
40
1.0000000000
40
1.0000000000
40
1.0000000000
10
116.8444773435
20
105.6296687839
30
0.0000000000
10
116.8250522677
20
105.6189744914
30
0.0000000000
10
116.6803222407
20
105.5403184970
30
0.0000000000
10
116.5320158275
20
105.4678915114
30
0.0000000000
10
116.3998262081
20
105.4147386402
30
0.0000000000
11
116.8444773435
21
105.6296687839
31
0.0000000000
11
116.7860164597
21
105.5979079564
31
0.0000000000
11
116.3998262081
21
105.4147386402
31
0.0000000000
0
SPLINE
5
41D
100
AcDbEntity
8
0
100
AcDbSpline
62
9
6
CONTINUOUS
70
0
71
3
72
12
73
8
74
6
42
0.0000001000
43
0.0000001000
44
0.0000000001
12
-0.5742370869
22
-0.2116759709
32
0.0000000000
13
-0.1393649164
23
-0.5959298354
33
0.0000000000
40
0.0000000000
40
0.0000000000
40
0.0000000000
40
0.0000000000
40
0.2277656580
40
0.4499590654
40
0.6461592470
40
0.8199526826
40
1.0000000000
40
1.0000000000
40
1.0000000000
40
1.0000000000
10
114.2690843388
20
93.6462772300
30
0.0000000000
10
114.2254871762
20
93.6302063910
30
0.0000000000
10
114.1417969693
20
93.5905493055
30
0.0000000000
10
114.0380676068
20
93.5073712180
30
0.0000000000
10
113.9607873147
20
93.4135453857
30
0.0000000000
10
113.9044316282
20
93.3163604260
30
0.0000000000
10
113.8763637824
20
93.2490297177
30
0.0000000000
10
113.8679996893
20
93.2132645283
30
0.0000000000
11
114.2690843388
21
93.6462772300
31
0.0000000000
11
114.1436962626
21
93.5853782117
31
0.0000000000
11
114.0374386408
21
93.5005191400
31
0.0000000000
11
113.9607808138
21
93.4080968091
31
0.0000000000
11
113.9070471118
21
93.3163046188
31
0.0000000000
11
113.8679996893
21
93.2132645283
31
0.0000000000
0
SPLINE
5
41E
100
AcDbEntity
8
0
100
AcDbSpline
62
9
6
CONTINUOUS
70
0
71
3
72
11
73
7
74
5
42
0.0000001000
43
0.0000001000
44
0.0000000001
12
2.0919497146
22
-1.4602859151
32
0.0000000000
13
2.5105063088
23
-0.4539236009
33
0.0000000000
40
0.0000000000
40
0.0000000000
40
0.0000000000
40
0.0000000000
40
0.2295004363
40
0.4749935195
40
0.7331870415
40
1.0000000000
40
1.0000000000
40
1.0000000000
40
1.0000000000
10
113.8679996902
20
93.2132669950
30
0.0000000000
10
114.0280341476
20
93.1015549101
30
0.0000000000
10
114.3775204013
20
92.8960289876
30
0.0000000000
10
114.9504073398
20
92.6470303957
30
0.0000000000
10
115.5757882161
20
92.4482257662
30
0.0000000000
10
116.0122121200
20
92.3511994218
30
0.0000000000
10
116.2354906585
20
92.3108285221
30
0.0000000000
11
113.8679996902
21
93.2132669950
31
0.0000000000
11
114.3708093339
21
92.9132702959
31
0.0000000000
11
114.9441080243
21
92.6611060752
31
0.0000000000
11
115.5712831087
21
92.4597458433
31
0.0000000000
11
116.2354906585
21
92.3108285221
31
0.0000000000
0
SPLINE
5
41F
100
AcDbEntity
8
0
100
AcDbSpline
62
9
6
CONTINUOUS
70
0
71
3
72
11
73
7
74
5
42
0.0000001000
43
0.0000001000
44
0.0000000001
12
1.8428115973
22
-1.4292580909
32
0.0000000000
13
2.2864127004
23
-0.4594020429
33
0.0000000000
40
0.0000000000
40
0.0000000000
40
0.0000000000
40
0.0000000000
40
0.2323976614
40
0.4785150084
40
0.7354548074
40
1.0000000000
40
1.0000000000
40
1.0000000000
40
1.0000000000
10
114.2695494770
20
93.6461246856
30
0.0000000000
10
114.4123045122
20
93.5354059396
30
0.0000000000
10
114.7246591028
20
93.3306338995
30
0.0000000000
10
115.2404847297
20
93.0812053664
30
0.0000000000
10
115.8040109316
20
92.8818126121
30
0.0000000000
10
116.1982063787
20
92.7843520913
30
0.0000000000
10
116.3998262081
20
92.7438412240
30
0.0000000000
11
114.2695494770
21
93.6461246856
31
0.0000000000
11
114.7211900992
21
93.3465257614
31
0.0000000000
11
115.2368399030
21
93.0944350211
31
0.0000000000
11
115.8011836838
21
92.8930132786
31
0.0000000000
11
116.3998262081
21
92.7438412240
31
0.0000000000
0
SPLINE
5
420
100
AcDbEntity
8
0
100
AcDbSpline
62
9
6
CONTINUOUS
70
0
71
3
72
11
73
7
74
5
42
0.0000001000
43
0.0000001000
44
0.0000000001
12
1.5926580033
22
-0.6402442859
32
0.0000000000
13
1.4291504306
23
-0.9507898337
33
0.0000000000
40
0.0000000000
40
0.0000000000
40
0.0000000000
40
0.0000000000
40
0.2583855157
40
0.5210725102
40
0.7697430701
40
1.0000000000
40
1.0000000000
40
1.0000000000
40
1.0000000000
10
116.3998262081
20
92.7438412240
30
0.0000000000
10
116.5369994612
20
92.6886979407
30
0.0000000000
10
116.8052594652
20
92.5568217381
30
0.0000000000
10
117.1845228067
20
92.3327280790
30
0.0000000000
10
117.5413091114
20
92.1028997407
30
0.0000000000
10
117.7692268918
20
91.9507688262
30
0.0000000000
10
117.8789174887
20
91.8777935101
30
0.0000000000
11
116.3998262081
21
92.7438412240
31
0.0000000000
11
116.8002122748
21
92.5530362312
31
0.0000000000
11
117.1898608355
21
92.3261139585
31
0.0000000000
11
117.5494961399
21
92.0961931188
31
0.0000000000
11
117.8789174887
21
91.8777935101
31
0.0000000000
0
SPLINE
5
421
100
AcDbEntity
8
0
100
AcDbSpline
62
9
6
CONTINUOUS
70
0
71
3
72
10
73
6
74
4
42
0.0000001000
43
0.0000001000
44
0.0000000001
12
-0.2922709449
22
-0.3637359762
32
0.0000000000
13
-0.0823117430
23
-0.4592939609
33
0.0000000000
40
0.0000000000
40
0.0000000000
40
0.0000000000
40
0.0000000000
40
0.2733192004
40
0.6189348871
40
1.0000000000
40
1.0000000000
40
1.0000000000
40
1.0000000000
10
116.3998262062
20
92.7438645620
30
0.0000000000
10
116.3731984525
20
92.7107258866
30
0.0000000000
10
116.3259868837
20
92.6255926048
30
0.0000000000
10
116.2721739069
20
92.4794845228
30
0.0000000000
10
116.2459510272
20
92.3691688245
30
0.0000000000
10
116.2354956493
20
92.3108285228
30
0.0000000000
11
116.3998262062
21
92.7438645620
31
0.0000000000
11
116.3342131101
21
92.6345036765
31
0.0000000000
11
116.2769954957
21
92.4837270893
31
0.0000000000
11
116.2354956493
21
92.3108285228
31
0.0000000000
0
SPLINE
5
422
100
AcDbEntity
8
0
100
AcDbSpline
62
9
6
CONTINUOUS
70
0
71
3
72
11
73
7
74
5
42
0.0000001000
43
0.0000001000
44
0.0000000001
12
1.6735038069
22
-0.3025613288
32
0.0000000000
13
1.6291376121
23
-0.4879231395
33
0.0000000000
40
0.0000000000
40
0.0000000000
40
0.0000000000
40
0.0000000000
40
0.2673367682
40
0.5308509748
40
0.7755860253
40
1.0000000000
40
1.0000000000
40
1.0000000000
40
1.0000000000
10
116.2354906585
20
92.3108285221
30
0.0000000000
10
116.3846203583
20
92.2838665995
30
0.0000000000
10
116.6787278990
20
92.2191410378
30
0.0000000000
10
117.1037160070
20
92.1063321676
30
0.0000000000
10
117.5026323947
20
91.9906524165
30
0.0000000000
10
117.7573905366
20
91.9143160918
30
0.0000000000
10
117.8792576189
20
91.8778171681
30
0.0000000000
11
116.2354906585
21
92.3108285221
31
0.0000000000
11
116.6800281111
21
92.2155081839
31
0.0000000000
11
117.1135303202
21
92.1019011853
31
0.0000000000
11
117.5135112461
21
91.9868282017
31
0.0000000000
11
117.8792576189
21
91.8778171681
31
0.0000000000
0
SPLINE
5
423
100
AcDbEntity
8
0
100
AcDbSpline
62
7
6
CONTINUOUS
70
0
71
3
72
10
73
6
74
4
42
0.0000001000
43
0.0000001000
44
0.0000000001
12
-0.1737171215
22
0.3903320679
32
0.0000000000
13
-0.0007565986
23
0.4281760280
33
0.0000000000
40
0.0000000000
40
0.0000000000
40
0.0000000000
40
0.0000000000
40
0.4089723593
40
0.8129000995
40
1.0000000000
40
1.0000000000
40
1.0000000000
40
1.0000000000
10
113.8679996902
20
92.0792899321
30
0.0000000000
10
113.8443178566
20
92.1325016077
30
0.0000000000
10
113.8034038134
20
92.2412171219
30
0.0000000000
10
113.7739461675
20
92.3812744025
30
0.0000000000
10
113.7691265340
20
92.4656392184
30
0.0000000000
10
113.7690793475
20
92.4923431158
30
0.0000000000
11
113.8679996902
21
92.0792899321
31
0.0000000000
11
113.8074447052
21
92.2431920332
31
0.0000000000
11
113.7734397772
21
92.4123840198
31
0.0000000000
11
113.7690793475
21
92.4923431158
31
0.0000000000
0
SPLINE
5
424
100
AcDbEntity
8
0
100
AcDbSpline
62
7
6
CONTINUOUS
70
0
71
3
72
9
73
5
74
3
42
0.0000001000
43
0.0000001000
44
0.0000000001
12
-0.0019420454
22
-0.0001304181
32
0.0000000000
13
-0.0004052638
23
-0.0268113597
33
0.0000000000
40
0.0000000000
40
0.0000000000
40
0.0000000000
40
0.0000000000
40
0.2547122945
40
1.0000000000
40
1.0000000000
40
1.0000000000
40
1.0000000000
10
118.7619061253
20
93.9328797712
30
0.0000000000
10
118.7617412377
20
93.9328686981
30
0.0000000000
10
118.7610894544
20
93.9183869191
30
0.0000000000
10
118.7611341181
20
93.9127455769
30
0.0000000000
10
118.7610334387
20
93.9060848514
30
0.0000000000
11
118.7619061253
21
93.9328797712
31
0.0000000000
11
118.7614543876
21
93.9260648768
31
0.0000000000
11
118.7610334387
21
93.9060848514
31
0.0000000000
0
SPLINE
5
425
100
AcDbEntity
8
0
100
AcDbSpline
62
7
6
CONTINUOUS
70
0
71
3
72
10
73
6
74
4
42
0.0000001000
43
0.0000001000
44
0.0000000001
12
0.0007565986
22
0.4281760280
32
0.0000000000
13
0.1737171215
23
0.3903320679
33
0.0000000000
40
0.0000000000
40
0.0000000000
40
0.0000000000
40
0.0000000000
40
0.1870999005
40
0.5910276407
40
1.0000000000
40
1.0000000000
40
1.0000000000
40
1.0000000000
10
113.7690793475
20
105.6662367484
30
0.0000000000
10
113.7691265340
20
105.6929406459
30
0.0000000000
10
113.7739461675
20
105.7773054617
30
0.0000000000
10
113.8034038134
20
105.9173627423
30
0.0000000000
10
113.8443178566
20
106.0260782566
30
0.0000000000
10
113.8679996902
20
106.0792899321
30
0.0000000000
11
113.7690793475
21
105.6662367484
31
0.0000000000
11
113.7734397772
21
105.7461958445
31
0.0000000000
11
113.8074447052
21
105.9153878310
31
0.0000000000
11
113.8679996902
21
106.0792899321
31
0.0000000000
0
SPLINE
5
426
100
AcDbEntity
8
0
100
AcDbSpline
62
9
6
CONTINUOUS
70
0
71
3
72
10
73
6
74
4
42
0.0000001000
43
0.0000001000
44
0.0000000001
12
0.2542987907
22
0.3534391430
32
0.0000000000
13
0.4356533915
23
-0.0078800656
33
0.0000000000
40
0.0000000000
40
0.0000000000
40
0.0000000000
40
0.0000000000
40
0.2018287896
40
0.5696066192
40
1.0000000000
40
1.0000000000
40
1.0000000000
40
1.0000000000
10
113.8654325464
20
93.5100194923
30
0.0000000000
10
113.8825408188
20
93.5337975571
30
0.0000000000
10
113.9528198183
20
93.5873593229
30
0.0000000000
10
114.0893877196
20
93.6352270508
30
0.0000000000
10
114.2065835601
20
93.6474077393
30
0.0000000000
10
114.2690843388
20
93.6462772300
30
0.0000000000
11
113.8654325464
21
93.5100194923
31
0.0000000000
11
113.9332877559
21
93.5684531948
31
0.0000000000
11
114.0825755686
21
93.6267041080
31
0.0000000000
11
114.2690843388
21
93.6462772300
31
0.0000000000
0
SPLINE
5
427
100
AcDbEntity
8
0
100
AcDbSpline
62
9
6
CONTINUOUS
70
0
71
3
72
12
73
8
74
6
42
0.0000001000
43
0.0000001000
44
0.0000000001
12
-1.5516427153
22
0.0000000105
32
0.0000000000
13
-0.0000000072
23
1.5516427153
33
0.0000000000
40
0.0000000000
40
0.0000000000
40
0.0000000000
40
0.0000000000
40
0.2015499777
40
0.4025102717
40
0.6025126217
40
0.8015533949
40
1.0000000000
40
1.0000000000
40
1.0000000000
40
1.0000000000
10
113.8788461538
20
88.3440279600
30
0.0000000000
10
113.7746016356
20
88.3440279607
30
0.0000000000
10
113.5649890726
20
88.3765419111
30
0.0000000000
10
113.2820192499
20
88.5182358767
30
0.0000000000
10
113.0568663941
20
88.7393468427
30
0.0000000000
10
112.9121475330
20
89.0180420101
30
0.0000000000
10
112.8788461543
20
89.2251158846
30
0.0000000000
10
112.8788461538
20
89.3277552944
30
0.0000000000
11
113.8788461538
21
88.3440279600
31
0.0000000000
11
113.5698405104
21
88.3921713763
31
0.0000000000
11
113.2910770366
21
88.5318916333
31
0.0000000000
11
113.0698418915
21
88.7495176390
31
0.0000000000
11
112.9277943766
21
89.0237524862
31
0.0000000000
11
112.8788461538
21
89.3277552944
31
0.0000000000
0
SPLINE
5
428
100
AcDbEntity
8
0
100
AcDbSpline
62
9
6
CONTINUOUS
70
0
71
3
72
12
73
8
74
6
42
0.0000001000
43
0.0000001000
44
0.0000000001
12
-1.5516427265
22
-0.0000000000
32
0.0000000000
13
-0.0000000000
23
1.5516427265
33
0.0000000000
40
0.0000000000
40
0.0000000000
40
0.0000000000
40
0.0000000000
40
0.2015575643
40
0.4025228957
40
0.6025262600
40
0.8015630079
40
1.0000000000
40
1.0000000000
40
1.0000000000
40
1.0000000000
10
113.8788461538
20
90.1635290552
30
0.0000000000
10
113.7745977110
20
90.1635290552
30
0.0000000000
10
113.5649784564
20
90.1960452889
30
0.0000000000
10
113.2820042403
20
90.3377470508
30
0.0000000000
10
113.0568551752
20
90.5588634962
30
0.0000000000
10
112.9121447069
20
90.8375553440
30
0.0000000000
10
112.8788461538
20
91.0446219542
30
0.0000000000
10
112.8788461538
20
91.1472563926
30
0.0000000000
11
113.8788461538
21
90.1635290552
31
0.0000000000
11
113.5698291595
21
90.2116760981
31
0.0000000000
11
113.2910609016
21
90.3514042587
31
0.0000000000
11
113.0698291595
21
90.5690359712
31
0.0000000000
11
112.9277896376
21
90.8432679273
31
0.0000000000
11
112.8788461538
21
91.1472563926
31
0.0000000000
0
SPLINE
5
429
100
AcDbEntity
8
0
100
AcDbSpline
62
9
6
CONTINUOUS
70
0
71
3
72
16
73
12
74
10
42
0.0000001000
43
0.0000001000
44
0.0000000001
12
-4.1559334123
22
0.0001328846
32
0.0000000000
13
-0.0031656170
23
-4.1559322087
33
0.0000000000
40
0.0000000000
40
0.0000000000
40
0.0000000000
40
0.0000000000
40
0.1159552194
40
0.2495487834
40
0.3924287072
40
0.5375513851
40
0.6762887999
40
0.7990174275
40
0.8959379917
40
0.9614224865
40
1.0000000000
40
1.0000000000
40
1.0000000000
40
1.0000000000
10
117.8670646012
20
90.8941927075
30
0.0000000000
10
117.7064305443
20
90.8941978438
30
0.0000000000
10
117.3607209092
20
90.8899121585
30
0.0000000000
10
116.8173656624
20
90.8707048585
30
0.0000000000
10
116.2344447035
20
90.8329796039
30
0.0000000000
10
115.6460411732
20
90.7742996980
30
0.0000000000
10
115.0885111132
20
90.6923069262
30
0.0000000000
10
114.6020551589
20
90.5915509054
30
0.0000000000
10
114.2248776951
20
90.4679996299
30
0.0000000000
10
113.9745053049
20
90.3484770413
30
0.0000000000
10
113.8788868611
20
90.2169708988
30
0.0000000000
10
113.8788461538
20
90.1635290552
30
0.0000000000
11
117.8670646012
21
90.8941927075
31
0.0000000000
11
117.3851960169
21
90.8885032657
31
0.0000000000
11
116.8303489884
21
90.8685425664
31
0.0000000000
11
116.2378163353
21
90.8297760732
31
0.0000000000
11
115.6378004831
21
90.7686619499
31
0.0000000000
11
115.0675816781
21
90.6832277738
31
0.0000000000
11
114.5693931867
21
90.5738601632
31
0.0000000000
11
114.1877513936
21
90.4450436851
31
0.0000000000
11
113.9544563879
21
90.3049057974
31
0.0000000000
11
113.8788461538
21
90.1635290552
31
0.0000000000
0
SPLINE
5
42A
100
AcDbEntity
8
0
100
AcDbSpline
62
9
6
CONTINUOUS
70
0
71
3
72
11
73
7
74
5
42
0.0000001000
43
0.0000001000
44
0.0000000001
12
-0.0000031306
22
-0.9837070430
32
0.0000000000
13
0.0164728355
23
-0.9835691089
33
0.0000000000
40
0.0000000000
40
0.0000000000
40
0.0000000000
40
0.0000000000
40
0.3462026797
40
0.6510281261
40
0.8780064796
40
1.0000000000
40
1.0000000000
40
1.0000000000
40
1.0000000000
10
117.8789174887
20
91.8777935101
30
0.0000000000
10
117.8789171274
20
91.7642728387
30
0.0000000000
10
117.8789117873
20
91.5507997199
30
0.0000000000
10
117.8789240928
20
91.2628973527
30
0.0000000000
10
117.8788835451
20
91.0485202812
30
0.0000000000
10
117.8789326113
20
90.9340848355
30
0.0000000000
10
117.8796024710
20
90.8940884828
30
0.0000000000
11
117.8789174887
21
91.8777935101
31
0.0000000000
11
117.8789155383
21
91.5372314959
31
0.0000000000
11
117.8789118989
21
91.2373725573
31
0.0000000000
11
117.8789069473
21
91.0140923525
31
0.0000000000
11
117.8796024710
21
90.8940884828
31
0.0000000000
0
SPLINE
5
42B
100
AcDbEntity
8
0
100
AcDbSpline
62
9
6
CONTINUOUS
70
0
71
3
72
17
73
13
74
11
42
0.0000001000
43
0.0000001000
44
0.0000000001
12
-5.1448275882
22
-0.0000107388
32
0.0000000000
13
-0.0022369267
23
-5.1448271019
33
0.0000000000
40
0.0000000000
40
0.0000000000
40
0.0000000000
40
0.0000000000
40
0.1073912793
40
0.2270546730
40
0.3552625779
40
0.4870891568
40
0.6164833245
40
0.7365224451
40
0.8396294840
40
0.9189669383
40
0.9710845601
40
1.0000000000
40
1.0000000000
40
1.0000000000
40
1.0000000000
10
117.8792576189
20
91.8778171681
30
0.0000000000
10
117.6950877468
20
91.8778167837
30
0.0000000000
10
117.3056951471
20
91.8746886580
30
0.0000000000
10
116.6966014249
20
91.8592372456
30
0.0000000000
10
116.0460645554
20
91.8296492200
30
0.0000000000
10
115.3797389811
20
91.7832768172
30
0.0000000000
10
114.7290025422
20
91.7189520136
30
0.0000000000
10
114.1298226340
20
91.6353306522
30
0.0000000000
10
113.6204982579
20
91.5386870625
30
0.0000000000
10
113.2321652210
20
91.4225597418
30
0.0000000000
10
112.9822090441
20
91.3182234029
30
0.0000000000
10
112.8788677144
20
91.1968447055
30
0.0000000000
10
112.8788461538
20
91.1472563926
30
0.0000000000
11
117.8792576189
21
91.8778171681
31
0.0000000000
11
117.3267660753
21
91.8733483546
31
0.0000000000
11
116.7113194963
21
91.8576197480
31
0.0000000000
11
116.0524077694
21
91.8273298561
31
0.0000000000
11
115.3758583377
21
91.7796848750
31
0.0000000000
11
114.7135185043
21
91.7127770316
31
0.0000000000
11
114.1020649271
21
91.6259997618
31
0.0000000000
11
113.5821205174
21
91.5208615454
31
0.0000000000
11
113.1917431858
21
91.4016372624
31
0.0000000000
11
112.9555426317
21
91.2747266302
31
0.0000000000
11
112.8788461538
21
91.1472563926
31
0.0000000000
0
SPLINE
5
42C
100
AcDbEntity
8
0
100
AcDbSpline
62
7
6
CONTINUOUS
70
0
71
3
72
10
73
6
74
4
42
0.0000001000
43
0.0000001000
44
0.0000000001
12
-0.0007565986
22
-0.4281760280
32
0.0000000000
13
-0.1737171215
23
-0.3903320679
33
0.0000000000
40
0.0000000000
40
0.0000000000
40
0.0000000000
40
0.0000000000
40
0.1870999005
40
0.5910276407
40
1.0000000000
40
1.0000000000
40
1.0000000000
40
1.0000000000
10
207.2886129602
20
92.4923431158
30
0.0000000000
10
207.2885657737
20
92.4656392184
30
0.0000000000
10
207.2837461402
20
92.3812744025
30
0.0000000000
10
207.2542884943
20
92.2412171219
30
0.0000000000
10
207.2133744511
20
92.1325016077
30
0.0000000000
10
207.1896926175
20
92.0792899321
30
0.0000000000
11
207.2886129602
21
92.4923431158
31
0.0000000000
11
207.2842525305
21
92.4123840198
31
0.0000000000
11
207.2502476025
21
92.2431920332
31
0.0000000000
11
207.1896926175
21
92.0792899321
31
0.0000000000
0
SPLINE
5
42D
100
AcDbEntity
8
0
100
AcDbSpline
62
9
6
CONTINUOUS
70
0
71
3
72
12
73
8
74
6
42
0.0000001000
43
0.0000001000
44
0.0000000001
12
1.5516427264
22
0.0000000000
32
0.0000000000
13
0.0000000000
23
1.5516427264
33
0.0000000000
40
0.0000000000
40
0.0000000000
40
0.0000000000
40
0.0000000000
40
0.2015575643
40
0.4025228958
40
0.6025262601
40
0.8015630081
40
1.0000000000
40
1.0000000000
40
1.0000000000
40
1.0000000000
10
207.1788461538
20
88.3440279600
30
0.0000000000
10
207.2830945967
20
88.3440279600
30
0.0000000000
10
207.4927138513
20
88.3765441938
30
0.0000000000
10
207.7756880675
20
88.5182459557
30
0.0000000000
10
208.0008371326
20
88.7393624012
30
0.0000000000
10
208.1455476007
20
89.0180542490
30
0.0000000000
10
208.1788461538
20
89.2251208591
30
0.0000000000
10
208.1788461538
20
89.3277552975
30
0.0000000000
11
207.1788461538
21
88.3440279600
31
0.0000000000
11
207.4878631482
21
88.3921750029
31
0.0000000000
11
207.7666314061
21
88.5319031637
31
0.0000000000
11
207.9878631482
21
88.7495348762
31
0.0000000000
11
208.1299026701
21
89.0237668324
31
0.0000000000
11
208.1788461538
21
89.3277552975
31
0.0000000000
0
SPLINE
5
42E
100
AcDbEntity
8
0
100
AcDbSpline
62
9
6
CONTINUOUS
70
0
71
3
72
11
73
7
74
5
42
0.0000001000
43
0.0000001000
44
0.0000000001
12
0.2011403017
22
0.9632427069
32
0.0000000000
13
-0.0000027656
23
0.9840192748
33
0.0000000000
40
0.0000000000
40
0.0000000000
40
0.0000000000
40
0.0000000000
40
0.1222450008
40
0.3491536356
40
0.6539029014
40
1.0000000000
40
1.0000000000
40
1.0000000000
40
1.0000000000
10
203.1701005428
20
90.8940884828
30
0.0000000000
10
203.1782966749
20
90.9333390180
30
0.0000000000
10
203.1792210172
20
91.0488624705
30
0.0000000000
10
203.1785832498
20
91.2626663739
30
0.0000000000
10
203.1788525504
20
91.5508683124
30
0.0000000000
10
203.1787782967
20
91.7642715073
30
0.0000000000
10
203.1787779776
20
91.8777935793
30
0.0000000000
11
203.1701005428
21
90.8940884828
31
0.0000000000
11
203.1787888804
21
91.0140657415
31
0.0000000000
11
203.1787833355
21
91.2373482118
31
0.0000000000
11
203.1787798054
21
91.5372273632
31
0.0000000000
11
203.1787779776
21
91.8777935793
31
0.0000000000
0
SPLINE
5
42F
100
AcDbEntity
8
0
100
AcDbSpline
62
9
6
CONTINUOUS
70
0
71
3
72
16
73
12
74
10
42
0.0000001000
43
0.0000001000
44
0.0000000001
12
-0.0031585303
22
4.1625517371
32
0.0000000000
13
-4.1625526082
23
-0.0016505231
33
0.0000000000
40
0.0000000000
40
0.0000000000
40
0.0000000000
40
0.0000000000
40
0.0386069713
40
0.1042039621
40
0.2012995439
40
0.3242138968
40
0.4630932860
40
0.6082850269
40
0.7511363991
40
0.8845974043
40
1.0000000000
40
1.0000000000
40
1.0000000000
40
1.0000000000
10
207.1788461538
20
90.1635290552
30
0.0000000000
10
207.1788055068
20
90.2170968937
30
0.0000000000
10
207.0827175550
20
90.3489116713
30
0.0000000000
10
206.8314715202
20
90.4685477606
30
0.0000000000
10
206.4529749248
20
90.5922665422
30
0.0000000000
10
205.9650118085
20
90.6930537423
30
0.0000000000
10
205.4060094931
20
90.7749985470
30
0.0000000000
10
204.8163925373
20
90.8335458757
30
0.0000000000
10
204.2326555457
20
90.8710914833
30
0.0000000000
10
203.6894174085
20
90.8900813761
30
0.0000000000
10
203.3441066084
20
90.8942550174
30
0.0000000000
10
203.1839834832
20
90.8941915258
30
0.0000000000
11
207.1788461538
21
90.1635290552
31
0.0000000000
11
207.1029423546
21
90.3051773803
31
0.0000000000
11
206.8687459558
21
90.4455656500
31
0.0000000000
11
206.4857163238
21
90.5745542216
31
0.0000000000
11
205.9859181419
21
90.6839832365
31
0.0000000000
11
205.4141658157
21
90.7693680927
31
0.0000000000
11
204.8128819056
21
90.8303493213
31
0.0000000000
11
204.2195084116
21
90.8689297610
31
0.0000000000
11
203.6643213621
21
90.8886873960
31
0.0000000000
11
203.1839834832
21
90.8941915258
31
0.0000000000
0
SPLINE
5
430
100
AcDbEntity
8
0
100
AcDbSpline
62
9
6
CONTINUOUS
70
0
71
3
72
12
73
8
74
6
42
0.0000001000
43
0.0000001000
44
0.0000000001
12
1.5516427211
22
0.0000000228
32
0.0000000000
13
0.0000000000
23
1.5516427211
33
0.0000000000
40
0.0000000000
40
0.0000000000
40
0.0000000000
40
0.0000000000
40
0.2015559662
40
0.4025206774
40
0.6025242598
40
0.8015618385
40
1.0000000000
40
1.0000000000
40
1.0000000000
40
1.0000000000
10
207.1788461538
20
90.1635290552
30
0.0000000000
10
207.2830937698
20
90.1635290567
30
0.0000000000
10
207.4927118419
20
90.1960448461
30
0.0000000000
10
207.7756855148
20
90.3377452783
30
0.0000000000
10
208.0008354872
20
90.5588611336
30
0.0000000000
10
208.1455472286
20
90.8375536795
30
0.0000000000
10
208.1788461538
20
91.0446213493
30
0.0000000000
10
208.1788461538
20
91.1472563922
30
0.0000000000
11
207.1788461538
21
90.1635290552
31
0.0000000000
11
207.4878607561
21
90.2116753372
31
0.0000000000
11
207.7666285687
21
90.3514022364
31
0.0000000000
11
207.9878612788
21
90.5690334457
31
0.0000000000
11
208.1299020929
21
90.8432661831
31
0.0000000000
11
208.1788461538
21
91.1472563922
31
0.0000000000
0
SPLINE
5
431
100
AcDbEntity
8
0
100
AcDbSpline
62
7
6
CONTINUOUS
70
0
71
3
72
12
73
8
74
6
42
0.0000001000
43
0.0000001000
44
0.0000000001
12
-0.0218200776
22
1.0000000000
32
0.0000000000
13
-0.0218200776
23
1.0000000000
33
0.0000000000
40
0.0000000000
40
0.0000000000
40
0.0000000000
40
0.0000000000
40
0.3089776046
40
0.5877340598
40
0.8089800211
40
0.9510437757
40
1.0000000000
40
1.0000000000
40
1.0000000000
40
1.0000000000
10
144.5506662315
20
115.8292899321
30
0.0000000000
10
144.5484189264
20
115.9322824670
30
0.0000000000
10
144.5441441254
20
116.1281938202
30
0.0000000000
10
144.5382601231
20
116.3978538273
30
0.0000000000
10
144.5335901452
20
116.6118758843
30
0.0000000000
10
144.5305915870
20
116.7492978644
30
0.0000000000
10
144.5292022301
20
116.8129711907
30
0.0000000000
10
144.5288461538
20
116.8292899321
30
0.0000000000
11
144.5506662315
21
115.8292899321
31
0.0000000000
11
144.5439243162
21
116.1382675367
31
0.0000000000
11
144.5378418287
21
116.4170239919
31
0.0000000000
11
144.5330142246
21
116.6382699532
31
0.0000000000
11
144.5299143825
21
116.7803337078
31
0.0000000000
11
144.5288461538
21
116.8292899321
31
0.0000000000
0
SPLINE
5
432
100
AcDbEntity
8
0
100
AcDbSpline
62
9
6
CONTINUOUS
70
0
71
3
72
16
73
12
74
10
42
0.0000001000
43
0.0000001000
44
0.0000000001
12
-0.0022308047
22
5.1422501773
32
0.0000000000
13
-5.1422506612
23
-0.0000108170
33
0.0000000000
40
0.0000000000
40
0.0000000000
40
0.0000000000
40
0.0000000000
40
0.0331500813
40
0.0960759477
40
0.1921277260
40
0.3150125944
40
0.4545366089
40
0.6007985345
40
0.7449688918
40
0.8798557809
40
1.0000000000
40
1.0000000000
40
1.0000000000
40
1.0000000000
10
208.1788461538
20
91.1472563926
30
0.0000000000
10
208.1788215034
20
91.2040783964
30
0.0000000000
10
208.0441315448
20
91.3411503067
30
0.0000000000
10
207.7430281029
20
91.4509836856
30
0.0000000000
10
207.2710851648
20
91.5767741318
30
0.0000000000
10
206.6658248305
20
91.6758600345
30
0.0000000000
10
205.9695220194
20
91.7581440731
30
0.0000000000
10
205.2348634015
20
91.8166373899
30
0.0000000000
10
204.5066990207
20
91.8544177394
30
0.0000000000
10
203.8226673773
20
91.8736840015
30
0.0000000000
10
203.3855167038
20
91.8781576065
30
0.0000000000
10
203.1795794737
20
91.8781571733
30
0.0000000000
11
208.1788461538
21
91.1472563926
31
0.0000000000
11
208.0839839120
21
91.2888890921
31
0.0000000000
11
207.7922739351
21
91.4289236587
31
0.0000000000
11
207.3154185046
21
91.5576410136
31
0.0000000000
11
206.6930381307
21
91.6669403320
31
0.0000000000
11
205.9806712569
21
91.7523393191
31
0.0000000000
11
205.2310420755
21
91.8134440770
31
0.0000000000
11
204.4906967640
21
91.8522208688
31
0.0000000000
11
203.7973624795
21
91.8722038385
31
0.0000000000
11
203.1795794737
21
91.8781571733
31
0.0000000000
0
SPLINE
5
433
100
AcDbEntity
8
0
100
AcDbSpline
62
9
6
CONTINUOUS
70
0
71
3
72
10
73
6
74
4
42
0.0000001000
43
0.0000001000
44
0.0000000001
12
-0.2542987907
22
-0.3534391430
32
0.0000000000
13
-0.4356533915
23
0.0078800656
33
0.0000000000
40
0.0000000000
40
0.0000000000
40
0.0000000000
40
0.0000000000
40
0.2018287896
40
0.5696066192
40
1.0000000000
40
1.0000000000
40
1.0000000000
40
1.0000000000
10
207.1922597613
20
104.6485603719
30
0.0000000000
10
207.1751514889
20
104.6247823071
30
0.0000000000
10
207.1048724894
20
104.5712205413
30
0.0000000000
10
206.9683045881
20
104.5233528134
30
0.0000000000
10
206.8511087476
20
104.5111721249
30
0.0000000000
10
206.7886079689
20
104.5123026343
30
0.0000000000
11
207.1922597613
21
104.6485603719
31
0.0000000000
11
207.1244045518
21
104.5901266694
31
0.0000000000
11
206.9751167391
21
104.5318757563
31
0.0000000000
11
206.7886079689
21
104.5123026343
31
0.0000000000
0
SPLINE
5
434
100
AcDbEntity
8
0
100
AcDbSpline
62
9
6
CONTINUOUS
70
0
71
3
72
15
73
11
74
9
42
0.0000001000
43
0.0000001000
44
0.0000000001
12
0.0018836702
22
-4.3420669889
32
0.0000000000
13
4.3409074824
23
-0.1033286517
33
0.0000000000
40
0.0000000000
40
0.0000000000
40
0.0000000000
40
0.0000000000
40
0.0392591850
40
0.1137814226
40
0.2275342218
40
0.3730650802
40
0.5383014504
40
0.7115174360
40
0.8822564059
40
1.0000000000
40
1.0000000000
40
1.0000000000
40
1.0000000000
10
112.8788461538
20
107.0113234716
30
0.0000000000
10
112.8788708043
20
106.9545014678
30
0.0000000000
10
113.0135607629
20
106.8174295575
30
0.0000000000
10
113.3146642048
20
106.7075961786
30
0.0000000000
10
113.7866071429
20
106.5818057324
30
0.0000000000
10
114.3918674771
20
106.4827198297
30
0.0000000000
10
115.0881702883
20
106.4004357912
30
0.0000000000
10
115.8228289062
20
106.3419424744
30
0.0000000000
10
116.4902751589
20
106.3073124464
30
0.0000000000
10
116.9076247560
20
106.2943003618
30
0.0000000000
10
117.0779961056
20
106.2902449329
30
0.0000000000
11
112.8788461538
21
107.0113234716
31
0.0000000000
11
112.9737083957
21
106.8696907721
31
0.0000000000
11
113.2654183726
21
106.7296562055
31
0.0000000000
11
113.7422738031
21
106.6009388506
31
0.0000000000
11
114.3646541770
21
106.4916395323
31
0.0000000000
11
115.0770210508
21
106.4062405451
31
0.0000000000
11
115.8266502322
21
106.3451357872
31
0.0000000000
11
116.5669955437
21
106.3063589955
31
0.0000000000
11
117.0779961056
21
106.2902449329
31
0.0000000000
0
SPLINE
5
435
100
AcDbEntity
8
0
100
AcDbSpline
62
9
6
CONTINUOUS
70
0
71
3
72
12
73
8
74
6
42
0.0000001000
43
0.0000001000
44
0.0000000001
12
-1.5516427264
22
0.0000000000
32
0.0000000000
13
0.0000000000
23
-1.5516427264
33
0.0000000000
40
0.0000000000
40
0.0000000000
40
0.0000000000
40
0.0000000000
40
0.2015575643
40
0.4025228958
40
0.6025262601
40
0.8015630081
40
1.0000000000
40
1.0000000000
40
1.0000000000
40
1.0000000000
10
113.8788461538
20
109.8145519042
30
0.0000000000
10
113.7745977110
20
109.8145519042
30
0.0000000000
10
113.5649784563
20
109.7820356704
30
0.0000000000
10
113.2820042402
20
109.6403339085
30
0.0000000000
10
113.0568551751
20
109.4192174630
30
0.0000000000
10
112.9121447070
20
109.1405256152
30
0.0000000000
10
112.8788461538
20
108.9334590052
30
0.0000000000
10
112.8788461538
20
108.8308245668
30
0.0000000000
11
113.8788461538
21
109.8145519042
31
0.0000000000
11
113.5698291595
21
109.7664048613
31
0.0000000000
11
113.2910609016
21
109.6266767006
31
0.0000000000
11
113.0698291595
21
109.4090449880
31
0.0000000000
11
112.9277896376
21
109.1348130319
31
0.0000000000
11
112.8788461538
21
108.8308245668
31
0.0000000000
0
SPLINE
5
436
100
AcDbEntity
8
0
100
AcDbSpline
62
9
6
CONTINUOUS
70
0
71
3
72
16
73
12
74
10
42
0.0000001000
43
0.0000001000
44
0.0000000001
12
0.0028178753
22
-3.7136106538
32
0.0000000000
13
3.7129059435
23
-0.0790841978
33
0.0000000000
40
0.0000000000
40
0.0000000000
40
0.0000000000
40
0.0000000000
40
0.0431665226
40
0.1164367247
40
0.2248799829
40
0.3622018900
40
0.5174405373
40
0.6798290429
40
0.8397142004
40
0.9892146257
40
1.0000000000
40
1.0000000000
40
1.0000000000
40
1.0000000000
10
113.8788461538
20
107.9950508090
30
0.0000000000
10
113.8788866998
20
107.9416162563
30
0.0000000000
10
113.9744782764
20
107.8101279537
30
0.0000000000
10
114.2247999733
20
107.6906119897
30
0.0000000000
10
114.6019012055
20
107.5670703955
30
0.0000000000
10
115.0882699013
20
107.4663162177
30
0.0000000000
10
115.6457147167
20
107.3843206506
30
0.0000000000
10
116.2340479077
20
107.3256332437
30
0.0000000000
10
116.8169214762
20
107.2878970979
30
0.0000000000
10
117.2130468056
20
107.2738864346
30
0.0000000000
10
117.4114184282
20
107.2694829482
30
0.0000000000
10
117.4247667883
20
107.2691986306
30
0.0000000000
11
113.8788461538
21
107.9950508090
31
0.0000000000
11
113.9544393934
21
107.8536897826
31
0.0000000000
11
114.1876823096
21
107.7135663951
31
0.0000000000
11
114.5692438202
21
107.5847598930
31
0.0000000000
11
115.0673391513
21
107.4753958602
31
0.0000000000
11
115.6374691590
21
107.3899588529
31
0.0000000000
11
116.2374115280
21
107.3288370654
31
0.0000000000
11
116.8298953194
21
107.2900598014
31
0.0000000000
11
117.3847224884
21
107.2700873754
31
0.0000000000
11
117.4247667883
21
107.2691986306
31
0.0000000000
0
SPLINE
5
437
100
AcDbEntity
8
0
100
AcDbSpline
62
9
6
CONTINUOUS
70
0
71
3
72
12
73
8
74
6
42
0.0000001000
43
0.0000001000
44
0.0000000001
12
-1.5516427211
22
-0.0000000228
32
0.0000000000
13
0.0000000000
23
-1.5516427211
33
0.0000000000
40
0.0000000000
40
0.0000000000
40
0.0000000000
40
0.0000000000
40
0.2015559662
40
0.4025206774
40
0.6025242598
40
0.8015618385
40
1.0000000000
40
1.0000000000
40
1.0000000000
40
1.0000000000
10
113.8788461538
20
107.9950508090
30
0.0000000000
10
113.7745985379
20
107.9950508075
30
0.0000000000
10
113.5649804658
20
107.9625350181
30
0.0000000000
10
113.2820067929
20
107.8208345859
30
0.0000000000
10
113.0568568205
20
107.5997187307
30
0.0000000000
10
112.9121450791
20
107.3210261847
30
0.0000000000
10
112.8788461538
20
107.1139585149
30
0.0000000000
10
112.8788461538
20
107.0113234720
30
0.0000000000
11
113.8788461538
21
107.9950508090
31
0.0000000000
11
113.5698315516
21
107.9469045270
31
0.0000000000
11
113.2910637390
21
107.8071776279
31
0.0000000000
11
113.0698310289
21
107.5895464186
31
0.0000000000
11
112.9277902148
21
107.3153136811
31
0.0000000000
11
112.8788461538
21
107.0113234720
31
0.0000000000
0
SPLINE
5
438
100
AcDbEntity
8
0
100
AcDbSpline
62
7
6
CONTINUOUS
70
0
71
3
72
12
73
8
74
6
42
0.0000001000
43
0.0000001000
44
0.0000000001
12
0.0218200776
22
1.0000000000
32
0.0000000000
13
0.0218200776
23
1.0000000000
33
0.0000000000
40
0.0000000000
40
0.0000000000
40
0.0000000000
40
0.0000000000
40
0.3089776046
40
0.5877340598
40
0.8089800211
40
0.9510437757
40
1.0000000000
40
1.0000000000
40
1.0000000000
40
1.0000000000
10
176.5070260762
20
115.8292899321
30
0.0000000000
10
176.5092733813
20
115.9322824670
30
0.0000000000
10
176.5135481823
20
116.1281938202
30
0.0000000000
10
176.5194321845
20
116.3978538273
30
0.0000000000
10
176.5241021624
20
116.6118758843
30
0.0000000000
10
176.5271007207
20
116.7492978644
30
0.0000000000
10
176.5284900776
20
116.8129711907
30
0.0000000000
10
176.5288461538
20
116.8292899321
30
0.0000000000
11
176.5070260762
21
115.8292899321
31
0.0000000000
11
176.5137679915
21
116.1382675367
31
0.0000000000
11
176.5198504790
21
116.4170239919
31
0.0000000000
11
176.5246780831
21
116.6382699532
31
0.0000000000
11
176.5277779252
21
116.7803337078
31
0.0000000000
11
176.5288461538
21
116.8292899321
31
0.0000000000
0
SPLINE
5
439
100
AcDbEntity
8
0
100
AcDbSpline
62
9
6
CONTINUOUS
70
0
71
3
72
12
73
8
74
6
42
0.0000001000
43
0.0000001000
44
0.0000000001
12
1.5516427145
22
-0.0000000072
32
0.0000000000
13
0.0000000079
23
-1.5516427145
33
0.0000000000
40
0.0000000000
40
0.0000000000
40
0.0000000000
40
0.0000000000
40
0.2015496081
40
0.4025096627
40
0.6025119692
40
0.8015529382
40
1.0000000000
40
1.0000000000
40
1.0000000000
40
1.0000000000
10
207.1788461538
20
109.8145519042
30
0.0000000000
10
207.2830904809
20
109.8145519037
30
0.0000000000
10
207.4927027211
20
109.7820380645
30
0.0000000000
10
207.7756723349
20
109.6403444743
30
0.0000000000
10
208.0008253768
20
109.4192337677
30
0.0000000000
10
208.1455446400
20
109.1405384385
30
0.0000000000
10
208.1788461533
20
108.9334642166
30
0.0000000000
10
208.1788461538
20
108.8308245707
30
0.0000000000
11
207.1788461538
21
109.8145519042
31
0.0000000000
11
207.4878512444
21
109.7664086651
31
0.0000000000
11
207.7666144927
21
109.6266887877
31
0.0000000000
11
207.9878498069
21
109.4090630505
31
0.0000000000
11
208.1298977059
21
109.1348280601
31
0.0000000000
11
208.1788461538
21
108.8308245707
31
0.0000000000
0
SPLINE
5
43A
100
AcDbEntity
8
0
100
AcDbSpline
62
9
6
CONTINUOUS
70
0
71
3
72
12
73
8
74
6
42
0.0000001000
43
0.0000001000
44
0.0000000001
12
0.0260337383
22
0.2469721097
32
0.0000000000
13
0.2124043143
23
0.1291053742
33
0.0000000000
40
0.0000000000
40
0.0000000000
40
0.0000000000
40
0.0000000000
40
0.1784988168
40
0.3816019256
40
0.6112149391
40
0.8650083450
40
1.0000000000
40
1.0000000000
40
1.0000000000
40
1.0000000000
10
114.2695494770
20
93.6461246856
30
0.0000000000
10
114.2710984742
20
93.6608194287
30
0.0000000000
10
114.2785917173
20
93.6920001673
30
0.0000000000
10
114.3040817412
20
93.7362749512
30
0.0000000000
10
114.3412575640
20
93.7795841051
30
0.0000000000
10
114.3807728695
20
93.8124811735
30
0.0000000000
10
114.4076802096
20
93.8302312095
30
0.0000000000
10
114.4172378129
20
93.8360405922
30
0.0000000000
11
114.2695494770
21
93.6461246856
31
0.0000000000
11
114.2799511116
21
93.6892155176
31
0.0000000000
11
114.3041628523
21
93.7334631820
31
0.0000000000
11
114.3410112508
21
93.7769801521
31
0.0000000000
11
114.3892438469
21
93.8175515783
31
0.0000000000
11
114.4172378129
21
93.8360405922
31
0.0000000000
0
SPLINE
5
43B
100
AcDbEntity
8
0
100
AcDbSpline
62
9
6
CONTINUOUS
70
0
71
3
72
11
73
7
74
5
42
0.0000001000
43
0.0000001000
44
0.0000000001
12
0.2276980574
22
0.1384013456
32
0.0000000000
13
0.2662216983
23
0.0000346004
33
0.0000000000
40
0.0000000000
40
0.0000000000
40
0.0000000000
40
0.0000000000
40
0.1305031494
40
0.4041623705
40
0.6938050777
40
1.0000000000
40
1.0000000000
40
1.0000000000
40
1.0000000000
10
114.4172378129
20
93.8360405922
30
0.0000000000
10
114.4271429175
20
93.8420611960
30
0.0000000000
10
114.4585337084
20
93.8595303060
30
0.0000000000
10
114.5156020961
20
93.8832610985
30
0.0000000000
10
114.5908131725
20
93.9017782787
30
0.0000000000
10
114.6437950938
20
93.9060813199
30
0.0000000000
10
114.6709670046
20
93.9060848514
30
0.0000000000
11
114.4172378129
21
93.8360405922
31
0.0000000000
11
114.4476081805
21
93.8529626109
31
0.0000000000
11
114.5148517915
21
93.8809984003
31
0.0000000000
11
114.5897222195
21
93.8994440970
31
0.0000000000
11
114.6709670046
21
93.9060848514
31
0.0000000000
0
SPLINE
5
43C
100
AcDbEntity
8
0
100
AcDbSpline
62
9
6
CONTINUOUS
70
0
71
3
72
12
73
8
74
6
42
0.0000001000
43
0.0000001000
44
0.0000000001
12
1.5516427265
22
0.0000000000
32
0.0000000000
13
0.0000000000
23
-1.5516427265
33
0.0000000000
40
0.0000000000
40
0.0000000000
40
0.0000000000
40
0.0000000000
40
0.2015575643
40
0.4025228957
40
0.6025262600
40
0.8015630079
40
1.0000000000
40
1.0000000000
40
1.0000000000
40
1.0000000000
10
207.1788461538
20
107.9950508090
30
0.0000000000
10
207.2830945967
20
107.9950508090
30
0.0000000000
10
207.4927138513
20
107.9625345753
30
0.0000000000
10
207.7756880674
20
107.8208328135
30
0.0000000000
10
208.0008371325
20
107.5997163680
30
0.0000000000
10
208.1455476008
20
107.3210245202
30
0.0000000000
10
208.1788461538
20
107.1139579101
30
0.0000000000
10
208.1788461538
20
107.0113234716
30
0.0000000000
11
207.1788461538
21
107.9950508090
31
0.0000000000
11
207.4878631482
21
107.9469037662
31
0.0000000000
11
207.7666314061
21
107.8071756055
31
0.0000000000
11
207.9878631482
21
107.5895438930
31
0.0000000000
11
208.1299026701
21
107.3153119369
31
0.0000000000
11
208.1788461538
21
107.0113234716
31
0.0000000000
0
SPLINE
5
43D
100
AcDbEntity
8
0
100
AcDbSpline
62
7
6
CONTINUOUS
70
0
71
3
72
19
73
15
74
13
42
0.0000001000
43
0.0000001000
44
0.0000000001
12
-0.0279575619
22
-1.8496104551
32
0.0000000000
13
0.0882871530
23
-1.8477136790
33
0.0000000000
40
0.0000000000
40
0.0000000000
40
0.0000000000
40
0.0000000000
40
0.0641527574
40
0.1449184679
40
0.2389737614
40
0.3424513712
40
0.4510873625
40
0.5604234978
40
0.6659677215
40
0.7633836801
40
0.8486726019
40
0.9183196155
40
0.9694621542
40
1.0000000000
40
1.0000000000
40
1.0000000000
40
1.0000000000
10
118.7434656864
20
92.7438412240
30
0.0000000000
10
118.7428678349
20
92.7042886871
30
0.0000000000
10
118.7418503920
20
92.6149361977
30
0.0000000000
10
118.7407096485
20
92.4675875438
30
0.0000000000
10
118.7398380866
20
92.2959886233
30
0.0000000000
10
118.7392747967
20
92.1072033971
30
0.0000000000
10
118.7390479828
20
91.9089951896
30
0.0000000000
10
118.7391670889
20
91.7095125717
30
0.0000000000
10
118.7396287706
20
91.5169489314
30
0.0000000000
10
118.7404044857
20
91.3392137065
30
0.0000000000
10
118.7414781416
20
91.1836160644
30
0.0000000000
10
118.7427291653
20
91.0565501723
30
0.0000000000
10
118.7442317867
20
90.9632568515
30
0.0000000000
10
118.7453624832
20
90.9128968813
30
0.0000000000
10
118.7462611830
20
90.8940884828
30
0.0000000000
11
118.7434656864
21
92.7438412240
31
0.0000000000
11
118.7420308494
21
92.6251787334
31
0.0000000000
11
118.7408343455
21
92.4757813577
31
0.0000000000
11
118.7399254542
21
92.3017982053
31
0.0000000000
11
118.7393415424
21
92.1103839639
31
0.0000000000
11
118.7391066138
21
91.9094268831
31
0.0000000000
11
118.7392302476
21
91.7071745610
31
0.0000000000
11
118.7397073512
21
91.5119371448
31
0.0000000000
11
118.7405183293
21
91.3317368118
31
0.0000000000
11
118.7416299533
21
91.1739714265
31
0.0000000000
11
118.7429964694
21
91.0451441141
31
0.0000000000
11
118.7445616954
21
90.9505524835
31
0.0000000000
11
118.7462611830
21
90.8940884828
31
0.0000000000
0
SPLINE
5
43E
100
AcDbEntity
8
0
100
AcDbSpline
62
7
6
CONTINUOUS
70
0
71
3
72
19
73
15
74
13
42
0.0000001000
43
0.0000001000
44
0.0000000001
12
0.0882871530
22
1.8477136790
32
0.0000000000
13
-0.0279575619
23
1.8496104551
33
0.0000000000
40
0.0000000000
40
0.0000000000
40
0.0000000000
40
0.0000000000
40
0.0305378459
40
0.0816803717
40
0.1513273648
40
0.2366162812
40
0.3340322725
40
0.4395765616
40
0.5489127689
40
0.6575487910
40
0.7610263697
40
0.8550815989
40
0.9358472583
40
1.0000000000
40
1.0000000000
40
1.0000000000
40
1.0000000000
10
202.3114311247
20
90.8940884828
30
0.0000000000
10
202.3123298245
20
90.9128968814
30
0.0000000000
10
202.3134605208
20
90.9632568437
30
0.0000000000
10
202.3149631420
20
91.0565501440
30
0.0000000000
10
202.3162141657
20
91.1836160121
30
0.0000000000
10
202.3172878218
20
91.3392136584
30
0.0000000000
10
202.3180635372
20
91.5169489404
30
0.0000000000
10
202.3185252190
20
91.7095126857
30
0.0000000000
10
202.3186443249
20
91.9089954072
30
0.0000000000
10
202.3184175105
20
92.1072036589
30
0.0000000000
10
202.3178542201
20
92.2959888453
30
0.0000000000
10
202.3169826583
20
92.4675876755
30
0.0000000000
10
202.3158419151
20
92.6149362486
30
0.0000000000
10
202.3148244727
20
92.7042886968
30
0.0000000000
10
202.3142266212
20
92.7438412240
30
0.0000000000
11
202.3114311247
21
90.8940884828
31
0.0000000000
11
202.3131306123
21
90.9505524837
31
0.0000000000
11
202.3146958380
21
91.0451440904
31
0.0000000000
11
202.3160623539
21
91.1739713649
31
0.0000000000
11
202.3171739780
21
91.3317367402
31
0.0000000000
11
202.3179849564
21
91.5119371337
31
0.0000000000
11
202.3184620603
21
91.7071746709
31
0.0000000000
11
202.3185856938
21
91.9094271262
31
0.0000000000
11
202.3183507647
21
92.1103842639
31
0.0000000000
11
202.3177668525
21
92.3017984478
31
0.0000000000
11
202.3168579614
21
92.4757814812
31
0.0000000000
11
202.3156614580
21
92.6251787625
31
0.0000000000
11
202.3142266212
21
92.7438412240
31
0.0000000000
0
SPLINE
5
43F
100
AcDbEntity
8
0
100
AcDbSpline
62
9
6
CONTINUOUS
70
0
71
3
72
12
73
8
74
6
42
0.0000001000
43
0.0000001000
44
0.0000000001
12
0.0008763729
22
0.2479035546
32
0.0000000000
13
-0.2133609488
23
0.1266552322
33
0.0000000000
40
0.0000000000
40
0.0000000000
40
0.0000000000
40
0.0000000000
40
0.1761150545
40
0.3764679819
40
0.6059230084
40
0.8626148715
40
1.0000000000
40
1.0000000000
40
1.0000000000
40
1.0000000000
10
206.7881183060
20
93.6461084264
30
0.0000000000
10
206.7881697534
20
93.6606616091
30
0.0000000000
10
206.7831670667
20
93.6920701636
30
0.0000000000
10
206.7588699600
20
93.7366018231
30
0.0000000000
10
206.7217328183
20
93.7798564232
30
0.0000000000
10
206.6816212868
20
93.8125866886
30
0.0000000000
10
206.6542071909
20
93.8302567103
30
0.0000000000
10
206.6444363172
20
93.8360568921
30
0.0000000000
11
206.7881183060
21
93.6461084264
31
0.0000000000
11
206.7812802538
21
93.6892294306
31
0.0000000000
11
206.7587297021
21
93.7334836261
31
0.0000000000
11
206.7220979801
21
93.7770014482
31
0.0000000000
11
206.6730709018
21
93.8175697510
31
0.0000000000
11
206.6444363172
21
93.8360568921
31
0.0000000000
0
SPLINE
5
440
100
AcDbEntity
8
0
100
AcDbSpline
62
9
6
CONTINUOUS
70
0
71
3
72
11
73
7
74
5
42
0.0000001000
43
0.0000001000
44
0.0000000001
12
-0.2323396719
22
0.1379213735
32
0.0000000000
13
-0.2699565702
23
0.0000350856
33
0.0000000000
40
0.0000000000
40
0.0000000000
40
0.0000000000
40
0.0000000000
40
0.1310666864
40
0.4061257497
40
0.6961752743
40
1.0000000000
40
1.0000000000
40
1.0000000000
40
1.0000000000
10
206.6444363172
20
93.8360568921
30
0.0000000000
10
206.6342856535
20
93.8420825246
30
0.0000000000
10
206.6021181874
20
93.8595496541
30
0.0000000000
10
206.5438677751
20
93.8832163202
30
0.0000000000
10
206.4676048285
20
93.9017126528
30
0.0000000000
10
206.4140651301
20
93.9060812981
30
0.0000000000
10
206.3867253031
20
93.9060848514
30
0.0000000000
11
206.6444363172
21
93.8360568921
31
0.0000000000
11
206.6133342811
21
93.8529753886
31
0.0000000000
11
206.5445739318
21
93.8810052151
31
0.0000000000
11
206.4684756679
21
93.8994460847
31
0.0000000000
11
206.3867253031
21
93.9060848514
31
0.0000000000
0
SPLINE
5
441
100
AcDbEntity
8
0
100
AcDbSpline
62
9
6
CONTINUOUS
70
0
71
3
72
16
73
12
74
10
42
0.0000001000
43
0.0000001000
44
0.0000000001
12
3.7124200854
22
0.0789332387
32
0.0000000000
13
0.0028283282
23
3.7131277683
33
0.0000000000
40
0.0000000000
40
0.0000000000
40
0.0000000000
40
0.0000000000
40
0.0108809466
40
0.1603915578
40
0.3202747034
40
0.4826499719
40
0.6378673165
40
0.7751635243
40
0.8835832667
40
0.9568382392
40
1.0000000000
40
1.0000000000
40
1.0000000000
40
1.0000000000
10
203.6334108071
20
107.2692109506
30
0.0000000000
10
203.6468756886
20
107.2694972401
30
0.0000000000
10
203.8453521906
20
107.2738973138
30
0.0000000000
10
204.2415538900
20
107.2879415832
30
0.0000000000
10
204.8243438423
20
107.3256898342
30
0.0000000000
10
205.4125530391
20
107.3843924462
30
0.0000000000
10
205.9698475485
20
107.4663924219
30
0.0000000000
10
206.4560625143
20
107.5671434792
30
0.0000000000
10
206.8330291829
20
107.6906679161
30
0.0000000000
10
207.0832619246
20
107.8101723081
30
0.0000000000
10
207.1788054620
20
107.9416290982
30
0.0000000000
10
207.1788461538
20
107.9950508090
30
0.0000000000
11
203.6334108071
21
107.2692109506
31
0.0000000000
11
203.6738046575
21
107.2701063599
31
0.0000000000
11
204.2285966884
21
107.2900995256
31
0.0000000000
11
204.8209943832
21
107.3288957319
31
0.0000000000
11
205.4208071494
21
107.3900310379
31
0.0000000000
11
205.9907806282
21
107.4754730271
31
0.0000000000
11
206.4887117579
21
107.5848307460
31
0.0000000000
11
206.8701317797
21
107.7136196567
31
0.0000000000
11
207.1032828042
21
107.8537174873
31
0.0000000000
11
207.1788461538
21
107.9950508090
31
0.0000000000
0
SPLINE
5
442
100
AcDbEntity
8
0
100
AcDbSpline
62
9
6
CONTINUOUS
70
0
71
3
72
16
73
12
74
10
42
0.0000001000
43
0.0000001000
44
0.0000000001
12
4.3417709365
22
0.1030125044
32
0.0000000000
13
0.0018882683
23
4.3429290715
33
0.0000000000
40
0.0000000000
40
0.0000000000
40
0.0000000000
40
0.0000000000
40
0.0843360181
40
0.2362166893
40
0.3923841381
40
0.5456699939
40
0.6878734193
40
0.8100183502
40
0.9040048176
40
0.9657455367
40
1.0000000000
40
1.0000000000
40
1.0000000000
40
1.0000000000
10
203.9802682982
20
106.2902090594
30
0.0000000000
10
204.1023241889
20
106.2931049475
30
0.0000000000
10
204.4441448893
20
106.3031200694
30
0.0000000000
10
205.0116334834
20
106.3289309777
30
0.0000000000
10
205.6779582677
20
106.3753034654
30
0.0000000000
10
206.3286937126
20
106.4396283229
30
0.0000000000
10
206.9278725179
20
106.5232496867
30
0.0000000000
10
207.4371958328
20
106.6198932387
30
0.0000000000
10
207.8255279677
20
106.7360204447
30
0.0000000000
10
208.0754835878
20
106.8403567175
30
0.0000000000
10
208.1788245933
20
106.9617352368
30
0.0000000000
10
208.1788461538
20
107.0113234716
30
0.0000000000
11
203.9802682982
21
106.2902090594
31
0.0000000000
11
204.3463791628
21
106.3009603391
31
0.0000000000
11
205.0052903624
21
106.3312503420
31
0.0000000000
11
205.6818389835
21
106.3788954128
31
0.0000000000
11
206.3441777850
21
106.4458033084
31
0.0000000000
11
206.9556302202
21
106.5325805807
31
0.0000000000
11
207.4755735021
21
106.6377187392
31
0.0000000000
11
207.8659499028
21
106.7569429090
31
0.0000000000
11
208.1021498677
21
106.8838533921
31
0.0000000000
11
208.1788461538
21
107.0113234716
31
0.0000000000
0
SPLINE
5
443
100
AcDbEntity
8
0
100
AcDbSpline
62
7
6
CONTINUOUS
70
0
71
3
72
9
73
5
74
3
42
0.0000001000
43
0.0000001000
44
0.0000000001
12
-0.0004052635
22
0.0268113377
32
0.0000000000
13
-0.0019420395
23
0.0001308815
33
0.0000000000
40
0.0000000000
40
0.0000000000
40
0.0000000000
40
0.0000000000
40
0.7452888883
40
1.0000000000
40
1.0000000000
40
1.0000000000
40
1.0000000000
10
202.2966588690
20
93.9060848514
30
0.0000000000
10
202.2965581896
20
93.9127455821
30
0.0000000000
10
202.2966028568
20
93.9183869400
30
0.0000000000
10
202.2959510687
20
93.9328686587
30
0.0000000000
10
202.2957861824
20
93.9328797711
30
0.0000000000
11
202.2966588690
21
93.9060848514
31
0.0000000000
11
202.2962379196
21
93.9260648921
31
0.0000000000
11
202.2957861824
21
93.9328797711
31
0.0000000000
0
SPLINE
5
444
100
AcDbEntity
8
0
100
AcDbSpline
62
9
6
CONTINUOUS
70
0
71
3
72
12
73
8
74
6
42
0.0000001000
43
0.0000001000
44
0.0000000001
12
-0.0008763729
22
-0.2479035546
32
0.0000000000
13
0.2133609488
23
-0.1266552322
33
0.0000000000
40
0.0000000000
40
0.0000000000
40
0.0000000000
40
0.0000000000
40
0.1761150545
40
0.3764679820
40
0.6059230085
40
0.8626148715
40
1.0000000000
40
1.0000000000
40
1.0000000000
40
1.0000000000
10
114.2695740017
20
104.5124714378
30
0.0000000000
10
114.2695225543
20
104.4979182551
30
0.0000000000
10
114.2745252410
20
104.4665097006
30
0.0000000000
10
114.2988223477
20
104.4219780411
30
0.0000000000
10
114.3359594894
20
104.3787234411
30
0.0000000000
10
114.3760710209
20
104.3459931756
30
0.0000000000
10
114.4034851167
20
104.3283231539
30
0.0000000000
10
114.4132559905
20
104.3225229722
30
0.0000000000
11
114.2695740017
21
104.5124714378
31
0.0000000000
11
114.2764120539
21
104.4693504337
31
0.0000000000
11
114.2989626056
21
104.4250962381
31
0.0000000000
11
114.3355943276
21
104.3815784160
31
0.0000000000
11
114.3846214058
21
104.3410101132
31
0.0000000000
11
114.4132559905
21
104.3225229722
31
0.0000000000
0
SPLINE
5
445
100
AcDbEntity
8
0
100
AcDbSpline
62
9
6
CONTINUOUS
70
0
71
3
72
11
73
7
74
5
42
0.0000001000
43
0.0000001000
44
0.0000000001
12
0.2323396719
22
-0.1379213735
32
0.0000000000
13
0.2699565702
23
-0.0000350856
33
0.0000000000
40
0.0000000000
40
0.0000000000
40
0.0000000000
40
0.0000000000
40
0.1310666864
40
0.4061257497
40
0.6961752743
40
1.0000000000
40
1.0000000000
40
1.0000000000
40
1.0000000000
10
114.4132559905
20
104.3225229722
30
0.0000000000
10
114.4234066542
20
104.3164973397
30
0.0000000000
10
114.4555741203
20
104.2990302102
30
0.0000000000
10
114.5138245326
20
104.2753635441
30
0.0000000000
10
114.5900874792
20
104.2568672115
30
0.0000000000
10
114.6436271776
20
104.2524985662
30
0.0000000000
10
114.6709670046
20
104.2524950129
30
0.0000000000
11
114.4132559905
21
104.3225229722
31
0.0000000000
11
114.4443580266
21
104.3056044756
31
0.0000000000
11
114.5131183759
21
104.2775746491
31
0.0000000000
11
114.5892166398
21
104.2591337796
31
0.0000000000
11
114.6709670046
21
104.2524950129
31
0.0000000000
0
SPLINE
5
446
100
AcDbEntity
8
0
100
AcDbSpline
62
9
6
CONTINUOUS
70
0
71
3
72
12
73
8
74
6
42
0.0000001000
43
0.0000001000
44
0.0000000001
12
-0.0260337383
22
-0.2469721097
32
0.0000000000
13
-0.2124043143
23
-0.1291053742
33
0.0000000000
40
0.0000000000
40
0.0000000000
40
0.0000000000
40
0.0000000000
40
0.1784988167
40
0.3816019256
40
0.6112149391
40
0.8650083450
40
1.0000000000
40
1.0000000000
40
1.0000000000
40
1.0000000000
10
206.7881428307
20
104.5124551787
30
0.0000000000
10
206.7865938335
20
104.4977604356
30
0.0000000000
10
206.7791005904
20
104.4665796969
30
0.0000000000
10
206.7536105665
20
104.4223049130
30
0.0000000000
10
206.7164347437
20
104.3789957591
30
0.0000000000
10
206.6769194382
20
104.3460986907
30
0.0000000000
10
206.6500120981
20
104.3283486547
30
0.0000000000
10
206.6404544948
20
104.3225392720
30
0.0000000000
11
206.7881428307
21
104.5124551787
31
0.0000000000
11
206.7777411961
21
104.4693643466
31
0.0000000000
11
206.7535294554
21
104.4251166822
31
0.0000000000
11
206.7166810569
21
104.3815997121
31
0.0000000000
11
206.6684484608
21
104.3410282860
31
0.0000000000
11
206.6404544948
21
104.3225392720
31
0.0000000000
0
SPLINE
5
447
100
AcDbEntity
8
0
100
AcDbSpline
62
9
6
CONTINUOUS
70
0
71
3
72
11
73
7
74
5
42
0.0000001000
43
0.0000001000
44
0.0000000001
12
-0.2276980574
22
-0.1384013456
32
0.0000000000
13
-0.2662216983
23
-0.0000346004
33
0.0000000000
40
0.0000000000
40
0.0000000000
40
0.0000000000
40
0.0000000000
40
0.1305031494
40
0.4041623705
40
0.6938050777
40
1.0000000000
40
1.0000000000
40
1.0000000000
40
1.0000000000
10
206.6404544948
20
104.3225392720
30
0.0000000000
10
206.6305493902
20
104.3165186682
30
0.0000000000
10
206.5991585993
20
104.2990495582
30
0.0000000000
10
206.5420902116
20
104.2753187657
30
0.0000000000
10
206.4668791352
20
104.2568015855
30
0.0000000000
10
206.4138972139
20
104.2524985444
30
0.0000000000
10
206.3867253031
20
104.2524950129
30
0.0000000000
11
206.6404544948
21
104.3225392720
31
0.0000000000
11
206.6100841272
21
104.3056172534
31
0.0000000000
11
206.5428405162
21
104.2775814639
31
0.0000000000
11
206.4679700882
21
104.2591357672
31
0.0000000000
11
206.3867253031
21
104.2524950129
31
0.0000000000
0
SPLINE
5
448
100
AcDbEntity
8
0
100
AcDbSpline
62
7
6
CONTINUOUS
70
0
71
3
72
10
73
6
74
4
42
0.0000001000
43
0.0000001000
44
0.0000000001
12
0.0983243577
22
0.0000000000
32
0.0000000000
13
0.0328373144
23
-0.0926789625
33
0.0000000000
40
0.0000000000
40
0.0000000000
40
0.0000000000
40
0.0000000000
40
0.2131189771
40
0.5352083379
40
1.0000000000
40
1.0000000000
40
1.0000000000
40
1.0000000000
10
201.0142727785
20
114.5792899321
30
0.0000000000
10
201.0212577074
20
114.5792899321
30
0.0000000000
10
201.0380037507
20
114.5696209715
30
0.0000000000
10
201.0552681379
20
114.5415458362
30
0.0000000000
10
201.0652455655
20
114.5176617931
30
0.0000000000
10
201.0703330688
20
114.5033029901
30
0.0000000000
11
201.0142727785
21
114.5792899321
31
0.0000000000
11
201.0334040302
21
114.5707401784
31
0.0000000000
11
201.0522000319
21
114.5452519376
31
0.0000000000
11
201.0703330688
21
114.5033029901
31
0.0000000000
0
SPLINE
5
449
100
AcDbEntity
8
0
100
AcDbSpline
62
7
6
CONTINUOUS
70
0
71
3
72
10
73
6
74
4
42
0.0000001000
43
0.0000001000
44
0.0000000001
12
-0.0983243577
22
0.0000000000
32
0.0000000000
13
-0.0328373144
23
-0.0926789625
33
0.0000000000
40
0.0000000000
40
0.0000000000
40
0.0000000000
40
0.0000000000
40
0.2131189771
40
0.5352083379
40
1.0000000000
40
1.0000000000
40
1.0000000000
40
1.0000000000
10
120.0439119107
20
114.5792899321
30
0.0000000000
10
120.0369269819
20
114.5792899321
30
0.0000000000
10
120.0201809386
20
114.5696209715
30
0.0000000000
10
120.0029165514
20
114.5415458362
30
0.0000000000
10
119.9929391238
20
114.5176617931
30
0.0000000000
10
119.9878516205
20
114.5033029901
30
0.0000000000
11
120.0439119107
21
114.5792899321
31
0.0000000000
11
120.0247806591
21
114.5707401784
31
0.0000000000
11
120.0059846574
21
114.5452519376
31
0.0000000000
11
119.9878516205
21
114.5033029901
31
0.0000000000
0
SPLINE
5
44A
100
AcDbEntity
8
0
100
AcDbSpline
62
7
6
CONTINUOUS
70
0
71
3
72
18
73
14
74
12
42
0.0000001000
43
0.0000001000
44
0.0000000001
12
-5.8711788748
22
0.6210149228
32
0.0000000000
13
2.0588019923
23
5.8106954290
33
0.0000000000
40
0.0000000000
40
0.0000000000
40
0.0000000000
40
0.0000000000
40
0.0163240898
40
0.0619475325
40
0.1354710268
40
0.2330356138
40
0.3485930575
40
0.4749446931
40
0.6043117421
40
0.7287694543
40
0.8406360918
40
0.9329294728
40
1.0000000000
40
1.0000000000
40
1.0000000000
40
1.0000000000
10
116.8466083884
20
99.0811273881
30
0.0000000000
10
116.8146611713
20
99.0845065559
30
0.0000000000
10
116.6915630287
20
99.1879633533
30
0.0000000000
10
116.6338434631
20
99.4509644275
30
0.0000000000
10
116.5250817562
20
99.8884068712
30
0.0000000000
10
116.4599251315
20
100.4730390945
30
0.0000000000
10
116.4062450831
20
101.1690577210
30
0.0000000000
10
116.3824925975
20
101.9317481993
30
0.0000000000
10
116.3856130694
20
102.7131558831
30
0.0000000000
10
116.4168910813
20
103.4640847811
30
0.0000000000
10
116.4733397140
20
104.1374424951
30
0.0000000000
10
116.5516351287
20
104.6891590482
30
0.0000000000
10
116.6242636449
20
105.0100222627
30
0.0000000000
10
116.6702919566
20
105.1399310646
30
0.0000000000
11
116.8466083884
21
99.0811273881
31
0.0000000000
11
116.7564999719
21
99.1401984269
31
0.0000000000
11
116.6444063626
21
99.3981478263
31
0.0000000000
11
116.5458225286
21
99.8405428736
31
0.0000000000
11
116.4671048854
21
100.4368203940
31
0.0000000000
11
116.4131491862
21
101.1471447328
31
0.0000000000
11
116.3871919691
21
101.9256250699
31
0.0000000000
11
116.3907516396
21
102.7231190475
31
0.0000000000
11
116.4236208694
21
103.4896522520
31
0.0000000000
11
116.4838668780
21
104.1766337227
31
0.0000000000
11
116.5678462484
21
104.7393577286
31
0.0000000000
11
116.6702919566
21
105.1399310646
31
0.0000000000
0
SPLINE
5
44B
100
AcDbEntity
8
0
100
AcDbSpline
62
7
6
CONTINUOUS
70
0
71
3
72
18
73
14
74
12
42
0.0000001000
43
0.0000001000
44
0.0000000001
12
1.9613244839
22
-5.5355780965
32
0.0000000000
13
-6.0544807129
23
-0.6179629290
33
0.0000000000
40
0.0000000000
40
0.0000000000
40
0.0000000000
40
0.0000000000
40
0.0683228888
40
0.1625919118
40
0.2768455979
40
0.4037274108
40
0.5351655487
40
0.6628501677
40
0.7786514939
40
0.8751149738
40
0.9461025922
40
0.9880655303
40
1.0000000000
40
1.0000000000
40
1.0000000000
40
1.0000000000
10
204.4390402863
20
83.4728733018
30
0.0000000000
10
204.4837080711
20
83.3468044063
30
0.0000000000
10
204.5537799070
20
83.0347916538
30
0.0000000000
10
204.6289674199
20
82.4981946077
30
0.0000000000
10
204.6825522414
20
81.8433729077
30
0.0000000000
10
204.7113261271
20
81.1143852187
30
0.0000000000
10
204.7123447893
20
80.3588803231
30
0.0000000000
10
204.6872330181
20
79.6240698765
30
0.0000000000
10
204.6324979711
20
78.9640106269
30
0.0000000000
10
204.5684700061
20
78.4036382062
30
0.0000000000
10
204.4601454800
20
78.0266460689
30
0.0000000000
10
204.4063057300
20
77.7554186443
30
0.0000000000
10
204.2936294984
20
77.7159055756
30
0.0000000000
10
204.2695438262
20
77.7134472223
30
0.0000000000
11
204.4390402863
21
83.4728733018
31
0.0000000000
11
204.5380221311
21
83.0840291285
31
0.0000000000
11
204.6187742045
21
82.5363298956
31
0.0000000000
11
204.6760668835
21
81.8677948288
31
0.0000000000
11
204.7063255831
21
81.1232618417
31
0.0000000000
11
204.7077132387
21
80.3513572347
31
0.0000000000
11
204.6801409496
21
79.6020020169
31
0.0000000000
11
204.6252756970
21
78.9241442999
31
0.0000000000
11
204.5465278087
21
78.3631364476
31
0.0000000000
11
204.4489757428
21
77.9578166727
31
0.0000000000
11
204.3391438115
21
77.7372062557
31
0.0000000000
11
204.2695438262
21
77.7134472223
31
0.0000000000
0
SPLINE
5
44C
100
AcDbEntity
8
0
100
AcDbSpline
62
7
6
CONTINUOUS
70
0
71
3
72
18
73
14
74
12
42
0.0000001000
43
0.0000001000
44
0.0000000001
12
5.8711788748
22
0.6210149228
32
0.0000000000
13
-2.0588019923
23
5.8106954290
33
0.0000000000
40
0.0000000000
40
0.0000000000
40
0.0000000000
40
0.0000000000
40
0.0163240898
40
0.0619475325
40
0.1354710268
40
0.2330356138
40
0.3485930575
40
0.4749446931
40
0.6043117421
40
0.7287694543
40
0.8406360918
40
0.9329294728
40
1.0000000000
40
1.0000000000
40
1.0000000000
40
1.0000000000
10
204.2115763009
20
99.0811273881
30
0.0000000000
10
204.2435235180
20
99.0845065559
30
0.0000000000
10
204.3666216606
20
99.1879633533
30
0.0000000000
10
204.4243412262
20
99.4509644275
30
0.0000000000
10
204.5331029331
20
99.8884068712
30
0.0000000000
10
204.5982595578
20
100.4730390945
30
0.0000000000
10
204.6519396062
20
101.1690577210
30
0.0000000000
10
204.6756920918
20
101.9317481993
30
0.0000000000
10
204.6725716199
20
102.7131558831
30
0.0000000000
10
204.6412936080
20
103.4640847811
30
0.0000000000
10
204.5848449753
20
104.1374424951
30
0.0000000000
10
204.5065495606
20
104.6891590482
30
0.0000000000
10
204.4339210443
20
105.0100222627
30
0.0000000000
10
204.3878927327
20
105.1399310646
30
0.0000000000
11
204.2115763009
21
99.0811273881
31
0.0000000000
11
204.3016847173
21
99.1401984269
31
0.0000000000
11
204.4137783266
21
99.3981478263
31
0.0000000000
11
204.5123621607
21
99.8405428736
31
0.0000000000
11
204.5910798039
21
100.4368203940
31
0.0000000000
11
204.6450355030
21
101.1471447328
31
0.0000000000
11
204.6709927202
21
101.9256250699
31
0.0000000000
11
204.6674330496
21
102.7231190475
31
0.0000000000
11
204.6345638198
21
103.4896522520
31
0.0000000000
11
204.5743178113
21
104.1766337227
31
0.0000000000
11
204.4903384408
21
104.7393577286
31
0.0000000000
11
204.3878927327
21
105.1399310646
31
0.0000000000
0
SPLINE
5
44D
100
AcDbEntity
8
0
100
AcDbSpline
62
7
6
CONTINUOUS
70
0
71
3
72
18
73
14
74
12
42
0.0000001000
43
0.0000001000
44
0.0000000001
12
-6.0544808832
22
0.6179625783
32
0.0000000000
13
1.9613244842
23
5.5355780975
33
0.0000000000
40
0.0000000000
40
0.0000000000
40
0.0000000000
40
0.0000000000
40
0.0119344681
40
0.0538974047
40
0.1248850220
40
0.2213485015
40
0.3371498277
40
0.4648344472
40
0.5962725860
40
0.7231543998
40
0.8374080869
40
0.9316771107
40
1.0000000000
40
1.0000000000
40
1.0000000000
40
1.0000000000
10
116.7886408625
20
77.7134472242
30
0.0000000000
10
116.7645551928
20
77.7159055758
30
0.0000000000
10
116.6518789669
20
77.7554186294
30
0.0000000000
10
116.5980392131
20
78.0266460559
30
0.0000000000
10
116.4897146875
20
78.4036381803
30
0.0000000000
10
116.4256867208
20
78.9640106010
30
0.0000000000
10
116.3709516726
20
79.6240698497
30
0.0000000000
10
116.3458399003
20
80.3588802994
30
0.0000000000
10
116.3468585618
20
81.1143851996
30
0.0000000000
10
116.3756324470
20
81.8433728942
30
0.0000000000
10
116.4292172684
20
82.4981945996
30
0.0000000000
10
116.5044047816
20
83.0347916503
30
0.0000000000
10
116.5744766178
20
83.3468044054
30
0.0000000000
10
116.6191444030
20
83.4728733018
30
0.0000000000
11
116.7886408625
21
77.7134472242
31
0.0000000000
11
116.7190408849
21
77.7372062479
31
0.0000000000
11
116.6092089525
21
77.9578166546
31
0.0000000000
11
116.5116568851
21
78.3631364228
31
0.0000000000
11
116.4329089952
21
78.9241442721
31
0.0000000000
11
116.3780437413
21
79.6020019894
31
0.0000000000
11
116.3504714510
21
80.3513572103
31
0.0000000000
11
116.3518591057
21
81.1232618223
31
0.0000000000
11
116.3821178049
21
81.8677948153
31
0.0000000000
11
116.4394104839
21
82.5363298878
31
0.0000000000
11
116.5201625576
21
83.0840291255
31
0.0000000000
11
116.6191444030
21
83.4728733018
31
0.0000000000
0
SPLINE
5
44E
100
AcDbEntity
8
0
100
AcDbSpline
62
7
6
CONTINUOUS
70
0
71
3
72
12
73
8
74
6
42
0.0000001000
43
0.0000001000
44
0.0000000001
12
0.0000000000
22
-2.7935367924
32
0.0000000000
13
-0.9329554559
23
-2.6331429752
33
0.0000000000
40
0.0000000000
40
0.0000000000
40
0.0000000000
40
0.0000000000
40
0.2497637644
40
0.4864433849
40
0.6975200267
40
0.8717228091
40
1.0000000000
40
1.0000000000
40
1.0000000000
40
1.0000000000
10
119.2787616041
20
92.9845833003
30
0.0000000000
10
119.2787616041
20
92.7520085452
30
0.0000000000
10
119.2711491339
20
92.2989891235
30
0.0000000000
10
119.2371692678
20
91.6502623797
30
0.0000000000
10
119.1830440781
20
91.0732891975
30
0.0000000000
10
119.1116951791
20
90.6004544090
30
0.0000000000
10
119.0469862867
20
90.3251348545
30
0.0000000000
10
119.0070939850
20
90.2125441265
30
0.0000000000
11
119.2787616041
21
92.9845833003
31
0.0000000000
11
119.2667039616
21
92.2869632291
31
0.0000000000
11
119.2311293722
21
91.6267477447
31
0.0000000000
11
119.1738326768
21
91.0398877603
31
0.0000000000
11
119.0977905515
21
90.5592237232
31
0.0000000000
11
119.0070939850
21
90.2125441265
31
0.0000000000
0
SPLINE
5
44F
100
AcDbEntity
8
0
100
AcDbSpline
62
7
6
CONTINUOUS
70
0
71
3
72
12
73
8
74
6
42
0.0000001000
43
0.0000001000
44
0.0000000001
12
0.0000000000
22
-2.7935367924
32
0.0000000000
13
0.9329554559
23
-2.6331429752
33
0.0000000000
40
0.0000000000
40
0.0000000000
40
0.0000000000
40
0.0000000000
40
0.2497637644
40
0.4864433849
40
0.6975200267
40
0.8717228091
40
1.0000000000
40
1.0000000000
40
1.0000000000
40
1.0000000000
10
201.7794230852
20
92.9845833003
30
0.0000000000
10
201.7794230852
20
92.7520085452
30
0.0000000000
10
201.7870355554
20
92.2989891235
30
0.0000000000
10
201.8210154215
20
91.6502623797
30
0.0000000000
10
201.8751406112
20
91.0732891975
30
0.0000000000
10
201.9464895101
20
90.6004544090
30
0.0000000000
10
202.0111984026
20
90.3251348545
30
0.0000000000
10
202.0510907043
20
90.2125441265
30
0.0000000000
11
201.7794230852
21
92.9845833003
31
0.0000000000
11
201.7914807277
21
92.2869632291
31
0.0000000000
11
201.8270553171
21
91.6267477447
31
0.0000000000
11
201.8843520125
21
91.0398877603
31
0.0000000000
11
201.9603941378
21
90.5592237232
31
0.0000000000
11
202.0510907043
21
90.2125441265
31
0.0000000000
0
ENDSEC
0
SECTION
2
OBJECTS
0
DICTIONARY
5
450
100
AcDbDictionary
3
ACAD_GROUP
350
451
3
ACAD_MLINESTYLE
350
452
0
DICTIONARY
5
451
102
{ACAD_REACTORS
330
450
102
}
100
AcDbDictionary
0
DICTIONARY
5
452
102
{ACAD_REACTORS
330
450
102
}
100
AcDbDictionary
3
STANDARD
350
453
0
MLINESTYLE
5
453
102
{ACAD_REACTORS
330
452
102
}
100
AcDbMlineStyle
2
STANDARD
70
0
3

62
256
51
90.0
52
90.0
71
2
49
0.5
62
256
6
BYLAYER
49
-0.5
62
256
6
BYLAYER
0
ENDSEC
0
EOF
