999
DXF file: 1221.dxf
999
Pro/ENGINEER 2005310 by Parametric Technology Corporation
0
SECTION
2
HEADER
9
$ACADVER
1
AC1015
9
$DWGCODEPAGE
3
ANSI_1252
9
$EXTMAX
10
210.0000000000
20
297.0000000000
30
0.0000000000
9
$EXTMIN
10
0.0000000000
20
0.0000000000
30
0.0000000000
9
$LIMMIN
10
0.0000000000
20
0.0000000000
9
$LIMMAX
10
210.0000000000
20
297.0000000000
9
$VIEWCTR
10
105.0000000000
20
148.5000000000
9
$VIEWSIZE
40
297.0000000000
9
$CLAYER
8
0
9
$LTSCALE
40
19.3600000000
9
$CELTYPE
6
BYLAYER
9
$DIMSCALE
40
1
9
$DIMASZ
40
3.5000000000
9
$DIMEXO
40
2.2000000000
9
$DIMDLI
40
13.3760000000
9
$DIMEXE
40
6.3360000000
9
$DIMCEN
40
3.1680000000
9
$DIMLFAC
40
1.0000000000
9
$DIMBLK
1
_FILLED
9
$DIMTXT
40
3.5000000000
9
$DIMTOL
70
1
9
$DIMLIM
70
0
9
$DIMTFAC
40
1.0000000000
9
$DIMTP
40
0.0010000000
9
$DIMTM
40
0.0010000000
9
$PDMODE
70
3
9
$PDSIZE
40
0.3125000000
9
$HANDSEED
5
41F
9
$MEASUREMENT
70
1
9
$INSUNITS
70
4
0
ENDSEC
0
SECTION
2
CLASSES
0
CLASS
1
ACDBDICTIONARYWDFLT
2
AcDbDictionaryWithDefault
3
AutoCAD 2000
90
0
280
0
281
0
0
CLASS
1
ACDBPLACEHOLDER
2
AcDbPlaceHolder
3
AutoCAD 2000
90
0
280
0
281
0
0
CLASS
1
LAYOUT
2
AcDbLayout
3
AutoCAD 2000
90
0
280
0
281
0
0
ENDSEC
0
SECTION
2
TABLES
0
TABLE
2
VPORT
5
8
100
AcDbSymbolTable
70
2
0
VPORT
5
1F4
100
AcDbSymbolTableRecord
100
AcDbViewportTableRecord
2
*ACTIVE
70
0
10
0.0
20
0.0
11
1.0
21
1.0
12
105.0000000000
22
148.5000000000
13
0.0
23
0.0
14
1.0
24
1.0
15
0.0
25
0.0
16
0.0
26
0.0
36
1.0
17
0.0
27
0.0
37
0.0
40
297.0000000000
41
0.7070707071
42
50.0
43
0.0
44
0.0
50
0.0
51
0.0
71
0
72
100
73
1
74
1
75
0
76
0
77
0
78
0
0
ENDTAB
0
TABLE
2
LTYPE
5
5
100
AcDbSymbolTable
70
6
0
LTYPE
5
14
100
AcDbSymbolTableRecord
100
AcDbLinetypeTableRecord
2
BYBLOCK
70
0
3

72
65
73
0
40
0.0
0
LTYPE
5
15
100
AcDbSymbolTableRecord
100
AcDbLinetypeTableRecord
2
BYLAYER
70
0
3

72
65
73
0
40
0.0
0
LTYPE
5
16
100
AcDbSymbolTableRecord
100
AcDbLinetypeTableRecord
2
CONTINUOUS
70
64
3
Solid line
72
65
73
0
40
0
0
LTYPE
5
1F5
100
AcDbSymbolTableRecord
100
AcDbLinetypeTableRecord
2
CENTER
70
64
3
____ _ ____ _ ____ _ ____ _ ____ _ ____ _ ____
72
65
73
4
40
0.6
49
0.375
74
0
49
-0.075
74
0
49
0.075
74
0
49
-0.075
74
0
0
LTYPE
5
1F6
100
AcDbSymbolTableRecord
100
AcDbLinetypeTableRecord
2
HIDDEN
70
64
3
- - - - - - - - - - - - - - - - - - - -
72
65
73
2
40
0.2
49
0.1
74
0
49
-0.1
74
0
0
LTYPE
5
1F7
100
AcDbSymbolTableRecord
100
AcDbLinetypeTableRecord
2
PHANTOM
70
64
3
_____ _ _ _____ _ _ _____ _ _ _____
72
65
73
6
40
0.8
49
0.45
74
0
49
-0.05
74
0
49
0.1
74
0
49
-0.05
74
0
49
0.1
74
0
49
-0.05
74
0
0
LTYPE
5
1F8
100
AcDbSymbolTableRecord
100
AcDbLinetypeTableRecord
2
DOT
70
64
3
. . . . . . . . . . . . . . . . . . . .
72
65
73
2
40
0.2
49
0.1
74
0
49
-0.1
74
0
0
LTYPE
5
1F9
100
AcDbSymbolTableRecord
100
AcDbLinetypeTableRecord
2
DASHED
70
64
3
- - - - - - - - - - - - - - - - - - - -
72
65
73
2
40
0.2
49
0.1
74
0
49
-0.1
74
0
0
ENDTAB
0
TABLE
2
LAYER
5
2
100
AcDbSymbolTable
70
36
0
LAYER
5
10
100
AcDbSymbolTableRecord
100
AcDbLayerTableRecord
2
0
70
0
62
7
6
CONTINUOUS
370
-3
390
F
0
LAYER
5
1FA
100
AcDbSymbolTableRecord
100
AcDbLayerTableRecord
2
DEFAULT_1
70
0
62
7
6
CENTER
370
-3
390
F
0
LAYER
5
1FB
100
AcDbSymbolTableRecord
100
AcDbLayerTableRecord
2
DEFAULT_2
70
0
62
8
6
HIDDEN
370
-3
390
F
0
LAYER
5
1FC
100
AcDbSymbolTableRecord
100
AcDbLayerTableRecord
2
DEFAULT_3
70
0
62
7
6
PHANTOM
370
-3
390
F
0
LAYER
5
1FD
100
AcDbSymbolTableRecord
100
AcDbLayerTableRecord
2
_2D_DELETED_OBJS
70
0
62
7
6
CONTINUOUS
370
-3
390
F
0
LAYER
5
1FE
100
AcDbSymbolTableRecord
100
AcDbLayerTableRecord
2
ASSI
70
0
62
7
6
CONTINUOUS
370
-3
390
F
0
LAYER
5
1FF
100
AcDbSymbolTableRecord
100
AcDbLayerTableRecord
2
PIANI
70
0
62
7
6
CONTINUOUS
370
-3
390
F
0
ENDTAB
0
TABLE
2
STYLE
5
3
100
AcDbSymbolTable
70
1
0
STYLE
5
11
100
AcDbSymbolTableRecord
100
AcDbTextStyleTableRecord
2
STANDARD
70
0
40
0.0
41
0.7143000000
50
0.0
71
0
42
0.2
3
txt
4

0
ENDTAB
0
TABLE
2
VIEW
5
6
100
AcDbSymbolTable
70
0
0
ENDTAB
0
TABLE
2
UCS
5
7
100
AcDbSymbolTable
70
0
0
ENDTAB
0
TABLE
2
APPID
5
9
100
AcDbSymbolTable
70
1
0
APPID
5
200
100
AcDbSymbolTableRecord
100
AcDbRegAppTableRecord
2
ACAD
70
0
0
ENDTAB
0
TABLE
2
BLOCK_RECORD
5
1
100
AcDbSymbolTable
70
0
0
BLOCK_RECORD
5
1F
100
AcDbSymbolTableRecord
100
AcDbBlockTableRecord
2
*MODEL_SPACE
0
BLOCK_RECORD
5
1B
100
AcDbSymbolTableRecord
100
AcDbBlockTableRecord
2
*PAPER_SPACE
0
ENDTAB
0
TABLE
2
DIMSTYLE
5
A
100
AcDbSymbolTable
70
1
100
AcDbDimStyleTable
71
0
0
DIMSTYLE
105
201
100
AcDbSymbolTableRecord
100
AcDbDimStyleTableRecord
2
STANDARD
70
0
3

4

40
1.0
41
3.5000000000
42
0.0625
43
0.38
44
0.18
45
0.0
46
0.0
47
0.0010000000
48
0.0010000000
140
3.5000000000
141
0.09
142
0.0
143
25.4
144
1.0000000000
145
0.0
146
1.0000000000
147
0.09
71
1
72
0
73
0
74
0
75
0
76
0
77
1
78
8
170
0
171
2
172
0
173
0
174
0
175
0
176
0
177
0
178
0
270
2
271
3
272
3
273
2
274
2
275
0
280
0
281
0
282
0
283
1
284
8
285
0
286
0
287
3
288
0
340
11
0
ENDTAB
0
ENDSEC
0
SECTION
2
BLOCKS
0
BLOCK
5
20
100
AcDbEntity
8
0
100
AcDbBlockBegin
2
*MODEL_SPACE
70
0
10
0.0
20
0.0
30
0.0
3
*MODEL_SPACE
1

0
ENDBLK
5
21
100
AcDbEntity
8
0
100
AcDbBlockEnd
0
BLOCK
5
1C
100
AcDbEntity
8
0
100
AcDbBlockBegin
2
*PAPER_SPACE
70
0
10
0.0
20
0.0
30
0.0
3
*PAPER_SPACE
1

0
ENDBLK
5
1D
100
AcDbEntity
8
0
100
AcDbBlockEnd
0
ENDSEC
0
SECTION
2
ENTITIES
0
LINE
5
202
100
AcDbEntity
8
0
100
AcDbLine
62
7
6
CONTINUOUS
10
0.0000000000
20
0.0000000000
11
210.0000000000
21
0.0000000000
0
LINE
5
203
100
AcDbEntity
8
0
100
AcDbLine
62
7
6
CONTINUOUS
10
0.0000000000
20
0.0000000000
11
0.0000000000
21
297.0000000000
0
LINE
5
204
100
AcDbEntity
8
0
100
AcDbLine
62
7
6
CONTINUOUS
10
210.0000000000
20
0.0000000000
11
210.0000000000
21
297.0000000000
0
LINE
5
205
100
AcDbEntity
8
0
100
AcDbLine
62
7
6
CONTINUOUS
10
0.0000000000
20
297.0000000000
11
210.0000000000
21
297.0000000000
0
LINE
5
206
100
AcDbEntity
8
0
100
AcDbLine
62
7
6
CONTINUOUS
10
79.7670050761
20
78.9101522843
11
83.7670050761
21
78.9101522843
0
LINE
5
207
100
AcDbEntity
8
0
100
AcDbLine
62
7
6
CONTINUOUS
10
131.7670050761
20
78.9101522843
11
135.7670050761
21
78.9101522843
0
LINE
5
208
100
AcDbEntity
8
0
100
AcDbLine
62
7
6
CONTINUOUS
10
76.9670050761
20
79.1101522843
11
86.5670050761
21
79.1101522843
0
LINE
5
209
100
AcDbEntity
8
0
100
AcDbLine
62
7
6
CONTINUOUS
10
128.9670050761
20
79.1101522843
11
138.5670050761
21
79.1101522843
0
LINE
5
20A
100
AcDbEntity
8
0
100
AcDbLine
62
7
6
CONTINUOUS
10
74.9670050761
20
79.3101522843
11
88.5670050761
21
79.3101522843
0
LINE
5
20B
100
AcDbEntity
8
0
100
AcDbLine
62
7
6
CONTINUOUS
10
126.9670050761
20
79.3101522843
11
140.5670050761
21
79.3101522843
0
LINE
5
20C
100
AcDbEntity
8
0
100
AcDbLine
62
7
6
CONTINUOUS
10
72.7670050761
20
90.7101522843
11
90.7670050761
21
90.7101522843
0
LINE
5
20D
100
AcDbEntity
8
0
100
AcDbLine
62
7
6
CONTINUOUS
10
124.7670050761
20
90.7101522843
11
142.7670050761
21
90.7101522843
0
LINE
5
20E
100
AcDbEntity
8
0
100
AcDbLine
62
7
6
CONTINUOUS
10
25.7670050761
20
260.5101522843
11
25.7670050761
21
258.9101522843
0
LINE
5
20F
100
AcDbEntity
8
0
100
AcDbLine
62
7
6
CONTINUOUS
10
25.7670050761
20
94.9101522843
11
25.7670050761
21
93.3101522843
0
LINE
5
210
100
AcDbEntity
8
0
100
AcDbLine
62
7
6
CONTINUOUS
10
26.1670050761
20
96.9101522843
11
26.1670050761
21
107.1101522843
0
LINE
5
211
100
AcDbEntity
8
0
100
AcDbLine
62
7
6
CONTINUOUS
10
26.1670050761
20
118.3101522843
11
26.1670050761
21
128.5101522843
0
LINE
5
212
100
AcDbEntity
8
0
100
AcDbLine
62
7
6
CONTINUOUS
10
26.1670050761
20
139.7101522843
11
26.1670050761
21
149.9101522843
0
LINE
5
213
100
AcDbEntity
8
0
100
AcDbLine
62
7
6
CONTINUOUS
10
26.1670050761
20
161.1101522843
11
26.1670050761
21
171.3101522843
0
LINE
5
214
100
AcDbEntity
8
0
100
AcDbLine
62
7
6
CONTINUOUS
10
26.1670050761
20
182.5101522843
11
26.1670050761
21
192.7101522843
0
LINE
5
215
100
AcDbEntity
8
0
100
AcDbLine
62
7
6
CONTINUOUS
10
26.1670050761
20
203.9101522843
11
26.1670050761
21
214.1101522843
0
LINE
5
216
100
AcDbEntity
8
0
100
AcDbLine
62
7
6
CONTINUOUS
10
26.1670050761
20
225.3101522843
11
26.1670050761
21
235.5101522843
0
LINE
5
217
100
AcDbEntity
8
0
100
AcDbLine
62
7
6
CONTINUOUS
10
26.1670050761
20
246.7101522843
11
26.1670050761
21
256.9101522843
0
LINE
5
218
100
AcDbEntity
8
0
100
AcDbLine
62
7
6
CONTINUOUS
10
26.9670050761
20
260.9101522843
11
26.9670050761
21
258.9101522843
0
LINE
5
219
100
AcDbEntity
8
0
100
AcDbLine
62
7
6
CONTINUOUS
10
26.9670050761
20
92.9101522843
11
26.9670050761
21
94.9101522843
0
LINE
5
21A
100
AcDbEntity
8
0
100
AcDbLine
62
7
6
CONTINUOUS
10
29.7670050761
20
96.9101522843
11
29.7670050761
21
99.7101522843
0
LINE
5
21B
100
AcDbEntity
8
0
100
AcDbLine
62
7
6
CONTINUOUS
10
29.7670050761
20
254.1101522843
11
29.7670050761
21
256.9101522843
0
LINE
5
21C
100
AcDbEntity
8
0
100
AcDbLine
62
7
6
CONTINUOUS
10
31.9174119339
20
99.7101522843
11
31.9174119339
21
107.1101522843
0
LINE
5
21D
100
AcDbEntity
8
0
100
AcDbLine
62
7
6
CONTINUOUS
10
31.9174119339
20
118.3101522843
11
31.9174119339
21
128.5101522843
0
LINE
5
21E
100
AcDbEntity
8
0
100
AcDbLine
62
7
6
CONTINUOUS
10
31.9174119339
20
139.7101522843
11
31.9174119339
21
149.9101522843
0
LINE
5
21F
100
AcDbEntity
8
0
100
AcDbLine
62
7
6
CONTINUOUS
10
31.9174119339
20
161.1101522843
11
31.9174119339
21
171.3101522843
0
LINE
5
220
100
AcDbEntity
8
0
100
AcDbLine
62
7
6
CONTINUOUS
10
31.9174119339
20
182.5101522843
11
31.9174119339
21
192.7101522843
0
LINE
5
221
100
AcDbEntity
8
0
100
AcDbLine
62
7
6
CONTINUOUS
10
31.9174119339
20
203.9101522843
11
31.9174119339
21
214.1101522843
0
LINE
5
222
100
AcDbEntity
8
0
100
AcDbLine
62
7
6
CONTINUOUS
10
31.9174119339
20
225.3101522843
11
31.9174119339
21
235.5101522843
0
LINE
5
223
100
AcDbEntity
8
0
100
AcDbLine
62
7
6
CONTINUOUS
10
31.9174119339
20
246.7101522843
11
31.9174119339
21
254.1101522843
0
LINE
5
224
100
AcDbEntity
8
0
100
AcDbLine
62
7
6
CONTINUOUS
10
72.7670050761
20
92.7101522843
11
90.7670050761
21
92.7101522843
0
LINE
5
225
100
AcDbEntity
8
0
100
AcDbLine
62
7
6
CONTINUOUS
10
124.7670050761
20
92.7101522843
11
142.7670050761
21
92.7101522843
0
LINE
5
226
100
AcDbEntity
8
0
100
AcDbLine
62
7
6
CONTINUOUS
10
41.0070050761
20
92.9101522843
11
26.1670050761
21
92.9101522843
0
LINE
5
227
100
AcDbEntity
8
0
100
AcDbLine
62
7
6
CONTINUOUS
10
76.9670050761
20
92.9101522843
11
93.0070050761
21
92.9101522843
0
LINE
5
228
100
AcDbEntity
8
0
100
AcDbLine
62
7
6
CONTINUOUS
10
128.9670050761
20
92.9101522843
11
145.0070050761
21
92.9101522843
0
LINE
5
229
100
AcDbEntity
8
0
100
AcDbLine
62
7
6
CONTINUOUS
10
144.6070050761
20
93.3101522843
11
129.7670050761
21
93.3101522843
0
LINE
5
22A
100
AcDbEntity
8
0
100
AcDbLine
62
7
6
CONTINUOUS
10
92.6070050761
20
93.3101522843
11
77.7670050761
21
93.3101522843
0
LINE
5
22B
100
AcDbEntity
8
0
100
AcDbLine
62
7
6
CONTINUOUS
10
40.6070050761
20
93.3101522843
11
25.7670050761
21
93.3101522843
0
LINE
5
22C
100
AcDbEntity
8
0
100
AcDbLine
62
7
6
CONTINUOUS
10
25.7670050761
20
94.9101522843
11
38.7670050761
21
94.9101522843
0
LINE
5
22D
100
AcDbEntity
8
0
100
AcDbLine
62
7
6
CONTINUOUS
10
41.4070050761
20
94.9101522843
11
90.7670050761
21
94.9101522843
0
LINE
5
22E
100
AcDbEntity
8
0
100
AcDbLine
62
7
6
CONTINUOUS
10
93.4070050761
20
94.9101522843
11
142.7670050761
21
94.9101522843
0
LINE
5
22F
100
AcDbEntity
8
0
100
AcDbLine
62
7
6
CONTINUOUS
10
145.4070050761
20
94.9101522843
11
192.7666519270
21
94.9101522843
0
LINE
5
230
100
AcDbEntity
8
0
100
AcDbLine
62
7
6
CONTINUOUS
10
40.6070050761
20
95.3101522843
11
89.1670050761
21
95.3101522843
0
LINE
5
231
100
AcDbEntity
8
0
100
AcDbLine
62
7
6
CONTINUOUS
10
92.6070050761
20
95.3101522843
11
141.1670050761
21
95.3101522843
0
LINE
5
232
100
AcDbEntity
8
0
100
AcDbLine
62
7
6
CONTINUOUS
10
144.6070050761
20
95.3101522843
11
193.1670050761
21
95.3101522843
0
LINE
5
233
100
AcDbEntity
8
0
100
AcDbLine
62
7
6
CONTINUOUS
10
26.1672265092
20
96.9101522843
11
193.1670050761
21
96.9101522843
0
LINE
5
234
100
AcDbEntity
8
0
100
AcDbLine
62
7
6
CONTINUOUS
10
32.9692773062
20
98.5101522843
11
77.3670050761
21
98.5101522843
0
LINE
5
235
100
AcDbEntity
8
0
100
AcDbLine
62
7
6
CONTINUOUS
10
84.9692773062
20
98.5101522843
11
129.3670050761
21
98.5101522843
0
LINE
5
236
100
AcDbEntity
8
0
100
AcDbLine
62
7
6
CONTINUOUS
10
136.9692773062
20
98.5101522843
11
181.3670050761
21
98.5101522843
0
LINE
5
237
100
AcDbEntity
8
0
100
AcDbLine
62
7
6
CONTINUOUS
10
182.1670050761
20
99.7101522843
11
133.7670050761
21
99.7101522843
0
LINE
5
238
100
AcDbEntity
8
0
100
AcDbLine
62
7
6
CONTINUOUS
10
130.1670050761
20
99.7101522843
11
81.7670050761
21
99.7101522843
0
LINE
5
239
100
AcDbEntity
8
0
100
AcDbLine
62
7
6
CONTINUOUS
10
78.1670050761
20
99.7101522843
11
29.7670050761
21
99.7101522843
0
LINE
5
23A
100
AcDbEntity
8
0
100
AcDbLine
62
7
6
CONTINUOUS
10
34.1670050761
20
107.1101522843
11
34.1670050761
21
118.3101522843
0
LINE
5
23B
100
AcDbEntity
8
0
100
AcDbLine
62
7
6
CONTINUOUS
10
34.1670050761
20
128.5101522843
11
34.1670050761
21
139.7101522843
0
LINE
5
23C
100
AcDbEntity
8
0
100
AcDbLine
62
7
6
CONTINUOUS
10
34.1670050761
20
149.9101522843
11
34.1670050761
21
161.1101522843
0
LINE
5
23D
100
AcDbEntity
8
0
100
AcDbLine
62
7
6
CONTINUOUS
10
34.1670050761
20
171.3101522843
11
34.1670050761
21
182.5101522843
0
LINE
5
23E
100
AcDbEntity
8
0
100
AcDbLine
62
7
6
CONTINUOUS
10
34.1670050761
20
192.7101522843
11
34.1670050761
21
203.9101522843
0
LINE
5
23F
100
AcDbEntity
8
0
100
AcDbLine
62
7
6
CONTINUOUS
10
34.1670050761
20
214.1101522843
11
34.1670050761
21
225.3101522843
0
LINE
5
240
100
AcDbEntity
8
0
100
AcDbLine
62
7
6
CONTINUOUS
10
34.1670050761
20
235.5101522843
11
34.1670050761
21
246.7101522843
0
LINE
5
241
100
AcDbEntity
8
0
100
AcDbLine
62
7
6
CONTINUOUS
10
38.7670050761
20
96.9101522843
11
38.7670050761
21
94.9101522843
0
LINE
5
242
100
AcDbEntity
8
0
100
AcDbLine
62
7
6
CONTINUOUS
10
38.7670050761
20
256.9101522843
11
38.7670050761
21
258.9101522843
0
LINE
5
243
100
AcDbEntity
8
0
100
AcDbLine
62
7
6
CONTINUOUS
10
40.6070050761
20
93.3101522843
11
40.6070050761
21
95.3101522843
0
LINE
5
244
100
AcDbEntity
8
0
100
AcDbLine
62
7
6
CONTINUOUS
10
40.6070050761
20
258.5101522843
11
40.6070050761
21
260.9101522843
0
LINE
5
245
100
AcDbEntity
8
0
100
AcDbLine
62
7
6
CONTINUOUS
10
41.0070050761
20
92.9101522843
11
41.0070050761
21
94.5101522843
0
LINE
5
246
100
AcDbEntity
8
0
100
AcDbLine
62
7
6
CONTINUOUS
10
41.0070050761
20
259.3101522843
11
41.0070050761
21
260.5101522843
0
LINE
5
247
100
AcDbEntity
8
0
100
AcDbLine
62
7
6
CONTINUOUS
10
26.1670437816
20
107.1101522843
11
34.1670050761
21
107.1101522843
0
LINE
5
248
100
AcDbEntity
8
0
100
AcDbLine
62
7
6
CONTINUOUS
10
78.1670437816
20
107.1101522843
11
86.1670050761
21
107.1101522843
0
LINE
5
249
100
AcDbEntity
8
0
100
AcDbLine
62
7
6
CONTINUOUS
10
130.1670437816
20
107.1101522843
11
138.1670050761
21
107.1101522843
0
LINE
5
24A
100
AcDbEntity
8
0
100
AcDbLine
62
7
6
CONTINUOUS
10
189.3667053165
20
108.1101522843
11
182.1670050761
21
108.1101522843
0
LINE
5
24B
100
AcDbEntity
8
0
100
AcDbLine
62
7
6
CONTINUOUS
10
137.3667053165
20
108.1101522843
11
130.1670050761
21
108.1101522843
0
LINE
5
24C
100
AcDbEntity
8
0
100
AcDbLine
62
7
6
CONTINUOUS
10
85.3667053165
20
108.1101522843
11
78.1670050761
21
108.1101522843
0
LINE
5
24D
100
AcDbEntity
8
0
100
AcDbLine
62
7
6
CONTINUOUS
10
26.1670455778
20
118.3101522843
11
34.1670050761
21
118.3101522843
0
LINE
5
24E
100
AcDbEntity
8
0
100
AcDbLine
62
7
6
CONTINUOUS
10
78.1670455778
20
118.3101522843
11
86.1670050761
21
118.3101522843
0
LINE
5
24F
100
AcDbEntity
8
0
100
AcDbLine
62
7
6
CONTINUOUS
10
130.1670455778
20
118.3101522843
11
138.1670050761
21
118.3101522843
0
LINE
5
250
100
AcDbEntity
8
0
100
AcDbLine
62
7
6
CONTINUOUS
10
182.1670050761
20
118.3101522843
11
189.3667079661
21
118.3101522843
0
LINE
5
251
100
AcDbEntity
8
0
100
AcDbLine
62
7
6
CONTINUOUS
10
26.1670437816
20
128.5101522843
11
34.1670050761
21
128.5101522843
0
LINE
5
252
100
AcDbEntity
8
0
100
AcDbLine
62
7
6
CONTINUOUS
10
78.1670437816
20
128.5101522843
11
86.1670050761
21
128.5101522843
0
LINE
5
253
100
AcDbEntity
8
0
100
AcDbLine
62
7
6
CONTINUOUS
10
130.1670437816
20
128.5101522843
11
138.1670050761
21
128.5101522843
0
LINE
5
254
100
AcDbEntity
8
0
100
AcDbLine
62
7
6
CONTINUOUS
10
189.3667053165
20
129.5101522843
11
182.1670050761
21
129.5101522843
0
LINE
5
255
100
AcDbEntity
8
0
100
AcDbLine
62
7
6
CONTINUOUS
10
137.3667053165
20
129.5101522843
11
130.1670050761
21
129.5101522843
0
LINE
5
256
100
AcDbEntity
8
0
100
AcDbLine
62
7
6
CONTINUOUS
10
85.3667053165
20
129.5101522843
11
78.1670050761
21
129.5101522843
0
LINE
5
257
100
AcDbEntity
8
0
100
AcDbLine
62
7
6
CONTINUOUS
10
70.4997959325
20
99.7101522843
11
70.4997959325
21
254.1101522843
0
LINE
5
258
100
AcDbEntity
8
0
100
AcDbLine
62
7
6
CONTINUOUS
10
72.7670050761
20
263.1101522843
11
72.7670050761
21
261.1101522843
0
LINE
5
259
100
AcDbEntity
8
0
100
AcDbLine
62
7
6
CONTINUOUS
10
72.7670050761
20
90.7101522843
11
72.7670050761
21
92.7101522843
0
LINE
5
25A
100
AcDbEntity
8
0
100
AcDbLine
62
7
6
CONTINUOUS
10
74.9670050761
20
274.5101522843
11
74.9670050761
21
263.1101522843
0
LINE
5
25B
100
AcDbEntity
8
0
100
AcDbLine
62
7
6
CONTINUOUS
10
74.9670050761
20
79.3101522843
11
74.9670050761
21
90.7101522843
0
LINE
5
25C
100
AcDbEntity
8
0
100
AcDbLine
62
7
6
CONTINUOUS
10
26.1670455778
20
139.7101522843
11
34.1670050761
21
139.7101522843
0
LINE
5
25D
100
AcDbEntity
8
0
100
AcDbLine
62
7
6
CONTINUOUS
10
78.1670455778
20
139.7101522843
11
86.1670050761
21
139.7101522843
0
LINE
5
25E
100
AcDbEntity
8
0
100
AcDbLine
62
7
6
CONTINUOUS
10
130.1670455778
20
139.7101522843
11
138.1670050761
21
139.7101522843
0
LINE
5
25F
100
AcDbEntity
8
0
100
AcDbLine
62
7
6
CONTINUOUS
10
182.1670050761
20
139.7101522843
11
189.3667079661
21
139.7101522843
0
LINE
5
260
100
AcDbEntity
8
0
100
AcDbLine
62
7
6
CONTINUOUS
10
76.9670050761
20
274.7101522843
11
76.9670050761
21
274.5101522843
0
LINE
5
261
100
AcDbEntity
8
0
100
AcDbLine
62
7
6
CONTINUOUS
10
76.9670050761
20
261.1101522843
11
76.9670050761
21
260.9101522843
0
LINE
5
262
100
AcDbEntity
8
0
100
AcDbLine
62
7
6
CONTINUOUS
10
76.9670050761
20
79.1101522843
11
76.9670050761
21
79.3101522843
0
LINE
5
263
100
AcDbEntity
8
0
100
AcDbLine
62
7
6
CONTINUOUS
10
76.9670050761
20
92.7101522843
11
76.9670050761
21
92.9101522843
0
LINE
5
264
100
AcDbEntity
8
0
100
AcDbLine
62
7
6
CONTINUOUS
10
77.3670050761
20
98.5101522843
11
77.3670050761
21
96.9101522843
0
LINE
5
265
100
AcDbEntity
8
0
100
AcDbLine
62
7
6
CONTINUOUS
10
77.3670050761
20
255.3101522843
11
77.3670050761
21
256.9101522843
0
LINE
5
266
100
AcDbEntity
8
0
100
AcDbLine
62
7
6
CONTINUOUS
10
77.7670050761
20
260.5101522843
11
77.7670050761
21
258.9101522843
0
LINE
5
267
100
AcDbEntity
8
0
100
AcDbLine
62
7
6
CONTINUOUS
10
77.7670050761
20
94.9101522843
11
77.7670050761
21
93.3101522843
0
LINE
5
268
100
AcDbEntity
8
0
100
AcDbLine
62
7
6
CONTINUOUS
10
78.1670050761
20
96.9101522843
11
78.1670050761
21
256.9101522843
0
LINE
5
269
100
AcDbEntity
8
0
100
AcDbLine
62
7
6
CONTINUOUS
10
78.9670050761
20
260.9101522843
11
78.9670050761
21
258.9101522843
0
LINE
5
26A
100
AcDbEntity
8
0
100
AcDbLine
62
7
6
CONTINUOUS
10
78.9670050761
20
92.9101522843
11
78.9670050761
21
94.9101522843
0
LINE
5
26B
100
AcDbEntity
8
0
100
AcDbLine
62
7
6
CONTINUOUS
10
79.7670050761
20
78.9101522843
11
79.7670050761
21
79.1101522843
0
LINE
5
26C
100
AcDbEntity
8
0
100
AcDbLine
62
7
6
CONTINUOUS
10
79.7670050761
20
107.1101522843
11
79.7670050761
21
108.1101522843
0
LINE
5
26D
100
AcDbEntity
8
0
100
AcDbLine
62
7
6
CONTINUOUS
10
79.7670050761
20
128.5101522843
11
79.7670050761
21
129.5101522843
0
LINE
5
26E
100
AcDbEntity
8
0
100
AcDbLine
62
7
6
CONTINUOUS
10
79.7670050761
20
149.9101522843
11
79.7670050761
21
150.9101522843
0
LINE
5
26F
100
AcDbEntity
8
0
100
AcDbLine
62
7
6
CONTINUOUS
10
79.7670050761
20
171.3101522843
11
79.7670050761
21
172.3101522843
0
LINE
5
270
100
AcDbEntity
8
0
100
AcDbLine
62
7
6
CONTINUOUS
10
79.7670050761
20
192.7101522843
11
79.7670050761
21
193.7101522843
0
LINE
5
271
100
AcDbEntity
8
0
100
AcDbLine
62
7
6
CONTINUOUS
10
79.7670050761
20
214.1101522843
11
79.7670050761
21
215.1101522843
0
LINE
5
272
100
AcDbEntity
8
0
100
AcDbLine
62
7
6
CONTINUOUS
10
79.7670050761
20
235.5101522843
11
79.7670050761
21
236.5101522843
0
LINE
5
273
100
AcDbEntity
8
0
100
AcDbLine
62
7
6
CONTINUOUS
10
79.7670050761
20
274.7101522843
11
79.7670050761
21
274.9101522843
0
LINE
5
274
100
AcDbEntity
8
DEFAULT_1
100
AcDbLine
62
2
6
CENTER
10
81.7670050761
20
277.4684479831
11
81.7670050761
21
256.9101522843
0
LINE
5
275
100
AcDbEntity
8
DEFAULT_1
100
AcDbLine
62
2
6
CENTER
10
81.7670050761
20
96.9101522843
11
81.7670050761
21
75.5860343773
0
LINE
5
276
100
AcDbEntity
8
DEFAULT_1
100
AcDbLine
62
2
6
CENTER
10
81.7670050761
20
254.1101522843
11
81.7670050761
21
99.7101522843
0
LINE
5
277
100
AcDbEntity
8
0
100
AcDbLine
62
7
6
CONTINUOUS
10
81.7670050761
20
96.9101522843
11
81.7670050761
21
99.7101522843
0
LINE
5
278
100
AcDbEntity
8
0
100
AcDbLine
62
7
6
CONTINUOUS
10
81.7670050761
20
254.1101522843
11
81.7670050761
21
256.9101522843
0
LINE
5
279
100
AcDbEntity
8
0
100
AcDbLine
62
7
6
CONTINUOUS
10
83.5664466042
20
96.9101522843
11
83.5664466042
21
94.9101522843
0
LINE
5
27A
100
AcDbEntity
8
0
100
AcDbLine
62
7
6
CONTINUOUS
10
83.5664466042
20
256.9101522843
11
83.5664466042
21
258.9101522843
0
LINE
5
27B
100
AcDbEntity
8
0
100
AcDbLine
62
7
6
CONTINUOUS
10
83.7670050761
20
78.9101522843
11
83.7670050761
21
79.1101522843
0
LINE
5
27C
100
AcDbEntity
8
0
100
AcDbLine
62
7
6
CONTINUOUS
10
83.7670050761
20
107.1101522843
11
83.7670050761
21
108.1101522843
0
LINE
5
27D
100
AcDbEntity
8
0
100
AcDbLine
62
7
6
CONTINUOUS
10
83.7670050761
20
128.5101522843
11
83.7670050761
21
129.5101522843
0
LINE
5
27E
100
AcDbEntity
8
0
100
AcDbLine
62
7
6
CONTINUOUS
10
83.7670050761
20
149.9101522843
11
83.7670050761
21
150.9101522843
0
LINE
5
27F
100
AcDbEntity
8
0
100
AcDbLine
62
7
6
CONTINUOUS
10
83.7670050761
20
171.3101522843
11
83.7670050761
21
172.3101522843
0
LINE
5
280
100
AcDbEntity
8
0
100
AcDbLine
62
7
6
CONTINUOUS
10
83.7670050761
20
192.7101522843
11
83.7670050761
21
193.7101522843
0
LINE
5
281
100
AcDbEntity
8
0
100
AcDbLine
62
7
6
CONTINUOUS
10
83.7670050761
20
214.1101522843
11
83.7670050761
21
215.1101522843
0
LINE
5
282
100
AcDbEntity
8
0
100
AcDbLine
62
7
6
CONTINUOUS
10
83.7670050761
20
235.5101522843
11
83.7670050761
21
236.5101522843
0
LINE
5
283
100
AcDbEntity
8
0
100
AcDbLine
62
7
6
CONTINUOUS
10
83.7670050761
20
274.7101522843
11
83.7670050761
21
274.9101522843
0
LINE
5
284
100
AcDbEntity
8
0
100
AcDbLine
62
7
6
CONTINUOUS
10
83.9174119339
20
99.7101522843
11
83.9174119339
21
107.1101522843
0
LINE
5
285
100
AcDbEntity
8
0
100
AcDbLine
62
7
6
CONTINUOUS
10
83.9174119339
20
118.3101522843
11
83.9174119339
21
128.5101522843
0
LINE
5
286
100
AcDbEntity
8
0
100
AcDbLine
62
7
6
CONTINUOUS
10
83.9174119339
20
139.7101522843
11
83.9174119339
21
149.9101522843
0
LINE
5
287
100
AcDbEntity
8
0
100
AcDbLine
62
7
6
CONTINUOUS
10
83.9174119339
20
161.1101522843
11
83.9174119339
21
171.3101522843
0
LINE
5
288
100
AcDbEntity
8
0
100
AcDbLine
62
7
6
CONTINUOUS
10
83.9174119339
20
182.5101522843
11
83.9174119339
21
192.7101522843
0
LINE
5
289
100
AcDbEntity
8
0
100
AcDbLine
62
7
6
CONTINUOUS
10
83.9174119339
20
203.9101522843
11
83.9174119339
21
214.1101522843
0
LINE
5
28A
100
AcDbEntity
8
0
100
AcDbLine
62
7
6
CONTINUOUS
10
83.9174119339
20
225.3101522843
11
83.9174119339
21
235.5101522843
0
LINE
5
28B
100
AcDbEntity
8
0
100
AcDbLine
62
7
6
CONTINUOUS
10
83.9174119339
20
246.7101522843
11
83.9174119339
21
254.1101522843
0
LINE
5
28C
100
AcDbEntity
8
0
100
AcDbLine
62
7
6
CONTINUOUS
10
84.3346463871
20
258.5101522843
11
84.3346463871
21
256.9101522843
0
LINE
5
28D
100
AcDbEntity
8
0
100
AcDbLine
62
7
6
CONTINUOUS
10
84.3346463871
20
96.9101522843
11
84.3346463871
21
95.3101522843
0
LINE
5
28E
100
AcDbEntity
8
0
100
AcDbLine
62
7
6
CONTINUOUS
10
26.1670437816
20
149.9101522843
11
34.1670050761
21
149.9101522843
0
LINE
5
28F
100
AcDbEntity
8
0
100
AcDbLine
62
7
6
CONTINUOUS
10
78.1670437816
20
149.9101522843
11
86.1670050761
21
149.9101522843
0
LINE
5
290
100
AcDbEntity
8
0
100
AcDbLine
62
7
6
CONTINUOUS
10
130.1670437816
20
149.9101522843
11
138.1670050761
21
149.9101522843
0
LINE
5
291
100
AcDbEntity
8
0
100
AcDbLine
62
7
6
CONTINUOUS
10
189.3667053165
20
150.9101522843
11
182.1670050761
21
150.9101522843
0
LINE
5
292
100
AcDbEntity
8
0
100
AcDbLine
62
7
6
CONTINUOUS
10
137.3667053165
20
150.9101522843
11
130.1670050761
21
150.9101522843
0
LINE
5
293
100
AcDbEntity
8
0
100
AcDbLine
62
7
6
CONTINUOUS
10
85.3667053165
20
150.9101522843
11
78.1670050761
21
150.9101522843
0
LINE
5
294
100
AcDbEntity
8
0
100
AcDbLine
62
7
6
CONTINUOUS
10
85.3670050761
20
108.1101522843
11
85.3670050761
21
118.3101522843
0
LINE
5
295
100
AcDbEntity
8
0
100
AcDbLine
62
7
6
CONTINUOUS
10
85.3670050761
20
129.5101522843
11
85.3670050761
21
139.7101522843
0
LINE
5
296
100
AcDbEntity
8
0
100
AcDbLine
62
7
6
CONTINUOUS
10
85.3670050761
20
150.9101522843
11
85.3670050761
21
161.1101522843
0
LINE
5
297
100
AcDbEntity
8
0
100
AcDbLine
62
7
6
CONTINUOUS
10
85.3670050761
20
172.3101522843
11
85.3670050761
21
182.5101522843
0
LINE
5
298
100
AcDbEntity
8
0
100
AcDbLine
62
7
6
CONTINUOUS
10
85.3670050761
20
193.7101522843
11
85.3670050761
21
203.9101522843
0
LINE
5
299
100
AcDbEntity
8
0
100
AcDbLine
62
7
6
CONTINUOUS
10
85.3670050761
20
215.1101522843
11
85.3670050761
21
225.3101522843
0
LINE
5
29A
100
AcDbEntity
8
0
100
AcDbLine
62
7
6
CONTINUOUS
10
85.3670050761
20
236.5101522843
11
85.3670050761
21
246.7101522843
0
LINE
5
29B
100
AcDbEntity
8
0
100
AcDbLine
62
7
6
CONTINUOUS
10
86.1670050761
20
107.1101522843
11
86.1670050761
21
118.3101522843
0
LINE
5
29C
100
AcDbEntity
8
0
100
AcDbLine
62
7
6
CONTINUOUS
10
86.1670050761
20
128.5101522843
11
86.1670050761
21
139.7101522843
0
LINE
5
29D
100
AcDbEntity
8
0
100
AcDbLine
62
7
6
CONTINUOUS
10
86.1670050761
20
149.9101522843
11
86.1670050761
21
161.1101522843
0
LINE
5
29E
100
AcDbEntity
8
0
100
AcDbLine
62
7
6
CONTINUOUS
10
86.1670050761
20
171.3101522843
11
86.1670050761
21
182.5101522843
0
LINE
5
29F
100
AcDbEntity
8
0
100
AcDbLine
62
7
6
CONTINUOUS
10
86.1670050761
20
192.7101522843
11
86.1670050761
21
203.9101522843
0
LINE
5
2A0
100
AcDbEntity
8
0
100
AcDbLine
62
7
6
CONTINUOUS
10
86.1670050761
20
214.1101522843
11
86.1670050761
21
225.3101522843
0
LINE
5
2A1
100
AcDbEntity
8
0
100
AcDbLine
62
7
6
CONTINUOUS
10
86.1670050761
20
235.5101522843
11
86.1670050761
21
246.7101522843
0
LINE
5
2A2
100
AcDbEntity
8
0
100
AcDbLine
62
7
6
CONTINUOUS
10
86.5670050761
20
274.7101522843
11
86.5670050761
21
274.5101522843
0
LINE
5
2A3
100
AcDbEntity
8
0
100
AcDbLine
62
7
6
CONTINUOUS
10
86.5670050761
20
261.1101522843
11
86.5670050761
21
260.9101522843
0
LINE
5
2A4
100
AcDbEntity
8
0
100
AcDbLine
62
7
6
CONTINUOUS
10
86.5670050761
20
79.1101522843
11
86.5670050761
21
79.3101522843
0
LINE
5
2A5
100
AcDbEntity
8
0
100
AcDbLine
62
7
6
CONTINUOUS
10
86.5670050761
20
92.7101522843
11
86.5670050761
21
92.9101522843
0
LINE
5
2A6
100
AcDbEntity
8
0
100
AcDbLine
62
7
6
CONTINUOUS
10
88.5670050761
20
274.5101522843
11
88.5670050761
21
263.1101522843
0
LINE
5
2A7
100
AcDbEntity
8
0
100
AcDbLine
62
7
6
CONTINUOUS
10
88.5670050761
20
79.3101522843
11
88.5670050761
21
90.7101522843
0
LINE
5
2A8
100
AcDbEntity
8
0
100
AcDbLine
62
7
6
CONTINUOUS
10
89.1670050761
20
258.5101522843
11
89.1670050761
21
256.9101522843
0
LINE
5
2A9
100
AcDbEntity
8
0
100
AcDbLine
62
7
6
CONTINUOUS
10
89.1670050761
20
96.9101522843
11
89.1670050761
21
95.3101522843
0
LINE
5
2AA
100
AcDbEntity
8
0
100
AcDbLine
62
7
6
CONTINUOUS
10
90.7670050761
20
263.1101522843
11
90.7670050761
21
261.1101522843
0
LINE
5
2AB
100
AcDbEntity
8
0
100
AcDbLine
62
7
6
CONTINUOUS
10
90.7670050761
20
96.9101522843
11
90.7670050761
21
94.9101522843
0
LINE
5
2AC
100
AcDbEntity
8
0
100
AcDbLine
62
7
6
CONTINUOUS
10
90.7670050761
20
90.7101522843
11
90.7670050761
21
92.7101522843
0
LINE
5
2AD
100
AcDbEntity
8
0
100
AcDbLine
62
7
6
CONTINUOUS
10
90.7670050761
20
256.9101522843
11
90.7670050761
21
258.9101522843
0
LINE
5
2AE
100
AcDbEntity
8
0
100
AcDbLine
62
7
6
CONTINUOUS
10
92.6070050761
20
93.3101522843
11
92.6070050761
21
95.3101522843
0
LINE
5
2AF
100
AcDbEntity
8
0
100
AcDbLine
62
7
6
CONTINUOUS
10
92.6070050761
20
258.5101522843
11
92.6070050761
21
260.9101522843
0
LINE
5
2B0
100
AcDbEntity
8
0
100
AcDbLine
62
7
6
CONTINUOUS
10
93.0070050761
20
92.9101522843
11
93.0070050761
21
94.5101522843
0
LINE
5
2B1
100
AcDbEntity
8
0
100
AcDbLine
62
7
6
CONTINUOUS
10
93.0070050761
20
259.3101522843
11
93.0070050761
21
260.5101522843
0
LINE
5
2B2
100
AcDbEntity
8
0
100
AcDbLine
62
7
6
CONTINUOUS
10
89.1670050761
20
95.3101522843
11
89.1591986958
21
95.2316114214
0
LINE
5
2B3
100
AcDbEntity
8
0
100
AcDbLine
62
7
6
CONTINUOUS
10
26.1670455778
20
161.1101522843
11
34.1670050761
21
161.1101522843
0
LINE
5
2B4
100
AcDbEntity
8
0
100
AcDbLine
62
7
6
CONTINUOUS
10
78.1670455778
20
161.1101522843
11
86.1670050761
21
161.1101522843
0
LINE
5
2B5
100
AcDbEntity
8
0
100
AcDbLine
62
7
6
CONTINUOUS
10
130.1670455778
20
161.1101522843
11
138.1670050761
21
161.1101522843
0
LINE
5
2B6
100
AcDbEntity
8
0
100
AcDbLine
62
7
6
CONTINUOUS
10
182.1670050761
20
161.1101522843
11
189.3667079661
21
161.1101522843
0
LINE
5
2B7
100
AcDbEntity
8
0
100
AcDbLine
62
7
6
CONTINUOUS
10
26.1670437816
20
171.3101522843
11
34.1670050761
21
171.3101522843
0
LINE
5
2B8
100
AcDbEntity
8
0
100
AcDbLine
62
7
6
CONTINUOUS
10
78.1670437816
20
171.3101522843
11
86.1670050761
21
171.3101522843
0
LINE
5
2B9
100
AcDbEntity
8
0
100
AcDbLine
62
7
6
CONTINUOUS
10
130.1670437816
20
171.3101522843
11
138.1670050761
21
171.3101522843
0
LINE
5
2BA
100
AcDbEntity
8
0
100
AcDbLine
62
7
6
CONTINUOUS
10
189.3667053165
20
172.3101522843
11
182.1670050761
21
172.3101522843
0
LINE
5
2BB
100
AcDbEntity
8
0
100
AcDbLine
62
7
6
CONTINUOUS
10
137.3667053165
20
172.3101522843
11
130.1670050761
21
172.3101522843
0
LINE
5
2BC
100
AcDbEntity
8
0
100
AcDbLine
62
7
6
CONTINUOUS
10
85.3667053165
20
172.3101522843
11
78.1670050761
21
172.3101522843
0
LINE
5
2BD
100
AcDbEntity
8
0
100
AcDbLine
62
7
6
CONTINUOUS
10
26.1670455778
20
182.5101522843
11
34.1670050761
21
182.5101522843
0
LINE
5
2BE
100
AcDbEntity
8
0
100
AcDbLine
62
7
6
CONTINUOUS
10
78.1670455778
20
182.5101522843
11
86.1670050761
21
182.5101522843
0
LINE
5
2BF
100
AcDbEntity
8
0
100
AcDbLine
62
7
6
CONTINUOUS
10
130.1670455778
20
182.5101522843
11
138.1670050761
21
182.5101522843
0
LINE
5
2C0
100
AcDbEntity
8
0
100
AcDbLine
62
7
6
CONTINUOUS
10
182.1670050761
20
182.5101522843
11
189.3667079661
21
182.5101522843
0
LINE
5
2C1
100
AcDbEntity
8
0
100
AcDbLine
62
7
6
CONTINUOUS
10
122.4997959325
20
99.7101522843
11
122.4997959325
21
254.1101522843
0
LINE
5
2C2
100
AcDbEntity
8
0
100
AcDbLine
62
7
6
CONTINUOUS
10
124.7670050761
20
263.1101522843
11
124.7670050761
21
261.1101522843
0
LINE
5
2C3
100
AcDbEntity
8
0
100
AcDbLine
62
7
6
CONTINUOUS
10
124.7670050761
20
90.7101522843
11
124.7670050761
21
92.7101522843
0
LINE
5
2C4
100
AcDbEntity
8
0
100
AcDbLine
62
7
6
CONTINUOUS
10
126.9670050761
20
274.5101522843
11
126.9670050761
21
263.1101522843
0
LINE
5
2C5
100
AcDbEntity
8
0
100
AcDbLine
62
7
6
CONTINUOUS
10
126.9670050761
20
79.3101522843
11
126.9670050761
21
90.7101522843
0
LINE
5
2C6
100
AcDbEntity
8
0
100
AcDbLine
62
7
6
CONTINUOUS
10
26.1670437816
20
192.7101522843
11
34.1670050761
21
192.7101522843
0
LINE
5
2C7
100
AcDbEntity
8
0
100
AcDbLine
62
7
6
CONTINUOUS
10
78.1670437816
20
192.7101522843
11
86.1670050761
21
192.7101522843
0
LINE
5
2C8
100
AcDbEntity
8
0
100
AcDbLine
62
7
6
CONTINUOUS
10
130.1670437816
20
192.7101522843
11
138.1670050761
21
192.7101522843
0
LINE
5
2C9
100
AcDbEntity
8
0
100
AcDbLine
62
7
6
CONTINUOUS
10
189.3667053165
20
193.7101522843
11
182.1670050761
21
193.7101522843
0
LINE
5
2CA
100
AcDbEntity
8
0
100
AcDbLine
62
7
6
CONTINUOUS
10
137.3667053165
20
193.7101522843
11
130.1670050761
21
193.7101522843
0
LINE
5
2CB
100
AcDbEntity
8
0
100
AcDbLine
62
7
6
CONTINUOUS
10
85.3667053165
20
193.7101522843
11
78.1670050761
21
193.7101522843
0
LINE
5
2CC
100
AcDbEntity
8
0
100
AcDbLine
62
7
6
CONTINUOUS
10
128.9670050761
20
274.7101522843
11
128.9670050761
21
274.5101522843
0
LINE
5
2CD
100
AcDbEntity
8
0
100
AcDbLine
62
7
6
CONTINUOUS
10
128.9670050761
20
261.1101522843
11
128.9670050761
21
260.9101522843
0
LINE
5
2CE
100
AcDbEntity
8
0
100
AcDbLine
62
7
6
CONTINUOUS
10
128.9670050761
20
79.1101522843
11
128.9670050761
21
79.3101522843
0
LINE
5
2CF
100
AcDbEntity
8
0
100
AcDbLine
62
7
6
CONTINUOUS
10
128.9670050761
20
92.7101522843
11
128.9670050761
21
92.9101522843
0
LINE
5
2D0
100
AcDbEntity
8
0
100
AcDbLine
62
7
6
CONTINUOUS
10
129.3670050761
20
98.5101522843
11
129.3670050761
21
96.9101522843
0
LINE
5
2D1
100
AcDbEntity
8
0
100
AcDbLine
62
7
6
CONTINUOUS
10
129.3670050761
20
255.3101522843
11
129.3670050761
21
256.9101522843
0
LINE
5
2D2
100
AcDbEntity
8
0
100
AcDbLine
62
7
6
CONTINUOUS
10
129.7670050761
20
260.5101522843
11
129.7670050761
21
258.9101522843
0
LINE
5
2D3
100
AcDbEntity
8
0
100
AcDbLine
62
7
6
CONTINUOUS
10
129.7670050761
20
94.9101522843
11
129.7670050761
21
93.3101522843
0
LINE
5
2D4
100
AcDbEntity
8
0
100
AcDbLine
62
7
6
CONTINUOUS
10
130.1670050761
20
96.9101522843
11
130.1670050761
21
256.9101522843
0
LINE
5
2D5
100
AcDbEntity
8
0
100
AcDbLine
62
7
6
CONTINUOUS
10
130.9670050761
20
260.9101522843
11
130.9670050761
21
258.9101522843
0
LINE
5
2D6
100
AcDbEntity
8
0
100
AcDbLine
62
7
6
CONTINUOUS
10
130.9670050761
20
92.9101522843
11
130.9670050761
21
94.9101522843
0
LINE
5
2D7
100
AcDbEntity
8
0
100
AcDbLine
62
7
6
CONTINUOUS
10
131.7670050761
20
78.9101522843
11
131.7670050761
21
79.1101522843
0
LINE
5
2D8
100
AcDbEntity
8
0
100
AcDbLine
62
7
6
CONTINUOUS
10
131.7670050761
20
107.1101522843
11
131.7670050761
21
108.1101522843
0
LINE
5
2D9
100
AcDbEntity
8
0
100
AcDbLine
62
7
6
CONTINUOUS
10
131.7670050761
20
128.5101522843
11
131.7670050761
21
129.5101522843
0
LINE
5
2DA
100
AcDbEntity
8
0
100
AcDbLine
62
7
6
CONTINUOUS
10
131.7670050761
20
149.9101522843
11
131.7670050761
21
150.9101522843
0
LINE
5
2DB
100
AcDbEntity
8
0
100
AcDbLine
62
7
6
CONTINUOUS
10
131.7670050761
20
171.3101522843
11
131.7670050761
21
172.3101522843
0
LINE
5
2DC
100
AcDbEntity
8
0
100
AcDbLine
62
7
6
CONTINUOUS
10
131.7670050761
20
192.7101522843
11
131.7670050761
21
193.7101522843
0
LINE
5
2DD
100
AcDbEntity
8
0
100
AcDbLine
62
7
6
CONTINUOUS
10
131.7670050761
20
214.1101522843
11
131.7670050761
21
215.1101522843
0
LINE
5
2DE
100
AcDbEntity
8
0
100
AcDbLine
62
7
6
CONTINUOUS
10
131.7670050761
20
235.5101522843
11
131.7670050761
21
236.5101522843
0
LINE
5
2DF
100
AcDbEntity
8
0
100
AcDbLine
62
7
6
CONTINUOUS
10
131.7670050761
20
274.7101522843
11
131.7670050761
21
274.9101522843
0
LINE
5
2E0
100
AcDbEntity
8
DEFAULT_1
100
AcDbLine
62
2
6
CENTER
10
133.7670050761
20
276.6261013339
11
133.7670050761
21
256.9101522843
0
LINE
5
2E1
100
AcDbEntity
8
DEFAULT_1
100
AcDbLine
62
2
6
CENTER
10
133.7670050761
20
96.9101522843
11
133.7670050761
21
76.7091632430
0
LINE
5
2E2
100
AcDbEntity
8
DEFAULT_1
100
AcDbLine
62
2
6
CENTER
10
133.7670050761
20
254.1101522843
11
133.7670050761
21
99.7101522843
0
LINE
5
2E3
100
AcDbEntity
8
0
100
AcDbLine
62
7
6
CONTINUOUS
10
133.7670050761
20
96.9101522843
11
133.7670050761
21
99.7101522843
0
LINE
5
2E4
100
AcDbEntity
8
0
100
AcDbLine
62
7
6
CONTINUOUS
10
133.7670050761
20
254.1101522843
11
133.7670050761
21
256.9101522843
0
LINE
5
2E5
100
AcDbEntity
8
0
100
AcDbLine
62
7
6
CONTINUOUS
10
135.5664466042
20
96.9101522843
11
135.5664466042
21
94.9101522843
0
LINE
5
2E6
100
AcDbEntity
8
0
100
AcDbLine
62
7
6
CONTINUOUS
10
135.5664466042
20
256.9101522843
11
135.5664466042
21
258.9101522843
0
LINE
5
2E7
100
AcDbEntity
8
0
100
AcDbLine
62
7
6
CONTINUOUS
10
135.7670050761
20
78.9101522843
11
135.7670050761
21
79.1101522843
0
LINE
5
2E8
100
AcDbEntity
8
0
100
AcDbLine
62
7
6
CONTINUOUS
10
135.7670050761
20
107.1101522843
11
135.7670050761
21
108.1101522843
0
LINE
5
2E9
100
AcDbEntity
8
0
100
AcDbLine
62
7
6
CONTINUOUS
10
135.7670050761
20
128.5101522843
11
135.7670050761
21
129.5101522843
0
LINE
5
2EA
100
AcDbEntity
8
0
100
AcDbLine
62
7
6
CONTINUOUS
10
135.7670050761
20
149.9101522843
11
135.7670050761
21
150.9101522843
0
LINE
5
2EB
100
AcDbEntity
8
0
100
AcDbLine
62
7
6
CONTINUOUS
10
135.7670050761
20
171.3101522843
11
135.7670050761
21
172.3101522843
0
LINE
5
2EC
100
AcDbEntity
8
0
100
AcDbLine
62
7
6
CONTINUOUS
10
135.7670050761
20
192.7101522843
11
135.7670050761
21
193.7101522843
0
LINE
5
2ED
100
AcDbEntity
8
0
100
AcDbLine
62
7
6
CONTINUOUS
10
135.7670050761
20
214.1101522843
11
135.7670050761
21
215.1101522843
0
LINE
5
2EE
100
AcDbEntity
8
0
100
AcDbLine
62
7
6
CONTINUOUS
10
135.7670050761
20
235.5101522843
11
135.7670050761
21
236.5101522843
0
LINE
5
2EF
100
AcDbEntity
8
0
100
AcDbLine
62
7
6
CONTINUOUS
10
135.7670050761
20
274.7101522843
11
135.7670050761
21
274.9101522843
0
LINE
5
2F0
100
AcDbEntity
8
0
100
AcDbLine
62
7
6
CONTINUOUS
10
135.9174119339
20
99.7101522843
11
135.9174119339
21
107.1101522843
0
LINE
5
2F1
100
AcDbEntity
8
0
100
AcDbLine
62
7
6
CONTINUOUS
10
135.9174119339
20
118.3101522843
11
135.9174119339
21
128.5101522843
0
LINE
5
2F2
100
AcDbEntity
8
0
100
AcDbLine
62
7
6
CONTINUOUS
10
135.9174119339
20
139.7101522843
11
135.9174119339
21
149.9101522843
0
LINE
5
2F3
100
AcDbEntity
8
0
100
AcDbLine
62
7
6
CONTINUOUS
10
135.9174119339
20
161.1101522843
11
135.9174119339
21
171.3101522843
0
LINE
5
2F4
100
AcDbEntity
8
0
100
AcDbLine
62
7
6
CONTINUOUS
10
135.9174119339
20
182.5101522843
11
135.9174119339
21
192.7101522843
0
LINE
5
2F5
100
AcDbEntity
8
0
100
AcDbLine
62
7
6
CONTINUOUS
10
135.9174119339
20
203.9101522843
11
135.9174119339
21
214.1101522843
0
LINE
5
2F6
100
AcDbEntity
8
0
100
AcDbLine
62
7
6
CONTINUOUS
10
135.9174119339
20
225.3101522843
11
135.9174119339
21
235.5101522843
0
LINE
5
2F7
100
AcDbEntity
8
0
100
AcDbLine
62
7
6
CONTINUOUS
10
135.9174119339
20
246.7101522843
11
135.9174119339
21
254.1101522843
0
LINE
5
2F8
100
AcDbEntity
8
0
100
AcDbLine
62
7
6
CONTINUOUS
10
136.3346463871
20
258.5101522843
11
136.3346463871
21
256.9101522843
0
LINE
5
2F9
100
AcDbEntity
8
0
100
AcDbLine
62
7
6
CONTINUOUS
10
136.3346463871
20
96.9101522843
11
136.3346463871
21
95.3101522843
0
LINE
5
2FA
100
AcDbEntity
8
0
100
AcDbLine
62
7
6
CONTINUOUS
10
137.3670050761
20
108.1101522843
11
137.3670050761
21
118.3101522843
0
LINE
5
2FB
100
AcDbEntity
8
0
100
AcDbLine
62
7
6
CONTINUOUS
10
137.3670050761
20
129.5101522843
11
137.3670050761
21
139.7101522843
0
LINE
5
2FC
100
AcDbEntity
8
0
100
AcDbLine
62
7
6
CONTINUOUS
10
137.3670050761
20
150.9101522843
11
137.3670050761
21
161.1101522843
0
LINE
5
2FD
100
AcDbEntity
8
0
100
AcDbLine
62
7
6
CONTINUOUS
10
137.3670050761
20
172.3101522843
11
137.3670050761
21
182.5101522843
0
LINE
5
2FE
100
AcDbEntity
8
0
100
AcDbLine
62
7
6
CONTINUOUS
10
137.3670050761
20
193.7101522843
11
137.3670050761
21
203.9101522843
0
LINE
5
2FF
100
AcDbEntity
8
0
100
AcDbLine
62
7
6
CONTINUOUS
10
137.3670050761
20
215.1101522843
11
137.3670050761
21
225.3101522843
0
LINE
5
300
100
AcDbEntity
8
0
100
AcDbLine
62
7
6
CONTINUOUS
10
137.3670050761
20
236.5101522843
11
137.3670050761
21
246.7101522843
0
LINE
5
301
100
AcDbEntity
8
0
100
AcDbLine
62
7
6
CONTINUOUS
10
138.1670050761
20
107.1101522843
11
138.1670050761
21
118.3101522843
0
LINE
5
302
100
AcDbEntity
8
0
100
AcDbLine
62
7
6
CONTINUOUS
10
138.1670050761
20
128.5101522843
11
138.1670050761
21
139.7101522843
0
LINE
5
303
100
AcDbEntity
8
0
100
AcDbLine
62
7
6
CONTINUOUS
10
138.1670050761
20
149.9101522843
11
138.1670050761
21
161.1101522843
0
LINE
5
304
100
AcDbEntity
8
0
100
AcDbLine
62
7
6
CONTINUOUS
10
138.1670050761
20
171.3101522843
11
138.1670050761
21
182.5101522843
0
LINE
5
305
100
AcDbEntity
8
0
100
AcDbLine
62
7
6
CONTINUOUS
10
138.1670050761
20
192.7101522843
11
138.1670050761
21
203.9101522843
0
LINE
5
306
100
AcDbEntity
8
0
100
AcDbLine
62
7
6
CONTINUOUS
10
138.1670050761
20
214.1101522843
11
138.1670050761
21
225.3101522843
0
LINE
5
307
100
AcDbEntity
8
0
100
AcDbLine
62
7
6
CONTINUOUS
10
138.1670050761
20
235.5101522843
11
138.1670050761
21
246.7101522843
0
LINE
5
308
100
AcDbEntity
8
0
100
AcDbLine
62
7
6
CONTINUOUS
10
138.5670050761
20
274.7101522843
11
138.5670050761
21
274.5101522843
0
LINE
5
309
100
AcDbEntity
8
0
100
AcDbLine
62
7
6
CONTINUOUS
10
138.5670050761
20
261.1101522843
11
138.5670050761
21
260.9101522843
0
LINE
5
30A
100
AcDbEntity
8
0
100
AcDbLine
62
7
6
CONTINUOUS
10
138.5670050761
20
79.1101522843
11
138.5670050761
21
79.3101522843
0
LINE
5
30B
100
AcDbEntity
8
0
100
AcDbLine
62
7
6
CONTINUOUS
10
138.5670050761
20
92.7101522843
11
138.5670050761
21
92.9101522843
0
LINE
5
30C
100
AcDbEntity
8
0
100
AcDbLine
62
7
6
CONTINUOUS
10
140.5670050761
20
274.5101522843
11
140.5670050761
21
263.1101522843
0
LINE
5
30D
100
AcDbEntity
8
0
100
AcDbLine
62
7
6
CONTINUOUS
10
140.5670050761
20
79.3101522843
11
140.5670050761
21
90.7101522843
0
LINE
5
30E
100
AcDbEntity
8
0
100
AcDbLine
62
7
6
CONTINUOUS
10
141.1670050761
20
258.5101522843
11
141.1670050761
21
256.9101522843
0
LINE
5
30F
100
AcDbEntity
8
0
100
AcDbLine
62
7
6
CONTINUOUS
10
141.1670050761
20
96.9101522843
11
141.1670050761
21
95.3101522843
0
LINE
5
310
100
AcDbEntity
8
0
100
AcDbLine
62
7
6
CONTINUOUS
10
142.7670050761
20
263.1101522843
11
142.7670050761
21
261.1101522843
0
LINE
5
311
100
AcDbEntity
8
0
100
AcDbLine
62
7
6
CONTINUOUS
10
142.7670050761
20
96.9101522843
11
142.7670050761
21
94.9101522843
0
LINE
5
312
100
AcDbEntity
8
0
100
AcDbLine
62
7
6
CONTINUOUS
10
142.7670050761
20
90.7101522843
11
142.7670050761
21
92.7101522843
0
LINE
5
313
100
AcDbEntity
8
0
100
AcDbLine
62
7
6
CONTINUOUS
10
142.7670050761
20
256.9101522843
11
142.7670050761
21
258.9101522843
0
LINE
5
314
100
AcDbEntity
8
0
100
AcDbLine
62
7
6
CONTINUOUS
10
144.6070050761
20
93.3101522843
11
144.6070050761
21
95.3101522843
0
LINE
5
315
100
AcDbEntity
8
0
100
AcDbLine
62
7
6
CONTINUOUS
10
144.6070050761
20
258.5101522843
11
144.6070050761
21
260.9101522843
0
LINE
5
316
100
AcDbEntity
8
0
100
AcDbLine
62
7
6
CONTINUOUS
10
26.1670455778
20
203.9101522843
11
34.1670050761
21
203.9101522843
0
LINE
5
317
100
AcDbEntity
8
0
100
AcDbLine
62
7
6
CONTINUOUS
10
78.1670455778
20
203.9101522843
11
86.1670050761
21
203.9101522843
0
LINE
5
318
100
AcDbEntity
8
0
100
AcDbLine
62
7
6
CONTINUOUS
10
130.1670455778
20
203.9101522843
11
138.1670050761
21
203.9101522843
0
LINE
5
319
100
AcDbEntity
8
0
100
AcDbLine
62
7
6
CONTINUOUS
10
182.1670050761
20
203.9101522843
11
189.3667079661
21
203.9101522843
0
LINE
5
31A
100
AcDbEntity
8
0
100
AcDbLine
62
7
6
CONTINUOUS
10
145.0070050761
20
92.9101522843
11
145.0070050761
21
94.5101522843
0
LINE
5
31B
100
AcDbEntity
8
0
100
AcDbLine
62
7
6
CONTINUOUS
10
145.0070050761
20
259.3101522843
11
145.0070050761
21
260.5101522843
0
LINE
5
31C
100
AcDbEntity
8
0
100
AcDbLine
62
7
6
CONTINUOUS
10
141.1670050761
20
95.3101522843
11
141.1591986958
21
95.2316114214
0
LINE
5
31D
100
AcDbEntity
8
0
100
AcDbLine
62
7
6
CONTINUOUS
10
26.1670437816
20
214.1101522843
11
34.1670050761
21
214.1101522843
0
LINE
5
31E
100
AcDbEntity
8
0
100
AcDbLine
62
7
6
CONTINUOUS
10
78.1670437816
20
214.1101522843
11
86.1670050761
21
214.1101522843
0
LINE
5
31F
100
AcDbEntity
8
0
100
AcDbLine
62
7
6
CONTINUOUS
10
130.1670437816
20
214.1101522843
11
138.1670050761
21
214.1101522843
0
LINE
5
320
100
AcDbEntity
8
0
100
AcDbLine
62
7
6
CONTINUOUS
10
189.3667053165
20
215.1101522843
11
182.1670050761
21
215.1101522843
0
LINE
5
321
100
AcDbEntity
8
0
100
AcDbLine
62
7
6
CONTINUOUS
10
137.3667053165
20
215.1101522843
11
130.1670050761
21
215.1101522843
0
LINE
5
322
100
AcDbEntity
8
0
100
AcDbLine
62
7
6
CONTINUOUS
10
85.3667053165
20
215.1101522843
11
78.1670050761
21
215.1101522843
0
LINE
5
323
100
AcDbEntity
8
0
100
AcDbLine
62
7
6
CONTINUOUS
10
26.1670455778
20
225.3101522843
11
34.1670050761
21
225.3101522843
0
LINE
5
324
100
AcDbEntity
8
0
100
AcDbLine
62
7
6
CONTINUOUS
10
78.1670455778
20
225.3101522843
11
86.1670050761
21
225.3101522843
0
LINE
5
325
100
AcDbEntity
8
0
100
AcDbLine
62
7
6
CONTINUOUS
10
130.1670455778
20
225.3101522843
11
138.1670050761
21
225.3101522843
0
LINE
5
326
100
AcDbEntity
8
0
100
AcDbLine
62
7
6
CONTINUOUS
10
182.1670050761
20
225.3101522843
11
189.3667079661
21
225.3101522843
0
LINE
5
327
100
AcDbEntity
8
0
100
AcDbLine
62
7
6
CONTINUOUS
10
26.1670437816
20
235.5101522843
11
34.1670050761
21
235.5101522843
0
LINE
5
328
100
AcDbEntity
8
0
100
AcDbLine
62
7
6
CONTINUOUS
10
78.1670437816
20
235.5101522843
11
86.1670050761
21
235.5101522843
0
LINE
5
329
100
AcDbEntity
8
0
100
AcDbLine
62
7
6
CONTINUOUS
10
130.1670437816
20
235.5101522843
11
138.1670050761
21
235.5101522843
0
LINE
5
32A
100
AcDbEntity
8
0
100
AcDbLine
62
7
6
CONTINUOUS
10
189.3667053165
20
236.5101522843
11
182.1670050761
21
236.5101522843
0
LINE
5
32B
100
AcDbEntity
8
0
100
AcDbLine
62
7
6
CONTINUOUS
10
137.3667053165
20
236.5101522843
11
130.1670050761
21
236.5101522843
0
LINE
5
32C
100
AcDbEntity
8
0
100
AcDbLine
62
7
6
CONTINUOUS
10
85.3667053165
20
236.5101522843
11
78.1670050761
21
236.5101522843
0
LINE
5
32D
100
AcDbEntity
8
0
100
AcDbLine
62
7
6
CONTINUOUS
10
174.4997959325
20
99.7101522843
11
174.4997959325
21
254.1101522843
0
LINE
5
32E
100
AcDbEntity
8
0
100
AcDbLine
62
7
6
CONTINUOUS
10
26.1670455778
20
246.7101522843
11
34.1670050761
21
246.7101522843
0
LINE
5
32F
100
AcDbEntity
8
0
100
AcDbLine
62
7
6
CONTINUOUS
10
78.1670455778
20
246.7101522843
11
86.1670050761
21
246.7101522843
0
LINE
5
330
100
AcDbEntity
8
0
100
AcDbLine
62
7
6
CONTINUOUS
10
130.1670455778
20
246.7101522843
11
138.1670050761
21
246.7101522843
0
LINE
5
331
100
AcDbEntity
8
0
100
AcDbLine
62
7
6
CONTINUOUS
10
182.1670050761
20
246.7101522843
11
189.3667079661
21
246.7101522843
0
LINE
5
332
100
AcDbEntity
8
0
100
AcDbLine
62
7
6
CONTINUOUS
10
181.3670050761
20
98.5101522843
11
181.3670050761
21
96.9101522843
0
LINE
5
333
100
AcDbEntity
8
0
100
AcDbLine
62
7
6
CONTINUOUS
10
181.3670050761
20
255.3101522843
11
181.3670050761
21
256.9101522843
0
LINE
5
334
100
AcDbEntity
8
0
100
AcDbLine
62
7
6
CONTINUOUS
10
182.1670050761
20
99.7101522843
11
182.1670050761
21
254.1101522843
0
LINE
5
335
100
AcDbEntity
8
0
100
AcDbLine
62
7
6
CONTINUOUS
10
183.7670050761
20
98.1101522843
11
183.7670050761
21
108.1101522843
0
LINE
5
336
100
AcDbEntity
8
0
100
AcDbLine
62
7
6
CONTINUOUS
10
183.7670050761
20
118.3101522843
11
183.7670050761
21
129.5101522843
0
LINE
5
337
100
AcDbEntity
8
0
100
AcDbLine
62
7
6
CONTINUOUS
10
183.7670050761
20
139.7101522843
11
183.7670050761
21
150.9101522843
0
LINE
5
338
100
AcDbEntity
8
0
100
AcDbLine
62
7
6
CONTINUOUS
10
183.7670050761
20
161.1101522843
11
183.7670050761
21
172.3101522843
0
LINE
5
339
100
AcDbEntity
8
0
100
AcDbLine
62
7
6
CONTINUOUS
10
183.7670050761
20
182.5101522843
11
183.7670050761
21
193.7101522843
0
LINE
5
33A
100
AcDbEntity
8
0
100
AcDbLine
62
7
6
CONTINUOUS
10
183.7670050761
20
203.9101522843
11
183.7670050761
21
215.1101522843
0
LINE
5
33B
100
AcDbEntity
8
0
100
AcDbLine
62
7
6
CONTINUOUS
10
183.7670050761
20
225.3101522843
11
183.7670050761
21
236.5101522843
0
LINE
5
33C
100
AcDbEntity
8
0
100
AcDbLine
62
7
6
CONTINUOUS
10
183.7670050761
20
246.7101522843
11
183.7670050761
21
255.7101522843
0
LINE
5
33D
100
AcDbEntity
8
0
100
AcDbLine
62
7
6
CONTINUOUS
10
187.5664466042
20
96.9101522843
11
187.5664466042
21
94.9101522843
0
LINE
5
33E
100
AcDbEntity
8
0
100
AcDbLine
62
7
6
CONTINUOUS
10
187.5664466042
20
256.9101522843
11
187.5664466042
21
258.9101522843
0
LINE
5
33F
100
AcDbEntity
8
0
100
AcDbLine
62
7
6
CONTINUOUS
10
29.7670050761
20
254.1101522843
11
78.1670050761
21
254.1101522843
0
LINE
5
340
100
AcDbEntity
8
0
100
AcDbLine
62
7
6
CONTINUOUS
10
81.7670050761
20
254.1101522843
11
130.1670050761
21
254.1101522843
0
LINE
5
341
100
AcDbEntity
8
0
100
AcDbLine
62
7
6
CONTINUOUS
10
133.7670050761
20
254.1101522843
11
182.1670050761
21
254.1101522843
0
LINE
5
342
100
AcDbEntity
8
0
100
AcDbLine
62
7
6
CONTINUOUS
10
32.9692773062
20
255.3101522843
11
77.3670050761
21
255.3101522843
0
LINE
5
343
100
AcDbEntity
8
0
100
AcDbLine
62
7
6
CONTINUOUS
10
84.9692773062
20
255.3101522843
11
129.3670050761
21
255.3101522843
0
LINE
5
344
100
AcDbEntity
8
0
100
AcDbLine
62
7
6
CONTINUOUS
10
136.9692773062
20
255.3101522843
11
181.3670050761
21
255.3101522843
0
LINE
5
345
100
AcDbEntity
8
0
100
AcDbLine
62
7
6
CONTINUOUS
10
188.3346463871
20
258.5101522843
11
188.3346463871
21
256.9101522843
0
LINE
5
346
100
AcDbEntity
8
0
100
AcDbLine
62
7
6
CONTINUOUS
10
188.3346463871
20
96.9101522843
11
188.3346463871
21
95.3101522843
0
LINE
5
347
100
AcDbEntity
8
0
100
AcDbLine
62
7
6
CONTINUOUS
10
189.3670050761
20
108.1101522843
11
189.3670050761
21
118.3101522843
0
LINE
5
348
100
AcDbEntity
8
0
100
AcDbLine
62
7
6
CONTINUOUS
10
189.3670050761
20
129.5101522843
11
189.3670050761
21
139.7101522843
0
LINE
5
349
100
AcDbEntity
8
0
100
AcDbLine
62
7
6
CONTINUOUS
10
189.3670050761
20
150.9101522843
11
189.3670050761
21
161.1101522843
0
LINE
5
34A
100
AcDbEntity
8
0
100
AcDbLine
62
7
6
CONTINUOUS
10
189.3670050761
20
172.3101522843
11
189.3670050761
21
182.5101522843
0
LINE
5
34B
100
AcDbEntity
8
0
100
AcDbLine
62
7
6
CONTINUOUS
10
189.3670050761
20
193.7101522843
11
189.3670050761
21
203.9101522843
0
LINE
5
34C
100
AcDbEntity
8
0
100
AcDbLine
62
7
6
CONTINUOUS
10
189.3670050761
20
215.1101522843
11
189.3670050761
21
225.3101522843
0
LINE
5
34D
100
AcDbEntity
8
0
100
AcDbLine
62
7
6
CONTINUOUS
10
189.3670050761
20
236.5101522843
11
189.3670050761
21
246.7101522843
0
LINE
5
34E
100
AcDbEntity
8
0
100
AcDbLine
62
7
6
CONTINUOUS
10
193.1670050761
20
258.5101522843
11
193.1670050761
21
256.9101522843
0
LINE
5
34F
100
AcDbEntity
8
0
100
AcDbLine
62
7
6
CONTINUOUS
10
193.1670050761
20
96.9101522843
11
193.1670050761
21
95.3101522843
0
LINE
5
350
100
AcDbEntity
8
0
100
AcDbLine
62
7
6
CONTINUOUS
10
26.1672265092
20
256.9101522843
11
193.1670050761
21
256.9101522843
0
LINE
5
351
100
AcDbEntity
8
0
100
AcDbLine
62
7
6
CONTINUOUS
10
193.1670050761
20
258.5101522843
11
144.6070050761
21
258.5101522843
0
LINE
5
352
100
AcDbEntity
8
0
100
AcDbLine
62
7
6
CONTINUOUS
10
141.1670050761
20
258.5101522843
11
92.6070050761
21
258.5101522843
0
LINE
5
353
100
AcDbEntity
8
0
100
AcDbLine
62
7
6
CONTINUOUS
10
89.1670050761
20
258.5101522843
11
40.6070050761
21
258.5101522843
0
LINE
5
354
100
AcDbEntity
8
0
100
AcDbLine
62
7
6
CONTINUOUS
10
192.7666519270
20
258.9101522843
11
145.4070050761
21
258.9101522843
0
LINE
5
355
100
AcDbEntity
8
0
100
AcDbLine
62
7
6
CONTINUOUS
10
25.7670050761
20
258.9101522843
11
38.7670050761
21
258.9101522843
0
LINE
5
356
100
AcDbEntity
8
0
100
AcDbLine
62
7
6
CONTINUOUS
10
41.4070050761
20
258.9101522843
11
90.7670050761
21
258.9101522843
0
LINE
5
357
100
AcDbEntity
8
0
100
AcDbLine
62
7
6
CONTINUOUS
10
93.4070050761
20
258.9101522843
11
142.7670050761
21
258.9101522843
0
LINE
5
358
100
AcDbEntity
8
0
100
AcDbLine
62
7
6
CONTINUOUS
10
25.7670050761
20
260.5101522843
11
41.0070050761
21
260.5101522843
0
LINE
5
359
100
AcDbEntity
8
0
100
AcDbLine
62
7
6
CONTINUOUS
10
77.7670050761
20
260.5101522843
11
93.0070050761
21
260.5101522843
0
LINE
5
35A
100
AcDbEntity
8
0
100
AcDbLine
62
7
6
CONTINUOUS
10
129.7670050761
20
260.5101522843
11
145.0070050761
21
260.5101522843
0
LINE
5
35B
100
AcDbEntity
8
0
100
AcDbLine
62
7
6
CONTINUOUS
10
26.1670050761
20
260.9101522843
11
40.6070050761
21
260.9101522843
0
LINE
5
35C
100
AcDbEntity
8
0
100
AcDbLine
62
7
6
CONTINUOUS
10
76.9670050761
20
260.9101522843
11
92.6070050761
21
260.9101522843
0
LINE
5
35D
100
AcDbEntity
8
0
100
AcDbLine
62
7
6
CONTINUOUS
10
128.9670050761
20
260.9101522843
11
144.6070050761
21
260.9101522843
0
LINE
5
35E
100
AcDbEntity
8
0
100
AcDbLine
62
7
6
CONTINUOUS
10
72.7670050761
20
261.1101522843
11
90.7670050761
21
261.1101522843
0
LINE
5
35F
100
AcDbEntity
8
0
100
AcDbLine
62
7
6
CONTINUOUS
10
124.7670050761
20
261.1101522843
11
142.7670050761
21
261.1101522843
0
LINE
5
360
100
AcDbEntity
8
0
100
AcDbLine
62
7
6
CONTINUOUS
10
72.7670050761
20
263.1101522843
11
90.7670050761
21
263.1101522843
0
LINE
5
361
100
AcDbEntity
8
0
100
AcDbLine
62
7
6
CONTINUOUS
10
124.7670050761
20
263.1101522843
11
142.7670050761
21
263.1101522843
0
LINE
5
362
100
AcDbEntity
8
0
100
AcDbLine
62
7
6
CONTINUOUS
10
193.1670050761
20
95.3101522843
11
193.1591986958
21
95.2316114214
0
LINE
5
363
100
AcDbEntity
8
0
100
AcDbLine
62
7
6
CONTINUOUS
10
74.9670050761
20
274.5101522843
11
88.5670050761
21
274.5101522843
0
LINE
5
364
100
AcDbEntity
8
0
100
AcDbLine
62
7
6
CONTINUOUS
10
126.9670050761
20
274.5101522843
11
140.5670050761
21
274.5101522843
0
LINE
5
365
100
AcDbEntity
8
0
100
AcDbLine
62
7
6
CONTINUOUS
10
76.9670050761
20
274.7101522843
11
86.5670050761
21
274.7101522843
0
LINE
5
366
100
AcDbEntity
8
0
100
AcDbLine
62
7
6
CONTINUOUS
10
128.9670050761
20
274.7101522843
11
138.5670050761
21
274.7101522843
0
LINE
5
367
100
AcDbEntity
8
0
100
AcDbLine
62
7
6
CONTINUOUS
10
79.7670050761
20
274.9101522843
11
83.7670050761
21
274.9101522843
0
LINE
5
368
100
AcDbEntity
8
0
100
AcDbLine
62
7
6
CONTINUOUS
10
131.7670050761
20
274.9101522843
11
135.7670050761
21
274.9101522843
0
LINE
5
369
100
AcDbEntity
8
0
100
AcDbLine
62
7
6
CONTINUOUS
10
25.7670050761
20
31.1675266743
11
25.7670050761
21
15.1675266743
0
LINE
5
36A
100
AcDbEntity
8
0
100
AcDbLine
62
7
6
CONTINUOUS
10
26.1670050761
20
31.1675266743
11
26.1670050761
21
15.1675266743
0
LINE
5
36B
100
AcDbEntity
8
0
100
AcDbLine
62
7
6
CONTINUOUS
10
26.9670050761
20
14.3675266743
11
26.9670050761
21
13.9675266743
0
LINE
5
36C
100
AcDbEntity
8
0
100
AcDbLine
62
7
6
CONTINUOUS
10
30.5670050761
20
35.5675266743
11
30.5670050762
21
35.9675266743
0
LINE
5
36D
100
AcDbEntity
8
0
100
AcDbLine
62
7
6
CONTINUOUS
10
40.6070050761
20
35.9675266743
11
40.6070050761
21
13.9675266743
0
LINE
5
36E
100
AcDbEntity
8
0
100
AcDbLine
62
7
6
CONTINUOUS
10
41.0070050761
20
35.5675266743
11
41.0070050761
21
14.3675266743
0
LINE
5
36F
100
AcDbEntity
8
0
100
AcDbLine
62
7
6
CONTINUOUS
10
41.4070050761
20
14.3675266743
11
41.4070050761
21
35.5675266743
0
LINE
5
370
100
AcDbEntity
8
0
100
AcDbLine
62
7
6
CONTINUOUS
10
69.5440595512
20
57.7002732600
11
40.3653333283
21
35.9675266743
0
LINE
5
371
100
AcDbEntity
8
0
100
AcDbLine
62
7
6
CONTINUOUS
10
70.2608618371
20
56.7378832752
11
42.3742554931
21
35.9675266743
0
LINE
5
372
100
AcDbEntity
8
0
100
AcDbLine
62
7
6
CONTINUOUS
10
77.7670050761
20
22.5095773267
11
77.7670050761
21
15.1675266743
0
LINE
5
373
100
AcDbEntity
8
0
100
AcDbLine
62
7
6
CONTINUOUS
10
78.1670050761
20
22.3216494559
11
78.1670050761
21
15.1675266743
0
LINE
5
374
100
AcDbEntity
8
0
100
AcDbLine
62
7
6
CONTINUOUS
10
78.5670050761
20
38.9791280126
11
78.5670050761
21
52.5675266743
0
LINE
5
375
100
AcDbEntity
8
0
100
AcDbLine
62
7
6
CONTINUOUS
10
78.9670050761
20
14.3675266743
11
78.9670050761
21
13.9675266743
0
LINE
5
376
100
AcDbEntity
8
0
100
AcDbLine
62
7
6
CONTINUOUS
10
79.7670050761
20
39.3390136010
11
79.7670050761
21
52.5675266743
0
LINE
5
377
100
AcDbEntity
8
DEFAULT_1
100
AcDbLine
62
2
6
CENTER
10
81.7670050761
20
30.5675266743
11
81.7670050761
21
17.8660872478
0
LINE
5
378
100
AcDbEntity
8
DEFAULT_1
100
AcDbLine
62
2
6
CENTER
10
81.7670050761
20
30.5675266743
11
81.7670050761
21
42.8327001469
0
LINE
5
379
100
AcDbEntity
8
0
100
AcDbLine
62
7
6
CONTINUOUS
10
26.9670050761
20
13.9675266743
11
187.5664466042
21
13.9675266743
0
LINE
5
37A
100
AcDbEntity
8
0
100
AcDbLine
62
7
6
CONTINUOUS
10
92.6070050761
20
35.9675266743
11
92.6070050761
21
13.9675266743
0
LINE
5
37B
100
AcDbEntity
8
0
100
AcDbLine
62
7
6
CONTINUOUS
10
26.9670050761
20
14.3675266743
11
78.0753352749
21
14.3675266743
0
LINE
5
37C
100
AcDbEntity
8
0
100
AcDbLine
62
7
6
CONTINUOUS
10
78.9670050761
20
14.3675266743
11
130.0753352749
21
14.3675266743
0
LINE
5
37D
100
AcDbEntity
8
0
100
AcDbLine
62
7
6
CONTINUOUS
10
130.9670050761
20
14.3675266743
11
187.5664466042
21
14.3675266743
0
LINE
5
37E
100
AcDbEntity
8
0
100
AcDbLine
62
7
6
CONTINUOUS
10
130.1670050761
20
15.1675266743
11
129.7670050761
21
15.1675266733
0
LINE
5
37F
100
AcDbEntity
8
0
100
AcDbLine
62
7
6
CONTINUOUS
10
78.1670050761
20
15.1675266743
11
77.7670050761
21
15.1675266733
0
LINE
5
380
100
AcDbEntity
8
0
100
AcDbLine
62
7
6
CONTINUOUS
10
26.1670050761
20
15.1675266743
11
25.7670050761
21
15.1675266733
0
LINE
5
381
100
AcDbEntity
8
0
100
AcDbLine
62
7
6
CONTINUOUS
10
70.2608618371
20
56.7378832752
11
69.5440595512
21
57.7002732600
0
LINE
5
382
100
AcDbEntity
8
0
100
AcDbLine
62
7
6
CONTINUOUS
10
93.0070050761
20
35.5675266743
11
93.0070050761
21
14.3675266743
0
LINE
5
383
100
AcDbEntity
8
0
100
AcDbLine
62
7
6
CONTINUOUS
10
93.4070050761
20
14.3675266743
11
93.4070050761
21
35.5675266743
0
LINE
5
384
100
AcDbEntity
8
0
100
AcDbLine
62
7
6
CONTINUOUS
10
121.5440595512
20
57.7002732600
11
92.3653333283
21
35.9675266743
0
LINE
5
385
100
AcDbEntity
8
0
100
AcDbLine
62
7
6
CONTINUOUS
10
122.2608618371
20
56.7378832752
11
94.3742554931
21
35.9675266743
0
LINE
5
386
100
AcDbEntity
8
DEFAULT_1
100
AcDbLine
62
2
6
CENTER
10
133.7670050761
20
30.5675266743
11
120.7920647273
21
30.5675266743
0
LINE
5
387
100
AcDbEntity
8
DEFAULT_1
100
AcDbLine
62
2
6
CENTER
10
81.7670050761
20
30.5675266743
11
69.7573707130
21
30.5675266743
0
LINE
5
388
100
AcDbEntity
8
DEFAULT_1
100
AcDbLine
62
2
6
CENTER
10
81.7670050761
20
30.5675266743
11
96.7433420083
21
30.5675266743
0
LINE
5
389
100
AcDbEntity
8
DEFAULT_1
100
AcDbLine
62
2
6
CENTER
10
133.7670050761
20
30.5675266743
11
142.8214290500
21
30.5675266743
0
LINE
5
38A
100
AcDbEntity
8
0
100
AcDbLine
62
7
6
CONTINUOUS
10
26.1670050761
20
31.1675266743
11
25.7670050761
21
31.1675266743
0
LINE
5
38B
100
AcDbEntity
8
0
100
AcDbLine
62
7
6
CONTINUOUS
10
141.2466368425
20
35.5675266743
11
188.3670050761
21
35.5675266743
0
LINE
5
38C
100
AcDbEntity
8
0
100
AcDbLine
62
7
6
CONTINUOUS
10
126.2873733098
20
35.5675266743
11
89.2466368425
21
35.5675266743
0
LINE
5
38D
100
AcDbEntity
8
0
100
AcDbLine
62
7
6
CONTINUOUS
10
74.2873733098
20
35.5675266743
11
30.5670050761
21
35.5675266743
0
LINE
5
38E
100
AcDbEntity
8
0
100
AcDbLine
62
7
6
CONTINUOUS
10
30.5670050761
20
35.9675266743
11
74.5716725135
21
35.9675266743
0
LINE
5
38F
100
AcDbEntity
8
0
100
AcDbLine
62
7
6
CONTINUOUS
10
88.9623376388
20
35.9675266743
11
126.5716725135
21
35.9675266743
0
LINE
5
390
100
AcDbEntity
8
0
100
AcDbLine
62
7
6
CONTINUOUS
10
140.9623376388
20
35.9675266743
11
188.3670050761
21
35.9675266743
0
LINE
5
391
100
AcDbEntity
8
0
100
AcDbLine
62
7
6
CONTINUOUS
10
188.3346463871
20
14.5442127839
11
187.9505464957
21
14.6558697291
0
LINE
5
392
100
AcDbEntity
8
0
100
AcDbLine
62
7
6
CONTINUOUS
10
78.5670050761
20
52.5675266743
11
79.7670050761
21
52.5675266743
0
LINE
5
393
100
AcDbEntity
8
0
100
AcDbLine
62
7
6
CONTINUOUS
10
130.5670050761
20
52.5675266743
11
131.7670050761
21
52.5675266743
0
LINE
5
394
100
AcDbEntity
8
0
100
AcDbLine
62
7
6
CONTINUOUS
10
182.5670050761
20
52.5675266743
11
183.7670050761
21
52.5675266743
0
LINE
5
395
100
AcDbEntity
8
0
100
AcDbLine
62
7
6
CONTINUOUS
10
129.7670050761
20
22.5095773267
11
129.7670050761
21
15.1675266743
0
LINE
5
396
100
AcDbEntity
8
0
100
AcDbLine
62
7
6
CONTINUOUS
10
130.1670050761
20
22.3216494559
11
130.1670050761
21
15.1675266743
0
LINE
5
397
100
AcDbEntity
8
0
100
AcDbLine
62
7
6
CONTINUOUS
10
130.5670050761
20
38.9791280126
11
130.5670050761
21
52.5675266743
0
LINE
5
398
100
AcDbEntity
8
0
100
AcDbLine
62
7
6
CONTINUOUS
10
130.9670050761
20
14.3675266743
11
130.9670050761
21
13.9675266743
0
LINE
5
399
100
AcDbEntity
8
0
100
AcDbLine
62
7
6
CONTINUOUS
10
131.7670050761
20
39.3390136010
11
131.7670050761
21
52.5675266743
0
LINE
5
39A
100
AcDbEntity
8
0
100
AcDbLine
62
7
6
CONTINUOUS
10
173.5440595512
20
57.7002732600
11
144.3653333283
21
35.9675266743
0
LINE
5
39B
100
AcDbEntity
8
0
100
AcDbLine
62
7
6
CONTINUOUS
10
174.2608618371
20
56.7378832752
11
146.3742554931
21
35.9675266743
0
LINE
5
39C
100
AcDbEntity
8
0
100
AcDbLine
62
7
6
CONTINUOUS
10
122.2608618371
20
56.7378832752
11
121.5440595512
21
57.7002732600
0
LINE
5
39D
100
AcDbEntity
8
DEFAULT_1
100
AcDbLine
62
2
6
CENTER
10
133.7670050761
20
30.5675266743
11
133.7670050761
21
16.0303068876
0
LINE
5
39E
100
AcDbEntity
8
DEFAULT_1
100
AcDbLine
62
2
6
CENTER
10
133.7670050761
20
30.5675266743
11
133.7670050761
21
41.3640758587
0
LINE
5
39F
100
AcDbEntity
8
0
100
AcDbLine
62
7
6
CONTINUOUS
10
144.6070050761
20
35.9675266743
11
144.6070050761
21
13.9675266743
0
LINE
5
3A0
100
AcDbEntity
8
0
100
AcDbLine
62
7
6
CONTINUOUS
10
145.0070050761
20
35.5675266743
11
145.0070050761
21
14.3675266743
0
LINE
5
3A1
100
AcDbEntity
8
0
100
AcDbLine
62
7
6
CONTINUOUS
10
145.4070050761
20
14.3675266743
11
145.4070050761
21
35.5675266743
0
LINE
5
3A2
100
AcDbEntity
8
0
100
AcDbLine
62
7
6
CONTINUOUS
10
174.2608618371
20
56.7378832752
11
173.5440595512
21
57.7002732600
0
LINE
5
3A3
100
AcDbEntity
8
0
100
AcDbLine
62
7
6
CONTINUOUS
10
182.5670050761
20
35.9675266743
11
182.5670050761
21
52.5675266743
0
LINE
5
3A4
100
AcDbEntity
8
0
100
AcDbLine
62
7
6
CONTINUOUS
10
183.7670050761
20
35.9675266743
11
183.7670050761
21
52.5675266743
0
LINE
5
3A5
100
AcDbEntity
8
0
100
AcDbLine
62
7
6
CONTINUOUS
10
187.5664466042
20
13.9675266743
11
187.5664466042
21
14.3675266743
0
LINE
5
3A6
100
AcDbEntity
8
0
100
AcDbLine
62
7
6
CONTINUOUS
10
188.3670050761
20
35.9675266743
11
188.3670050761
21
35.5675266743
0
LINE
5
3A7
100
AcDbEntity
8
0
100
AcDbLine
62
7
6
CONTINUOUS
10
192.7666519270
20
31.2232724131
11
187.9505464957
21
14.6558697291
0
LINE
5
3A8
100
AcDbEntity
8
0
100
AcDbLine
62
7
6
CONTINUOUS
10
193.1670050761
20
31.1675266743
11
188.3346463871
21
14.5442127839
0
ARC
5
3A9
100
AcDbEntity
8
0
100
AcDbCircle
62
7
6
CONTINUOUS
10
26.1670050761
20
260.5101522843
40
0.4000000000
100
AcDbArc
50
90.0000000000
51
180.0000000000
0
ARC
5
3AA
100
AcDbEntity
8
0
100
AcDbCircle
62
7
6
CONTINUOUS
10
40.6070050761
20
260.5101522843
40
0.4000000000
100
AcDbArc
50
0.0000000000
51
90.0000000000
0
ARC
5
3AB
100
AcDbEntity
8
0
100
AcDbCircle
62
7
6
CONTINUOUS
10
41.4070050761
20
259.3101522843
40
0.4000000000
100
AcDbArc
50
180.0000000000
51
270.0000000000
0
ARC
5
3AC
100
AcDbEntity
8
0
100
AcDbCircle
62
7
6
CONTINUOUS
10
130.1670050761
20
260.5101522843
40
0.4000000000
100
AcDbArc
50
90.0000000000
51
180.0000000000
0
ARC
5
3AD
100
AcDbEntity
8
0
100
AcDbCircle
62
7
6
CONTINUOUS
10
144.6070050761
20
260.5101522843
40
0.4000000000
100
AcDbArc
50
0.0000000000
51
90.0000000000
0
ARC
5
3AE
100
AcDbEntity
8
0
100
AcDbCircle
62
7
6
CONTINUOUS
10
145.4070050761
20
259.3101522843
40
0.4000000000
100
AcDbArc
50
180.0000000000
51
270.0000000000
0
ARC
5
3AF
100
AcDbEntity
8
0
100
AcDbCircle
62
7
6
CONTINUOUS
10
130.1670050761
20
93.3101522843
40
0.4000000000
100
AcDbArc
50
180.0000000000
51
270.0000000000
0
ARC
5
3B0
100
AcDbEntity
8
0
100
AcDbCircle
62
7
6
CONTINUOUS
10
192.7670050761
20
95.3101522843
40
0.4000000000
100
AcDbArc
50
348.6862763820
51
360.0000000000
0
ARC
5
3B1
100
AcDbEntity
8
0
100
AcDbCircle
62
7
6
CONTINUOUS
10
145.4070050761
20
94.5101522843
40
0.4000000000
100
AcDbArc
50
90.0000000000
51
180.0000000000
0
ARC
5
3B2
100
AcDbEntity
8
0
100
AcDbCircle
62
7
6
CONTINUOUS
10
26.1670050761
20
93.3101522843
40
0.4000000000
100
AcDbArc
50
180.0000000000
51
270.0000000000
0
ARC
5
3B3
100
AcDbEntity
8
0
100
AcDbCircle
62
7
6
CONTINUOUS
10
88.7670050761
20
95.3101522843
40
0.4000000000
100
AcDbArc
50
348.6862763820
51
360.0000000000
0
ARC
5
3B4
100
AcDbEntity
8
0
100
AcDbCircle
62
7
6
CONTINUOUS
10
41.4070050761
20
94.5101522843
40
0.4000000000
100
AcDbArc
50
90.0000000000
51
180.0000000000
0
ARC
5
3B5
100
AcDbEntity
8
0
100
AcDbCircle
62
7
6
CONTINUOUS
10
78.1670050761
20
93.3101522843
40
0.4000000000
100
AcDbArc
50
180.0000000000
51
270.0000000000
0
ARC
5
3B6
100
AcDbEntity
8
0
100
AcDbCircle
62
7
6
CONTINUOUS
10
140.7670050761
20
95.3101522843
40
0.4000000000
100
AcDbArc
50
348.6862763820
51
360.0000000000
0
ARC
5
3B7
100
AcDbEntity
8
0
100
AcDbCircle
62
7
6
CONTINUOUS
10
93.4070050761
20
94.5101522843
40
0.4000000000
100
AcDbArc
50
90.0000000000
51
180.0000000000
0
ARC
5
3B8
100
AcDbEntity
8
0
100
AcDbCircle
62
7
6
CONTINUOUS
10
78.1670050761
20
260.5101522843
40
0.4000000000
100
AcDbArc
50
90.0000000000
51
180.0000000000
0
ARC
5
3B9
100
AcDbEntity
8
0
100
AcDbCircle
62
7
6
CONTINUOUS
10
92.6070050761
20
260.5101522843
40
0.4000000000
100
AcDbArc
50
0.0000000000
51
90.0000000000
0
ARC
5
3BA
100
AcDbEntity
8
0
100
AcDbCircle
62
7
6
CONTINUOUS
10
93.4070050761
20
259.3101522843
40
0.4000000000
100
AcDbArc
50
180.0000000000
51
270.0000000000
0
ARC
5
3BB
100
AcDbEntity
8
0
100
AcDbCircle
62
7
6
CONTINUOUS
10
76.9670050761
20
99.7101522843
40
1.2000000000
100
AcDbArc
50
279.0594344891
51
360.0000000000
0
ARC
5
3BC
100
AcDbEntity
8
0
100
AcDbCircle
62
7
6
CONTINUOUS
10
76.9670050761
20
254.1101522843
40
1.2000000000
100
AcDbArc
50
0.0000000000
51
63.0158947333
0
ARC
5
3BD
100
AcDbEntity
8
0
100
AcDbCircle
62
7
6
CONTINUOUS
10
128.9670050761
20
99.7101522843
40
1.2000000000
100
AcDbArc
50
279.0594344891
51
360.0000000000
0
ARC
5
3BE
100
AcDbEntity
8
0
100
AcDbCircle
62
7
6
CONTINUOUS
10
128.9670050761
20
254.1101522843
40
1.2000000000
100
AcDbArc
50
0.0000000000
51
63.0158947333
0
ARC
5
3BF
100
AcDbEntity
8
0
100
AcDbCircle
62
7
6
CONTINUOUS
10
180.9670050761
20
99.7101522843
40
1.2000000000
100
AcDbArc
50
279.0594344891
51
360.0000000000
0
ARC
5
3C0
100
AcDbEntity
8
0
100
AcDbCircle
62
7
6
CONTINUOUS
10
180.9670050761
20
254.1101522843
40
1.2000000000
100
AcDbArc
50
0.0000000000
51
63.0158947333
0
ARC
5
3C1
100
AcDbEntity
8
0
100
AcDbCircle
62
7
6
CONTINUOUS
10
182.5670050761
20
98.1101522843
40
1.2000000000
100
AcDbArc
50
270.0000000000
51
360.0000000000
0
ARC
5
3C2
100
AcDbEntity
8
0
100
AcDbCircle
62
7
6
CONTINUOUS
10
182.5670050761
20
255.7101522843
40
1.2000000000
100
AcDbArc
50
0.0000000000
51
90.0000000000
0
CIRCLE
5
3C3
100
AcDbEntity
8
0
100
AcDbCircle
62
7
6
CONTINUOUS
10
133.7670050761
20
30.5675266743
40
2.0000000000
0
CIRCLE
5
3C4
100
AcDbEntity
8
0
100
AcDbCircle
62
7
6
CONTINUOUS
10
81.7670050761
20
30.5675266743
40
2.0000000000
0
CIRCLE
5
3C5
100
AcDbEntity
8
0
100
AcDbCircle
62
7
6
CONTINUOUS
10
81.7670050761
20
30.5675266743
40
4.8000000000
0
CIRCLE
5
3C6
100
AcDbEntity
8
0
100
AcDbCircle
62
7
6
CONTINUOUS
10
81.7670050761
20
30.5675266743
40
6.8000000000
0
CIRCLE
5
3C7
100
AcDbEntity
8
0
100
AcDbCircle
62
7
6
CONTINUOUS
10
81.7670050761
20
30.5675266743
40
9.0000000000
0
CIRCLE
5
3C8
100
AcDbEntity
8
0
100
AcDbCircle
62
7
6
CONTINUOUS
10
133.7670050761
20
30.5675266743
40
4.8000000000
0
CIRCLE
5
3C9
100
AcDbEntity
8
0
100
AcDbCircle
62
7
6
CONTINUOUS
10
133.7670050761
20
30.5675266743
40
6.8000000000
0
CIRCLE
5
3CA
100
AcDbEntity
8
0
100
AcDbCircle
62
7
6
CONTINUOUS
10
133.7670050761
20
30.5675266743
40
9.0000000000
0
CIRCLE
5
3CB
100
AcDbEntity
8
0
100
AcDbCircle
62
7
6
CONTINUOUS
10
185.7670050761
20
30.5675266743
40
2.0000000000
0
ARC
5
3CC
100
AcDbEntity
8
0
100
AcDbCircle
62
7
6
CONTINUOUS
10
144.6070050761
20
35.5675266743
40
0.4000000000
100
AcDbArc
50
0.0000000000
51
90.0000000000
0
ARC
5
3CD
100
AcDbEntity
8
0
100
AcDbCircle
62
7
6
CONTINUOUS
10
130.9670050761
20
15.1675266743
40
1.2000000000
100
AcDbArc
50
180.0000000000
51
270.0000000000
0
ARC
5
3CE
100
AcDbEntity
8
0
100
AcDbCircle
62
7
6
CONTINUOUS
10
144.6070050761
20
14.3675266743
40
0.4000000000
100
AcDbArc
50
270.0000000000
51
360.0000000000
0
ARC
5
3CF
100
AcDbEntity
8
0
100
AcDbCircle
62
7
6
CONTINUOUS
10
188.3670050761
20
31.1675266743
40
4.8000000000
100
AcDbArc
50
0.0000000000
51
90.0000000000
0
ARC
5
3D0
100
AcDbEntity
8
0
100
AcDbCircle
62
7
6
CONTINUOUS
10
187.5664466042
20
14.7675266743
40
0.8000000000
100
AcDbArc
50
270.0000000000
51
343.7909750722
0
ARC
5
3D1
100
AcDbEntity
8
0
100
AcDbCircle
62
7
6
CONTINUOUS
10
130.9670050761
20
15.1675266743
40
0.7999965569
100
AcDbArc
50
180.0000000000
51
270.0000000000
0
ARC
5
3D2
100
AcDbEntity
8
0
100
AcDbCircle
62
7
6
CONTINUOUS
10
187.5664466042
20
14.7675266743
40
0.3999990548
100
AcDbArc
50
270.0000000000
51
343.7909750722
0
ARC
5
3D3
100
AcDbEntity
8
0
100
AcDbCircle
62
7
6
CONTINUOUS
10
188.3670050761
20
31.1675266743
40
4.4000000000
100
AcDbArc
50
0.7259275026
51
90.0000000000
0
CIRCLE
5
3D4
100
AcDbEntity
8
0
100
AcDbCircle
62
7
6
CONTINUOUS
10
29.7670050761
20
30.5675266743
40
2.0000000000
0
ARC
5
3D5
100
AcDbEntity
8
0
100
AcDbCircle
62
7
6
CONTINUOUS
10
40.6070050761
20
35.5675266743
40
0.4000000000
100
AcDbArc
50
0.0000000000
51
90.0000000000
0
ARC
5
3D6
100
AcDbEntity
8
0
100
AcDbCircle
62
7
6
CONTINUOUS
10
26.9670050761
20
15.1675266743
40
1.2000000000
100
AcDbArc
50
180.0000000000
51
270.0000000000
0
ARC
5
3D7
100
AcDbEntity
8
0
100
AcDbCircle
62
7
6
CONTINUOUS
10
40.6070050761
20
14.3675266743
40
0.4000000000
100
AcDbArc
50
270.0000000000
51
360.0000000000
0
ARC
5
3D8
100
AcDbEntity
8
0
100
AcDbCircle
62
7
6
CONTINUOUS
10
30.5670050761
20
31.1675266743
40
4.8000000000
100
AcDbArc
50
90.0000000000
51
180.0000000000
0
ARC
5
3D9
100
AcDbEntity
8
0
100
AcDbCircle
62
7
6
CONTINUOUS
10
26.9670050761
20
15.1675266743
40
0.7999965569
100
AcDbArc
50
180.0000000000
51
270.0000000000
0
ARC
5
3DA
100
AcDbEntity
8
0
100
AcDbCircle
62
7
6
CONTINUOUS
10
30.5670050761
20
31.1675266743
40
4.3999984650
100
AcDbArc
50
90.0000000000
51
180.0000000000
0
ARC
5
3DB
100
AcDbEntity
8
0
100
AcDbCircle
62
7
6
CONTINUOUS
10
92.6070050761
20
35.5675266743
40
0.4000000000
100
AcDbArc
50
0.0000000000
51
90.0000000000
0
ARC
5
3DC
100
AcDbEntity
8
0
100
AcDbCircle
62
7
6
CONTINUOUS
10
78.9670050761
20
15.1675266743
40
1.2000000000
100
AcDbArc
50
180.0000000000
51
270.0000000000
0
ARC
5
3DD
100
AcDbEntity
8
0
100
AcDbCircle
62
7
6
CONTINUOUS
10
92.6070050761
20
14.3675266743
40
0.4000000000
100
AcDbArc
50
270.0000000000
51
360.0000000000
0
ARC
5
3DE
100
AcDbEntity
8
0
100
AcDbCircle
62
7
6
CONTINUOUS
10
78.9670050761
20
15.1675266743
40
0.7999965569
100
AcDbArc
50
180.0000000000
51
270.0000000000
0
ARC
5
3DF
100
AcDbEntity
8
0
100
AcDbCircle
62
7
6
CONTINUOUS
10
73.3670050761
20
52.5675266743
40
6.4000000000
100
AcDbArc
50
0.0000000000
51
126.6792855919
0
ARC
5
3E0
100
AcDbEntity
8
0
100
AcDbCircle
62
7
6
CONTINUOUS
10
73.3670050761
20
52.5675266743
40
5.1999958322
100
AcDbArc
50
0.0000000000
51
126.6792855919
0
ARC
5
3E1
100
AcDbEntity
8
0
100
AcDbCircle
62
7
6
CONTINUOUS
10
177.3670050761
20
52.5675266743
40
6.4000000000
100
AcDbArc
50
0.0000000000
51
126.6792855919
0
ARC
5
3E2
100
AcDbEntity
8
0
100
AcDbCircle
62
7
6
CONTINUOUS
10
177.3670050761
20
52.5675266743
40
5.1999958322
100
AcDbArc
50
0.0000000000
51
126.6792855919
0
ARC
5
3E3
100
AcDbEntity
8
0
100
AcDbCircle
62
7
6
CONTINUOUS
10
125.3670050761
20
52.5675266743
40
6.4000000000
100
AcDbArc
50
0.0000000000
51
126.6792855919
0
ARC
5
3E4
100
AcDbEntity
8
0
100
AcDbCircle
62
7
6
CONTINUOUS
10
125.3670050761
20
52.5675266743
40
5.1999958322
100
AcDbArc
50
0.0000000000
51
126.6792855919
0
SPLINE
5
3E5
100
AcDbEntity
8
0
100
AcDbSpline
62
7
6
CONTINUOUS
70
0
71
3
72
11
73
7
74
5
42
0.0000001000
43
0.0000001000
44
0.0000000001
12
0.0000000000
22
0.6246066174
32
0.0000000000
13
-0.6246066174
23
0.0000000000
33
0.0000000000
40
0.0000000000
40
0.0000000000
40
0.0000000000
40
0.0000000000
40
0.2512704860
40
0.5016882965
40
0.7512257469
40
1.0000000000
40
1.0000000000
40
1.0000000000
40
1.0000000000
10
89.1670050761
20
258.5101522843
30
0.0000000000
10
89.1670050761
20
258.5624673537
30
0.0000000000
10
89.1459857122
20
258.6680785264
30
0.0000000000
10
89.0563915006
20
258.8010852404
30
0.0000000000
10
88.9233206931
20
258.8895720755
30
0.0000000000
10
88.8184472753
20
258.9101522843
30
0.0000000000
10
88.7666519270
20
258.9101522843
30
0.0000000000
11
89.1670050761
21
258.5101522843
31
0.0000000000
11
89.1362134737
21
258.6640472992
31
0.0000000000
11
89.0489533040
21
258.7938570483
31
0.0000000000
11
88.9190952846
21
258.8800550146
31
0.0000000000
11
88.7666519270
21
258.9101522843
31
0.0000000000
0
SPLINE
5
3E6
100
AcDbEntity
8
0
100
AcDbSpline
62
7
6
CONTINUOUS
70
0
71
3
72
11
73
7
74
5
42
0.0000001000
43
0.0000001000
44
0.0000000001
12
0.0000000249
22
0.6119441252
32
0.0000000000
13
-0.6119441252
23
0.0000000000
33
0.0000000000
40
0.0000000000
40
0.0000000000
40
0.0000000000
40
0.0000000000
40
0.2546800283
40
0.5066443664
40
0.7547173981
40
1.0000000000
40
1.0000000000
40
1.0000000000
40
1.0000000000
10
84.3346463871
20
258.5101522843
30
0.0000000000
10
84.3346463892
20
258.5621022666
30
0.0000000000
10
84.3149267387
20
258.6665165205
30
0.0000000000
10
84.2300424211
20
258.7994082722
30
0.0000000000
10
84.1023745715
20
258.8890323064
30
0.0000000000
10
84.0005795781
20
258.9101522843
30
0.0000000000
10
83.9505464957
20
258.9101522843
30
0.0000000000
11
84.3346463871
21
258.5101522843
31
0.0000000000
11
84.3054050314
21
258.6632344489
31
0.0000000000
11
84.2221366926
21
258.7930048340
31
0.0000000000
11
84.0975258687
21
258.8797081069
31
0.0000000000
11
83.9505464957
21
258.9101522843
31
0.0000000000
0
SPLINE
5
3E7
100
AcDbEntity
8
0
100
AcDbSpline
62
7
6
CONTINUOUS
70
0
71
3
72
15
73
11
74
9
42
0.0000001000
43
0.0000001000
44
0.0000000001
12
0.8002703424
22
0.3994574380
32
0.0000000000
13
0.7996575992
23
0.4006829933
33
0.0000000000
40
0.0000000000
40
0.0000000000
40
0.0000000000
40
0.0000000000
40
0.2121054858
40
0.4064850832
40
0.5741369837
40
0.7171400495
40
0.8353075199
40
0.9252447047
40
0.9810588203
40
1.0000000000
40
1.0000000000
40
1.0000000000
40
1.0000000000
10
40.6070057893
20
258.5101522843
30
0.0000000000
10
40.6635863659
20
258.5383946556
30
0.0000000000
10
40.7719526132
20
258.5926520705
30
0.0000000000
10
40.9250676805
20
258.6691796368
30
0.0000000000
10
41.0597382594
20
258.7365279532
30
0.0000000000
10
41.1740910097
20
258.7937038730
30
0.0000000000
10
41.2677190407
20
258.8405194607
30
0.0000000000
10
41.3380976901
20
258.8757078810
30
0.0000000000
10
41.3820264814
20
258.8976452107
30
0.0000000000
10
41.4019562567
20
258.9076224814
30
0.0000000000
10
41.4070050761
20
258.9101522843
30
0.0000000000
11
40.6070057893
21
258.5101522843
31
0.0000000000
11
40.7766886140
21
258.5949973057
31
0.0000000000
11
40.9321923648
21
258.6727487233
31
0.0000000000
11
41.0663119946
21
258.7398130268
31
0.0000000000
11
41.1807136677
21
258.7970156094
31
0.0000000000
11
41.2752472727
21
258.8442831727
31
0.0000000000
11
41.3472007882
21
258.8802503828
31
0.0000000000
11
41.3918561791
21
258.9025677512
31
0.0000000000
11
41.4070050761
21
258.9101522843
31
0.0000000000
0
SPLINE
5
3E8
100
AcDbEntity
8
0
100
AcDbSpline
62
7
6
CONTINUOUS
70
0
71
3
72
15
73
11
74
9
42
0.0000001000
43
0.0000001000
44
0.0000000001
12
0.3994574750
22
0.8002704165
32
0.0000000000
13
0.3973968010
23
0.8012997486
33
0.0000000000
40
0.0000000000
40
0.0000000000
40
0.0000000000
40
0.0000000000
40
0.2121054810
40
0.4064852058
40
0.5741386324
40
0.7171490679
40
0.8353395897
40
0.9253048862
40
0.9809901611
40
1.0000000000
40
1.0000000000
40
1.0000000000
40
1.0000000000
10
40.6070050761
20
258.5101529973
30
0.0000000000
10
40.6352474494
20
258.5667335778
30
0.0000000000
10
40.6895047711
20
258.6750999250
30
0.0000000000
10
40.7660312209
20
258.8282161186
30
0.0000000000
10
40.8333793313
20
258.9628898216
30
0.0000000000
10
40.8905366809
20
259.0772625261
30
0.0000000000
10
40.9373696882
20
259.1709013469
30
0.0000000000
10
40.9724553891
20
259.2413055165
30
0.0000000000
10
40.9945559834
20
259.2851419074
30
0.0000000000
10
41.0044869264
20
259.3050747579
30
0.0000000000
10
41.0070050761
20
259.3101522843
30
0.0000000000
11
40.6070050761
21
258.5101529973
31
0.0000000000
11
40.6918497561
21
258.6798360075
31
0.0000000000
11
40.7696000104
21
258.8353404854
31
0.0000000000
11
40.8366589929
21
258.9694643174
31
0.0000000000
11
40.8938513173
21
259.0838785019
31
0.0000000000
11
40.9411081682
21
259.1784405228
31
0.0000000000
11
40.9770828012
21
259.2504184463
31
0.0000000000
11
40.9994259686
21
259.2949320362
31
0.0000000000
11
41.0070050761
21
259.3101522843
31
0.0000000000
0
SPLINE
5
3E9
100
AcDbEntity
8
0
100
AcDbSpline
62
7
6
CONTINUOUS
70
0
71
3
72
11
73
7
74
5
42
0.0000001000
43
0.0000001000
44
0.0000000001
12
0.0000000000
22
0.6246066174
32
0.0000000000
13
-0.6246066174
23
0.0000000000
33
0.0000000000
40
0.0000000000
40
0.0000000000
40
0.0000000000
40
0.0000000000
40
0.2512704860
40
0.5016882965
40
0.7512257469
40
1.0000000000
40
1.0000000000
40
1.0000000000
40
1.0000000000
10
193.1670050761
20
258.5101522843
30
0.0000000000
10
193.1670050761
20
258.5624673537
30
0.0000000000
10
193.1459857122
20
258.6680785264
30
0.0000000000
10
193.0563915006
20
258.8010852404
30
0.0000000000
10
192.9233206931
20
258.8895720755
30
0.0000000000
10
192.8184472753
20
258.9101522843
30
0.0000000000
10
192.7666519270
20
258.9101522843
30
0.0000000000
11
193.1670050761
21
258.5101522843
31
0.0000000000
11
193.1362134737
21
258.6640472992
31
0.0000000000
11
193.0489533040
21
258.7938570483
31
0.0000000000
11
192.9190952846
21
258.8800550146
31
0.0000000000
11
192.7666519270
21
258.9101522843
31
0.0000000000
0
SPLINE
5
3EA
100
AcDbEntity
8
0
100
AcDbSpline
62
7
6
CONTINUOUS
70
0
71
3
72
11
73
7
74
5
42
0.0000001000
43
0.0000001000
44
0.0000000001
12
0.0000000249
22
0.6119441252
32
0.0000000000
13
-0.6119441252
23
0.0000000000
33
0.0000000000
40
0.0000000000
40
0.0000000000
40
0.0000000000
40
0.0000000000
40
0.2546800283
40
0.5066443664
40
0.7547173981
40
1.0000000000
40
1.0000000000
40
1.0000000000
40
1.0000000000
10
188.3346463871
20
258.5101522843
30
0.0000000000
10
188.3346463892
20
258.5621022666
30
0.0000000000
10
188.3149267387
20
258.6665165205
30
0.0000000000
10
188.2300424211
20
258.7994082722
30
0.0000000000
10
188.1023745715
20
258.8890323064
30
0.0000000000
10
188.0005795781
20
258.9101522843
30
0.0000000000
10
187.9505464957
20
258.9101522843
30
0.0000000000
11
188.3346463871
21
258.5101522843
31
0.0000000000
11
188.3054050314
21
258.6632344489
31
0.0000000000
11
188.2221366926
21
258.7930048340
31
0.0000000000
11
188.0975258687
21
258.8797081069
31
0.0000000000
11
187.9505464957
21
258.9101522843
31
0.0000000000
0
SPLINE
5
3EB
100
AcDbEntity
8
0
100
AcDbSpline
62
7
6
CONTINUOUS
70
0
71
3
72
15
73
11
74
9
42
0.0000001000
43
0.0000001000
44
0.0000000001
12
0.8002703424
22
0.3994574380
32
0.0000000000
13
0.7996575992
23
0.4006829933
33
0.0000000000
40
0.0000000000
40
0.0000000000
40
0.0000000000
40
0.0000000000
40
0.2121054858
40
0.4064850832
40
0.5741369837
40
0.7171400495
40
0.8353075199
40
0.9252447047
40
0.9810588203
40
1.0000000000
40
1.0000000000
40
1.0000000000
40
1.0000000000
10
144.6070057893
20
258.5101522843
30
0.0000000000
10
144.6635863659
20
258.5383946556
30
0.0000000000
10
144.7719526132
20
258.5926520705
30
0.0000000000
10
144.9250676805
20
258.6691796368
30
0.0000000000
10
145.0597382594
20
258.7365279532
30
0.0000000000
10
145.1740910097
20
258.7937038730
30
0.0000000000
10
145.2677190407
20
258.8405194607
30
0.0000000000
10
145.3380976901
20
258.8757078810
30
0.0000000000
10
145.3820264814
20
258.8976452107
30
0.0000000000
10
145.4019562567
20
258.9076224814
30
0.0000000000
10
145.4070050761
20
258.9101522843
30
0.0000000000
11
144.6070057893
21
258.5101522843
31
0.0000000000
11
144.7766886140
21
258.5949973057
31
0.0000000000
11
144.9321923648
21
258.6727487233
31
0.0000000000
11
145.0663119946
21
258.7398130268
31
0.0000000000
11
145.1807136677
21
258.7970156094
31
0.0000000000
11
145.2752472727
21
258.8442831727
31
0.0000000000
11
145.3472007882
21
258.8802503828
31
0.0000000000
11
145.3918561791
21
258.9025677512
31
0.0000000000
11
145.4070050761
21
258.9101522843
31
0.0000000000
0
SPLINE
5
3EC
100
AcDbEntity
8
0
100
AcDbSpline
62
7
6
CONTINUOUS
70
0
71
3
72
15
73
11
74
9
42
0.0000001000
43
0.0000001000
44
0.0000000001
12
0.3994574750
22
0.8002704165
32
0.0000000000
13
0.3973968010
23
0.8012997486
33
0.0000000000
40
0.0000000000
40
0.0000000000
40
0.0000000000
40
0.0000000000
40
0.2121054810
40
0.4064852058
40
0.5741386324
40
0.7171490679
40
0.8353395897
40
0.9253048862
40
0.9809901611
40
1.0000000000
40
1.0000000000
40
1.0000000000
40
1.0000000000
10
144.6070050761
20
258.5101529973
30
0.0000000000
10
144.6352474494
20
258.5667335778
30
0.0000000000
10
144.6895047711
20
258.6750999250
30
0.0000000000
10
144.7660312209
20
258.8282161186
30
0.0000000000
10
144.8333793313
20
258.9628898216
30
0.0000000000
10
144.8905366809
20
259.0772625261
30
0.0000000000
10
144.9373696882
20
259.1709013469
30
0.0000000000
10
144.9724553891
20
259.2413055165
30
0.0000000000
10
144.9945559834
20
259.2851419074
30
0.0000000000
10
145.0044869264
20
259.3050747579
30
0.0000000000
10
145.0070050761
20
259.3101522843
30
0.0000000000
11
144.6070050761
21
258.5101529973
31
0.0000000000
11
144.6918497561
21
258.6798360075
31
0.0000000000
11
144.7696000104
21
258.8353404854
31
0.0000000000
11
144.8366589929
21
258.9694643174
31
0.0000000000
11
144.8938513173
21
259.0838785019
31
0.0000000000
11
144.9411081682
21
259.1784405228
31
0.0000000000
11
144.9770828012
21
259.2504184463
31
0.0000000000
11
144.9994259686
21
259.2949320362
31
0.0000000000
11
145.0070050761
21
259.3101522843
31
0.0000000000
0
SPLINE
5
3ED
100
AcDbEntity
8
0
100
AcDbSpline
62
7
6
CONTINUOUS
70
0
71
3
72
11
73
7
74
5
42
0.0000001000
43
0.0000001000
44
0.0000000001
12
-0.1080976208
22
-0.5394080386
32
0.0000000000
13
-0.5459064754
23
0.0000000000
33
0.0000000000
40
0.0000000000
40
0.0000000000
40
0.0000000000
40
0.0000000000
40
0.1433305334
40
0.4298496142
40
0.7153614186
40
1.0000000000
40
1.0000000000
40
1.0000000000
40
1.0000000000
10
193.1591633047
20
95.2316185138
30
0.0000000000
10
193.1539987415
20
95.2058472999
30
0.0000000000
10
193.1309584999
20
95.1299174566
30
0.0000000000
10
193.0563915006
20
95.0192193281
30
0.0000000000
10
192.9233206931
20
94.9307324931
30
0.0000000000
10
192.8184472753
20
94.9101522843
30
0.0000000000
10
192.7666519270
20
94.9101522843
30
0.0000000000
11
193.1591633047
21
95.2316185138
31
0.0000000000
11
193.1362134737
21
95.1562572693
31
0.0000000000
11
193.0489533040
21
95.0264475203
31
0.0000000000
11
192.9190952846
21
94.9402495539
31
0.0000000000
11
192.7666519270
21
94.9101522843
31
0.0000000000
0
SPLINE
5
3EE
100
AcDbEntity
8
0
100
AcDbSpline
62
7
6
CONTINUOUS
70
0
71
3
72
11
73
7
74
5
42
0.0000001000
43
0.0000001000
44
0.0000000001
12
0.0000000075
22
-0.6119441054
32
0.0000000000
13
-0.6119441054
23
-0.0000000000
33
0.0000000000
40
0.0000000000
40
0.0000000000
40
0.0000000000
40
0.0000000000
40
0.2546648569
40
0.5066225164
40
0.7547011940
40
1.0000000000
40
1.0000000000
40
1.0000000000
40
1.0000000000
10
188.3346463871
20
95.3101522843
30
0.0000000000
10
188.3346463877
20
95.2582053982
30
0.0000000000
10
188.3149288196
20
95.1537957973
30
0.0000000000
10
188.2300502761
20
95.0209046551
30
0.0000000000
10
188.1023825447
20
94.9312746992
30
0.0000000000
10
188.0005828818
20
94.9101522843
30
0.0000000000
10
187.9505464957
20
94.9101522843
30
0.0000000000
11
188.3346463871
21
95.3101522843
31
0.0000000000
11
188.3054085242
21
95.1570789095
31
0.0000000000
11
188.2221461326
21
95.0273095702
31
0.0000000000
11
188.0975351597
21
94.9406004709
31
0.0000000000
11
187.9505464957
21
94.9101522843
31
0.0000000000
0
SPLINE
5
3EF
100
AcDbEntity
8
0
100
AcDbSpline
62
7
6
CONTINUOUS
70
0
71
3
72
15
73
11
74
9
42
0.0000001000
43
0.0000001000
44
0.0000000001
12
0.3994574380
22
-0.8002703424
32
0.0000000000
13
0.4006829933
23
-0.7996575992
33
0.0000000000
40
0.0000000000
40
0.0000000000
40
0.0000000000
40
0.0000000000
40
0.2121054858
40
0.4064850832
40
0.5741369837
40
0.7171400495
40
0.8353075199
40
0.9252447047
40
0.9810588203
40
1.0000000000
40
1.0000000000
40
1.0000000000
40
1.0000000000
10
144.6070050761
20
95.3101515711
30
0.0000000000
10
144.6352474475
20
95.2535709945
30
0.0000000000
10
144.6895048624
20
95.1452047472
30
0.0000000000
10
144.7660324287
20
94.9920896799
30
0.0000000000
10
144.8333807451
20
94.8574191010
30
0.0000000000
10
144.8905566649
20
94.7430663507
30
0.0000000000
10
144.9373722526
20
94.6494383197
30
0.0000000000
10
144.9725606729
20
94.5790596703
30
0.0000000000
10
144.9944980025
20
94.5351308790
30
0.0000000000
10
145.0044752733
20
94.5152011037
30
0.0000000000
10
145.0070050761
20
94.5101522843
30
0.0000000000
11
144.6070050761
21
95.3101515711
31
0.0000000000
11
144.6918500976
21
95.1404687464
31
0.0000000000
11
144.7696015152
21
94.9849649956
31
0.0000000000
11
144.8366658186
21
94.8508453658
31
0.0000000000
11
144.8938684013
21
94.7364436927
31
0.0000000000
11
144.9411359646
21
94.6419100877
31
0.0000000000
11
144.9771031747
21
94.5699565722
31
0.0000000000
11
144.9994205430
21
94.5253011813
31
0.0000000000
11
145.0070050761
21
94.5101522843
31
0.0000000000
0
SPLINE
5
3F0
100
AcDbEntity
8
0
100
AcDbSpline
62
7
6
CONTINUOUS
70
0
71
3
72
13
73
9
74
7
42
0.0000001000
43
0.0000001000
44
0.0000000001
12
-0.4000000000
22
0.4000000000
32
0.0000000000
13
-0.4000000000
23
0.4000000000
33
0.0000000000
40
0.0000000000
40
0.0000000000
40
0.0000000000
40
0.0000000000
40
0.0529067781
40
0.1831006588
40
0.3600373173
40
0.5645616880
40
0.7825093358
40
1.0000000000
40
1.0000000000
40
1.0000000000
40
1.0000000000
10
145.0070050761
20
92.9101522843
30
0.0000000000
10
144.9999508391
20
92.9172065213
30
0.0000000000
10
144.9755374179
20
92.9416199425
30
0.0000000000
10
144.9275324422
20
92.9896249182
30
0.0000000000
10
144.8593117876
20
93.0578455728
30
0.0000000000
10
144.7793906307
20
93.1377667297
30
0.0000000000
10
144.6940622730
20
93.2230950874
30
0.0000000000
10
144.6360038314
20
93.2811535290
30
0.0000000000
10
144.6070050761
20
93.3101522843
30
0.0000000000
11
145.0070050761
21
92.9101522843
31
0.0000000000
11
144.9858423649
21
92.9313149955
31
0.0000000000
11
144.9337648126
21
92.9833925478
31
0.0000000000
11
144.8629901492
21
93.0541672112
31
0.0000000000
11
144.7811804009
21
93.1359769595
31
0.0000000000
11
144.6940013418
21
93.2231560186
31
0.0000000000
11
144.6070050761
21
93.3101522843
31
0.0000000000
0
SPLINE
5
3F1
100
AcDbEntity
8
0
100
AcDbSpline
62
7
6
CONTINUOUS
70
0
71
3
72
15
73
11
74
9
42
0.0000001000
43
0.0000001000
44
0.0000000001
12
0.8002704165
22
-0.3994574750
32
0.0000000000
13
0.8012997486
23
-0.3973968010
33
0.0000000000
40
0.0000000000
40
0.0000000000
40
0.0000000000
40
0.0000000000
40
0.2121054810
40
0.4064852058
40
0.5741386324
40
0.7171490679
40
0.8353395897
40
0.9253048862
40
0.9809901611
40
1.0000000000
40
1.0000000000
40
1.0000000000
40
1.0000000000
10
144.6070057892
20
95.3101522843
30
0.0000000000
10
144.6635863697
20
95.2819099110
30
0.0000000000
10
144.7719527169
20
95.2276525893
30
0.0000000000
10
144.9250689105
20
95.1511261395
30
0.0000000000
10
145.0597426134
20
95.0837780291
30
0.0000000000
10
145.1741153179
20
95.0266206795
30
0.0000000000
10
145.2677541387
20
94.9797876722
30
0.0000000000
10
145.3381583083
20
94.9447019713
30
0.0000000000
10
145.3819946993
20
94.9226013770
30
0.0000000000
10
145.4019275498
20
94.9126704340
30
0.0000000000
10
145.4070050761
20
94.9101522843
30
0.0000000000
11
144.6070057892
21
95.3101522843
31
0.0000000000
11
144.7766887994
21
95.2253076043
31
0.0000000000
11
144.9321932773
21
95.1475573500
31
0.0000000000
11
145.0663171093
21
95.0804983675
31
0.0000000000
11
145.1807312937
21
95.0233060431
31
0.0000000000
11
145.2752933147
21
94.9760491922
31
0.0000000000
11
145.3472712381
21
94.9400745592
31
0.0000000000
11
145.3917848281
21
94.9177313918
31
0.0000000000
11
145.4070050761
21
94.9101522843
31
0.0000000000
0
SPLINE
5
3F2
100
AcDbEntity
8
0
100
AcDbSpline
62
7
6
CONTINUOUS
70
0
71
3
72
11
73
7
74
5
42
0.0000001000
43
0.0000001000
44
0.0000000001
12
-0.1080976208
22
-0.5394080386
32
0.0000000000
13
-0.5459064754
23
0.0000000000
33
0.0000000000
40
0.0000000000
40
0.0000000000
40
0.0000000000
40
0.0000000000
40
0.1433305334
40
0.4298496142
40
0.7153614186
40
1.0000000000
40
1.0000000000
40
1.0000000000
40
1.0000000000
10
89.1591633047
20
95.2316185138
30
0.0000000000
10
89.1539987415
20
95.2058472999
30
0.0000000000
10
89.1309584999
20
95.1299174566
30
0.0000000000
10
89.0563915006
20
95.0192193281
30
0.0000000000
10
88.9233206931
20
94.9307324931
30
0.0000000000
10
88.8184472753
20
94.9101522843
30
0.0000000000
10
88.7666519270
20
94.9101522843
30
0.0000000000
11
89.1591633047
21
95.2316185138
31
0.0000000000
11
89.1362134737
21
95.1562572693
31
0.0000000000
11
89.0489533040
21
95.0264475203
31
0.0000000000
11
88.9190952846
21
94.9402495539
31
0.0000000000
11
88.7666519270
21
94.9101522843
31
0.0000000000
0
SPLINE
5
3F3
100
AcDbEntity
8
0
100
AcDbSpline
62
7
6
CONTINUOUS
70
0
71
3
72
11
73
7
74
5
42
0.0000001000
43
0.0000001000
44
0.0000000001
12
0.0000000075
22
-0.6119441054
32
0.0000000000
13
-0.6119441054
23
0.0000000000
33
0.0000000000
40
0.0000000000
40
0.0000000000
40
0.0000000000
40
0.0000000000
40
0.2546648569
40
0.5066225164
40
0.7547011940
40
1.0000000000
40
1.0000000000
40
1.0000000000
40
1.0000000000
10
84.3346463871
20
95.3101522843
30
0.0000000000
10
84.3346463877
20
95.2582053982
30
0.0000000000
10
84.3149288196
20
95.1537957973
30
0.0000000000
10
84.2300502761
20
95.0209046551
30
0.0000000000
10
84.1023825447
20
94.9312746992
30
0.0000000000
10
84.0005828818
20
94.9101522843
30
0.0000000000
10
83.9505464957
20
94.9101522843
30
0.0000000000
11
84.3346463871
21
95.3101522843
31
0.0000000000
11
84.3054085242
21
95.1570789095
31
0.0000000000
11
84.2221461326
21
95.0273095702
31
0.0000000000
11
84.0975351597
21
94.9406004709
31
0.0000000000
11
83.9505464957
21
94.9101522843
31
0.0000000000
0
SPLINE
5
3F4
100
AcDbEntity
8
0
100
AcDbSpline
62
7
6
CONTINUOUS
70
0
71
3
72
15
73
11
74
9
42
0.0000001000
43
0.0000001000
44
0.0000000001
12
0.3994574380
22
-0.8002703424
32
0.0000000000
13
0.4006829933
23
-0.7996575992
33
0.0000000000
40
0.0000000000
40
0.0000000000
40
0.0000000000
40
0.0000000000
40
0.2121054858
40
0.4064850832
40
0.5741369837
40
0.7171400495
40
0.8353075199
40
0.9252447047
40
0.9810588203
40
1.0000000000
40
1.0000000000
40
1.0000000000
40
1.0000000000
10
40.6070050761
20
95.3101515711
30
0.0000000000
10
40.6352474475
20
95.2535709945
30
0.0000000000
10
40.6895048624
20
95.1452047472
30
0.0000000000
10
40.7660324287
20
94.9920896799
30
0.0000000000
10
40.8333807451
20
94.8574191010
30
0.0000000000
10
40.8905566649
20
94.7430663507
30
0.0000000000
10
40.9373722526
20
94.6494383197
30
0.0000000000
10
40.9725606729
20
94.5790596703
30
0.0000000000
10
40.9944980025
20
94.5351308790
30
0.0000000000
10
41.0044752733
20
94.5152011037
30
0.0000000000
10
41.0070050761
20
94.5101522843
30
0.0000000000
11
40.6070050761
21
95.3101515711
31
0.0000000000
11
40.6918500976
21
95.1404687464
31
0.0000000000
11
40.7696015152
21
94.9849649956
31
0.0000000000
11
40.8366658186
21
94.8508453658
31
0.0000000000
11
40.8938684013
21
94.7364436927
31
0.0000000000
11
40.9411359646
21
94.6419100877
31
0.0000000000
11
40.9771031747
21
94.5699565722
31
0.0000000000
11
40.9994205430
21
94.5253011813
31
0.0000000000
11
41.0070050761
21
94.5101522843
31
0.0000000000
0
SPLINE
5
3F5
100
AcDbEntity
8
0
100
AcDbSpline
62
7
6
CONTINUOUS
70
0
71
3
72
13
73
9
74
7
42
0.0000001000
43
0.0000001000
44
0.0000000001
12
-0.4000000000
22
0.4000000000
32
0.0000000000
13
-0.4000000000
23
0.4000000000
33
0.0000000000
40
0.0000000000
40
0.0000000000
40
0.0000000000
40
0.0000000000
40
0.0529067781
40
0.1831006588
40
0.3600373173
40
0.5645616880
40
0.7825093358
40
1.0000000000
40
1.0000000000
40
1.0000000000
40
1.0000000000
10
41.0070050761
20
92.9101522843
30
0.0000000000
10
40.9999508391
20
92.9172065213
30
0.0000000000
10
40.9755374179
20
92.9416199425
30
0.0000000000
10
40.9275324422
20
92.9896249182
30
0.0000000000
10
40.8593117876
20
93.0578455728
30
0.0000000000
10
40.7793906307
20
93.1377667297
30
0.0000000000
10
40.6940622730
20
93.2230950874
30
0.0000000000
10
40.6360038314
20
93.2811535290
30
0.0000000000
10
40.6070050761
20
93.3101522843
30
0.0000000000
11
41.0070050761
21
92.9101522843
31
0.0000000000
11
40.9858423649
21
92.9313149955
31
0.0000000000
11
40.9337648126
21
92.9833925478
31
0.0000000000
11
40.8629901492
21
93.0541672112
31
0.0000000000
11
40.7811804009
21
93.1359769595
31
0.0000000000
11
40.6940013418
21
93.2231560186
31
0.0000000000
11
40.6070050761
21
93.3101522843
31
0.0000000000
0
SPLINE
5
3F6
100
AcDbEntity
8
0
100
AcDbSpline
62
7
6
CONTINUOUS
70
0
71
3
72
15
73
11
74
9
42
0.0000001000
43
0.0000001000
44
0.0000000001
12
0.8002704165
22
-0.3994574750
32
0.0000000000
13
0.8012997486
23
-0.3973968010
33
0.0000000000
40
0.0000000000
40
0.0000000000
40
0.0000000000
40
0.0000000000
40
0.2121054810
40
0.4064852058
40
0.5741386324
40
0.7171490679
40
0.8353395897
40
0.9253048862
40
0.9809901611
40
1.0000000000
40
1.0000000000
40
1.0000000000
40
1.0000000000
10
40.6070057892
20
95.3101522843
30
0.0000000000
10
40.6635863697
20
95.2819099110
30
0.0000000000
10
40.7719527169
20
95.2276525893
30
0.0000000000
10
40.9250689105
20
95.1511261395
30
0.0000000000
10
41.0597426134
20
95.0837780291
30
0.0000000000
10
41.1741153179
20
95.0266206795
30
0.0000000000
10
41.2677541387
20
94.9797876722
30
0.0000000000
10
41.3381583083
20
94.9447019713
30
0.0000000000
10
41.3819946993
20
94.9226013770
30
0.0000000000
10
41.4019275498
20
94.9126704340
30
0.0000000000
10
41.4070050761
20
94.9101522843
30
0.0000000000
11
40.6070057892
21
95.3101522843
31
0.0000000000
11
40.7766887994
21
95.2253076043
31
0.0000000000
11
40.9321932773
21
95.1475573500
31
0.0000000000
11
41.0663171093
21
95.0804983675
31
0.0000000000
11
41.1807312937
21
95.0233060431
31
0.0000000000
11
41.2752933147
21
94.9760491922
31
0.0000000000
11
41.3472712381
21
94.9400745592
31
0.0000000000
11
41.3917848281
21
94.9177313918
31
0.0000000000
11
41.4070050761
21
94.9101522843
31
0.0000000000
0
SPLINE
5
3F7
100
AcDbEntity
8
0
100
AcDbSpline
62
7
6
CONTINUOUS
70
0
71
3
72
11
73
7
74
5
42
0.0000001000
43
0.0000001000
44
0.0000000001
12
-0.1080976208
22
-0.5394080386
32
0.0000000000
13
-0.5459064754
23
0.0000000000
33
0.0000000000
40
0.0000000000
40
0.0000000000
40
0.0000000000
40
0.0000000000
40
0.1433305334
40
0.4298496142
40
0.7153614186
40
1.0000000000
40
1.0000000000
40
1.0000000000
40
1.0000000000
10
141.1591633047
20
95.2316185138
30
0.0000000000
10
141.1539987415
20
95.2058472999
30
0.0000000000
10
141.1309584999
20
95.1299174566
30
0.0000000000
10
141.0563915006
20
95.0192193281
30
0.0000000000
10
140.9233206931
20
94.9307324931
30
0.0000000000
10
140.8184472753
20
94.9101522843
30
0.0000000000
10
140.7666519270
20
94.9101522843
30
0.0000000000
11
141.1591633047
21
95.2316185138
31
0.0000000000
11
141.1362134737
21
95.1562572693
31
0.0000000000
11
141.0489533040
21
95.0264475203
31
0.0000000000
11
140.9190952846
21
94.9402495539
31
0.0000000000
11
140.7666519270
21
94.9101522843
31
0.0000000000
0
SPLINE
5
3F8
100
AcDbEntity
8
0
100
AcDbSpline
62
7
6
CONTINUOUS
70
0
71
3
72
11
73
7
74
5
42
0.0000001000
43
0.0000001000
44
0.0000000001
12
0.0000000075
22
-0.6119441054
32
0.0000000000
13
-0.6119441054
23
0.0000000000
33
0.0000000000
40
0.0000000000
40
0.0000000000
40
0.0000000000
40
0.0000000000
40
0.2546648569
40
0.5066225164
40
0.7547011940
40
1.0000000000
40
1.0000000000
40
1.0000000000
40
1.0000000000
10
136.3346463871
20
95.3101522843
30
0.0000000000
10
136.3346463877
20
95.2582053982
30
0.0000000000
10
136.3149288196
20
95.1537957973
30
0.0000000000
10
136.2300502761
20
95.0209046551
30
0.0000000000
10
136.1023825447
20
94.9312746992
30
0.0000000000
10
136.0005828818
20
94.9101522843
30
0.0000000000
10
135.9505464957
20
94.9101522843
30
0.0000000000
11
136.3346463871
21
95.3101522843
31
0.0000000000
11
136.3054085242
21
95.1570789095
31
0.0000000000
11
136.2221461326
21
95.0273095702
31
0.0000000000
11
136.0975351597
21
94.9406004709
31
0.0000000000
11
135.9505464957
21
94.9101522843
31
0.0000000000
0
SPLINE
5
3F9
100
AcDbEntity
8
0
100
AcDbSpline
62
7
6
CONTINUOUS
70
0
71
3
72
15
73
11
74
9
42
0.0000001000
43
0.0000001000
44
0.0000000001
12
0.3994574380
22
-0.8002703424
32
0.0000000000
13
0.4006829933
23
-0.7996575992
33
0.0000000000
40
0.0000000000
40
0.0000000000
40
0.0000000000
40
0.0000000000
40
0.2121054858
40
0.4064850832
40
0.5741369837
40
0.7171400495
40
0.8353075199
40
0.9252447047
40
0.9810588203
40
1.0000000000
40
1.0000000000
40
1.0000000000
40
1.0000000000
10
92.6070050761
20
95.3101515711
30
0.0000000000
10
92.6352474475
20
95.2535709945
30
0.0000000000
10
92.6895048624
20
95.1452047472
30
0.0000000000
10
92.7660324287
20
94.9920896799
30
0.0000000000
10
92.8333807451
20
94.8574191010
30
0.0000000000
10
92.8905566649
20
94.7430663507
30
0.0000000000
10
92.9373722526
20
94.6494383197
30
0.0000000000
10
92.9725606729
20
94.5790596703
30
0.0000000000
10
92.9944980025
20
94.5351308790
30
0.0000000000
10
93.0044752733
20
94.5152011037
30
0.0000000000
10
93.0070050761
20
94.5101522843
30
0.0000000000
11
92.6070050761
21
95.3101515711
31
0.0000000000
11
92.6918500976
21
95.1404687464
31
0.0000000000
11
92.7696015152
21
94.9849649956
31
0.0000000000
11
92.8366658186
21
94.8508453658
31
0.0000000000
11
92.8938684013
21
94.7364436927
31
0.0000000000
11
92.9411359646
21
94.6419100877
31
0.0000000000
11
92.9771031747
21
94.5699565722
31
0.0000000000
11
92.9994205430
21
94.5253011813
31
0.0000000000
11
93.0070050761
21
94.5101522843
31
0.0000000000
0
SPLINE
5
3FA
100
AcDbEntity
8
0
100
AcDbSpline
62
7
6
CONTINUOUS
70
0
71
3
72
13
73
9
74
7
42
0.0000001000
43
0.0000001000
44
0.0000000001
12
-0.4000000000
22
0.4000000000
32
0.0000000000
13
-0.4000000000
23
0.4000000000
33
0.0000000000
40
0.0000000000
40
0.0000000000
40
0.0000000000
40
0.0000000000
40
0.0529067781
40
0.1831006588
40
0.3600373173
40
0.5645616880
40
0.7825093358
40
1.0000000000
40
1.0000000000
40
1.0000000000
40
1.0000000000
10
93.0070050761
20
92.9101522843
30
0.0000000000
10
92.9999508391
20
92.9172065213
30
0.0000000000
10
92.9755374179
20
92.9416199425
30
0.0000000000
10
92.9275324422
20
92.9896249182
30
0.0000000000
10
92.8593117876
20
93.0578455728
30
0.0000000000
10
92.7793906307
20
93.1377667297
30
0.0000000000
10
92.6940622730
20
93.2230950874
30
0.0000000000
10
92.6360038314
20
93.2811535290
30
0.0000000000
10
92.6070050761
20
93.3101522843
30
0.0000000000
11
93.0070050761
21
92.9101522843
31
0.0000000000
11
92.9858423649
21
92.9313149955
31
0.0000000000
11
92.9337648126
21
92.9833925478
31
0.0000000000
11
92.8629901492
21
93.0541672112
31
0.0000000000
11
92.7811804009
21
93.1359769595
31
0.0000000000
11
92.6940013418
21
93.2231560186
31
0.0000000000
11
92.6070050761
21
93.3101522843
31
0.0000000000
0
SPLINE
5
3FB
100
AcDbEntity
8
0
100
AcDbSpline
62
7
6
CONTINUOUS
70
0
71
3
72
15
73
11
74
9
42
0.0000001000
43
0.0000001000
44
0.0000000001
12
0.8002704165
22
-0.3994574750
32
0.0000000000
13
0.8012997486
23
-0.3973968010
33
0.0000000000
40
0.0000000000
40
0.0000000000
40
0.0000000000
40
0.0000000000
40
0.2121054810
40
0.4064852058
40
0.5741386324
40
0.7171490679
40
0.8353395897
40
0.9253048862
40
0.9809901611
40
1.0000000000
40
1.0000000000
40
1.0000000000
40
1.0000000000
10
92.6070057892
20
95.3101522843
30
0.0000000000
10
92.6635863697
20
95.2819099110
30
0.0000000000
10
92.7719527169
20
95.2276525893
30
0.0000000000
10
92.9250689105
20
95.1511261395
30
0.0000000000
10
93.0597426134
20
95.0837780291
30
0.0000000000
10
93.1741153179
20
95.0266206795
30
0.0000000000
10
93.2677541387
20
94.9797876722
30
0.0000000000
10
93.3381583083
20
94.9447019713
30
0.0000000000
10
93.3819946993
20
94.9226013770
30
0.0000000000
10
93.4019275498
20
94.9126704340
30
0.0000000000
10
93.4070050761
20
94.9101522843
30
0.0000000000
11
92.6070057892
21
95.3101522843
31
0.0000000000
11
92.7766887994
21
95.2253076043
31
0.0000000000
11
92.9321932773
21
95.1475573500
31
0.0000000000
11
93.0663171093
21
95.0804983675
31
0.0000000000
11
93.1807312937
21
95.0233060431
31
0.0000000000
11
93.2752933147
21
94.9760491922
31
0.0000000000
11
93.3472712381
21
94.9400745592
31
0.0000000000
11
93.3917848281
21
94.9177313918
31
0.0000000000
11
93.4070050761
21
94.9101522843
31
0.0000000000
0
SPLINE
5
3FC
100
AcDbEntity
8
0
100
AcDbSpline
62
7
6
CONTINUOUS
70
0
71
3
72
11
73
7
74
5
42
0.0000001000
43
0.0000001000
44
0.0000000001
12
0.0000000000
22
0.6246066174
32
0.0000000000
13
-0.6246066174
23
0.0000000000
33
0.0000000000
40
0.0000000000
40
0.0000000000
40
0.0000000000
40
0.0000000000
40
0.2512704860
40
0.5016882965
40
0.7512257469
40
1.0000000000
40
1.0000000000
40
1.0000000000
40
1.0000000000
10
141.1670050761
20
258.5101522843
30
0.0000000000
10
141.1670050761
20
258.5624673537
30
0.0000000000
10
141.1459857122
20
258.6680785264
30
0.0000000000
10
141.0563915006
20
258.8010852404
30
0.0000000000
10
140.9233206931
20
258.8895720755
30
0.0000000000
10
140.8184472753
20
258.9101522843
30
0.0000000000
10
140.7666519270
20
258.9101522843
30
0.0000000000
11
141.1670050761
21
258.5101522843
31
0.0000000000
11
141.1362134737
21
258.6640472992
31
0.0000000000
11
141.0489533040
21
258.7938570483
31
0.0000000000
11
140.9190952846
21
258.8800550146
31
0.0000000000
11
140.7666519270
21
258.9101522843
31
0.0000000000
0
SPLINE
5
3FD
100
AcDbEntity
8
0
100
AcDbSpline
62
7
6
CONTINUOUS
70
0
71
3
72
11
73
7
74
5
42
0.0000001000
43
0.0000001000
44
0.0000000001
12
0.0000000249
22
0.6119441252
32
0.0000000000
13
-0.6119441252
23
-0.0000000000
33
0.0000000000
40
0.0000000000
40
0.0000000000
40
0.0000000000
40
0.0000000000
40
0.2546800283
40
0.5066443664
40
0.7547173981
40
1.0000000000
40
1.0000000000
40
1.0000000000
40
1.0000000000
10
136.3346463871
20
258.5101522843
30
0.0000000000
10
136.3346463892
20
258.5621022666
30
0.0000000000
10
136.3149267387
20
258.6665165205
30
0.0000000000
10
136.2300424211
20
258.7994082722
30
0.0000000000
10
136.1023745715
20
258.8890323064
30
0.0000000000
10
136.0005795781
20
258.9101522843
30
0.0000000000
10
135.9505464957
20
258.9101522843
30
0.0000000000
11
136.3346463871
21
258.5101522843
31
0.0000000000
11
136.3054050314
21
258.6632344489
31
0.0000000000
11
136.2221366926
21
258.7930048340
31
0.0000000000
11
136.0975258687
21
258.8797081069
31
0.0000000000
11
135.9505464957
21
258.9101522843
31
0.0000000000
0
SPLINE
5
3FE
100
AcDbEntity
8
0
100
AcDbSpline
62
7
6
CONTINUOUS
70
0
71
3
72
15
73
11
74
9
42
0.0000001000
43
0.0000001000
44
0.0000000001
12
0.8002703424
22
0.3994574380
32
0.0000000000
13
0.7996575992
23
0.4006829933
33
0.0000000000
40
0.0000000000
40
0.0000000000
40
0.0000000000
40
0.0000000000
40
0.2121054858
40
0.4064850832
40
0.5741369837
40
0.7171400495
40
0.8353075199
40
0.9252447047
40
0.9810588203
40
1.0000000000
40
1.0000000000
40
1.0000000000
40
1.0000000000
10
92.6070057893
20
258.5101522843
30
0.0000000000
10
92.6635863659
20
258.5383946556
30
0.0000000000
10
92.7719526132
20
258.5926520705
30
0.0000000000
10
92.9250676805
20
258.6691796368
30
0.0000000000
10
93.0597382594
20
258.7365279532
30
0.0000000000
10
93.1740910097
20
258.7937038730
30
0.0000000000
10
93.2677190407
20
258.8405194607
30
0.0000000000
10
93.3380976901
20
258.8757078810
30
0.0000000000
10
93.3820264814
20
258.8976452107
30
0.0000000000
10
93.4019562567
20
258.9076224814
30
0.0000000000
10
93.4070050761
20
258.9101522843
30
0.0000000000
11
92.6070057893
21
258.5101522843
31
0.0000000000
11
92.7766886140
21
258.5949973057
31
0.0000000000
11
92.9321923648
21
258.6727487233
31
0.0000000000
11
93.0663119946
21
258.7398130268
31
0.0000000000
11
93.1807136677
21
258.7970156094
31
0.0000000000
11
93.2752472727
21
258.8442831727
31
0.0000000000
11
93.3472007882
21
258.8802503828
31
0.0000000000
11
93.3918561791
21
258.9025677512
31
0.0000000000
11
93.4070050761
21
258.9101522843
31
0.0000000000
0
SPLINE
5
3FF
100
AcDbEntity
8
0
100
AcDbSpline
62
7
6
CONTINUOUS
70
0
71
3
72
15
73
11
74
9
42
0.0000001000
43
0.0000001000
44
0.0000000001
12
0.3994574750
22
0.8002704165
32
0.0000000000
13
0.3973968010
23
0.8012997486
33
0.0000000000
40
0.0000000000
40
0.0000000000
40
0.0000000000
40
0.0000000000
40
0.2121054810
40
0.4064852058
40
0.5741386324
40
0.7171490679
40
0.8353395897
40
0.9253048862
40
0.9809901611
40
1.0000000000
40
1.0000000000
40
1.0000000000
40
1.0000000000
10
92.6070050761
20
258.5101529973
30
0.0000000000
10
92.6352474494
20
258.5667335778
30
0.0000000000
10
92.6895047711
20
258.6750999250
30
0.0000000000
10
92.7660312209
20
258.8282161186
30
0.0000000000
10
92.8333793313
20
258.9628898216
30
0.0000000000
10
92.8905366809
20
259.0772625261
30
0.0000000000
10
92.9373696882
20
259.1709013469
30
0.0000000000
10
92.9724553891
20
259.2413055165
30
0.0000000000
10
92.9945559834
20
259.2851419074
30
0.0000000000
10
93.0044869264
20
259.3050747579
30
0.0000000000
10
93.0070050761
20
259.3101522843
30
0.0000000000
11
92.6070050761
21
258.5101529973
31
0.0000000000
11
92.6918497561
21
258.6798360075
31
0.0000000000
11
92.7696000104
21
258.8353404854
31
0.0000000000
11
92.8366589929
21
258.9694643174
31
0.0000000000
11
92.8938513173
21
259.0838785019
31
0.0000000000
11
92.9411081682
21
259.1784405228
31
0.0000000000
11
92.9770828012
21
259.2504184463
31
0.0000000000
11
92.9994259686
21
259.2949320362
31
0.0000000000
11
93.0070050761
21
259.3101522843
31
0.0000000000
0
SPLINE
5
400
100
AcDbEntity
8
0
100
AcDbSpline
62
7
6
CONTINUOUS
70
0
71
3
72
11
73
7
74
5
42
0.0000001000
43
0.0000001000
44
0.0000000001
12
-2.8995100071
22
0.4650314045
32
0.0000000000
13
-2.5431396671
23
1.4682823714
33
0.0000000000
40
0.0000000000
40
0.0000000000
40
0.0000000000
40
0.0000000000
40
0.2212256345
40
0.4627332338
40
0.7217232912
40
1.0000000000
40
1.0000000000
40
1.0000000000
40
1.0000000000
10
32.4483382883
20
98.5512001823
30
0.0000000000
10
32.2345229745
20
98.5854924714
30
0.0000000000
10
31.7934862822
20
98.6978901285
30
0.0000000000
10
31.1369406746
20
98.9622118092
30
0.0000000000
10
30.4583569796
20
99.3109602706
30
0.0000000000
10
30.0029039216
20
99.5739560223
30
0.0000000000
10
29.7670050761
20
99.7101522843
30
0.0000000000
11
32.4483382883
21
98.5512001823
31
0.0000000000
11
31.8174096330
21
98.7060083773
31
0.0000000000
11
31.1573126912
21
98.9653161073
31
0.0000000000
11
30.4781119791
21
99.3075281963
31
0.0000000000
11
29.7670050761
21
99.7101522843
31
0.0000000000
0
SPLINE
5
401
100
AcDbEntity
8
0
100
AcDbSpline
62
7
6
CONTINUOUS
70
0
71
3
72
11
73
7
74
5
42
0.0000001000
43
0.0000001000
44
0.0000000001
12
0.0000000000
22
-1.3331094780
32
0.0000000000
13
1.2159225118
23
-0.5465467279
33
0.0000000000
40
0.0000000000
40
0.0000000000
40
0.0000000000
40
0.0000000000
40
0.2906372160
40
0.5620444038
40
0.7997609739
40
1.0000000000
40
1.0000000000
40
1.0000000000
40
1.0000000000
10
31.9174119339
20
99.7101522843
30
0.0000000000
10
31.9174119339
20
99.5810018752
30
0.0000000000
10
31.9411679363
20
99.3305020979
30
0.0000000000
10
32.0465041678
20
98.9880953072
30
0.0000000000
10
32.2109455312
20
98.7148417044
30
0.0000000000
10
32.3671799084
20
98.5876801771
30
0.0000000000
10
32.4483382883
20
98.5512001823
30
0.0000000000
11
31.9174119339
21
99.7101522843
31
0.0000000000
11
31.9554231036
21
99.3245701212
31
0.0000000000
11
32.0654252389
21
98.9798818819
31
0.0000000000
11
32.2357517757
21
98.7126443784
31
0.0000000000
11
32.4483382883
21
98.5512001823
31
0.0000000000
0
SPLINE
5
402
100
AcDbEntity
8
0
100
AcDbSpline
62
7
6
CONTINUOUS
70
0
71
3
72
9
73
5
74
3
42
0.0000001000
43
0.0000001000
44
0.0000000001
12
-0.5229646355
22
0.0000000000
32
0.0000000000
13
-0.5163656609
23
0.0828161475
33
0.0000000000
40
0.0000000000
40
0.0000000000
40
0.0000000000
40
0.0000000000
40
0.5074530293
40
1.0000000000
40
1.0000000000
40
1.0000000000
40
1.0000000000
10
32.9692773062
20
98.5101522843
30
0.0000000000
10
32.8808173100
20
98.5101522843
30
0.0000000000
10
32.7064261060
20
98.5170158992
30
0.0000000000
10
32.5331164023
20
98.5376032347
30
0.0000000000
10
32.4483382883
20
98.5512001823
30
0.0000000000
11
32.9692773062
21
98.5101522843
31
0.0000000000
11
32.7041051161
21
98.5206521844
31
0.0000000000
11
32.4483382883
21
98.5512001823
31
0.0000000000
0
SPLINE
5
403
100
AcDbEntity
8
0
100
AcDbSpline
62
7
6
CONTINUOUS
70
0
71
3
72
11
73
7
74
5
42
0.0000001000
43
0.0000001000
44
0.0000000001
12
0.0000000000
22
-1.5196582174
32
0.0000000000
13
1.5196582174
23
0.0000000000
33
0.0000000000
40
0.0000000000
40
0.0000000000
40
0.0000000000
40
0.0000000000
40
0.3043120409
40
0.5801447301
40
0.8097483664
40
1.0000000000
40
1.0000000000
40
1.0000000000
40
1.0000000000
10
70.4997959325
20
99.7101522843
30
0.0000000000
10
70.4997959325
20
99.5560021864
30
0.0000000000
10
70.5329770138
20
99.2606387185
30
0.0000000000
10
70.6794952095
20
98.8726926358
30
0.0000000000
10
70.9065061735
20
98.5905974259
30
0.0000000000
10
71.1202257323
20
98.5101522843
30
0.0000000000
10
71.2165982184
20
98.5101522843
30
0.0000000000
11
70.4997959325
21
99.7101522843
31
0.0000000000
11
70.5543592576
21
99.2509321654
31
0.0000000000
11
70.7097424612
21
98.8616241468
31
0.0000000000
11
70.9422898593
21
98.6014968453
31
0.0000000000
11
71.2165982184
21
98.5101522843
31
0.0000000000
0
SPLINE
5
404
100
AcDbEntity
8
0
100
AcDbSpline
62
7
6
CONTINUOUS
70
0
71
3
72
11
73
7
74
5
42
0.0000001000
43
0.0000001000
44
0.0000000001
12
2.5431395646
22
1.4682823122
32
0.0000000000
13
2.8995098902
23
0.4650313857
33
0.0000000000
40
0.0000000000
40
0.0000000000
40
0.0000000000
40
0.0000000000
40
0.2782012403
40
0.5371954517
40
0.7788133319
40
1.0000000000
40
1.0000000000
40
1.0000000000
40
1.0000000000
10
29.7670050761
20
254.1101522843
30
0.0000000000
10
30.0028399366
20
254.2463116044
30
0.0000000000
10
30.4582325467
20
254.5092723927
30
0.0000000000
10
31.1368426380
20
254.8580515885
30
0.0000000000
10
31.7934549769
20
255.1224102279
30
0.0000000000
10
32.2345606444
20
255.2348181387
30
0.0000000000
10
32.4483382883
20
255.2691043863
30
0.0000000000
11
29.7670050761
21
254.1101522843
31
0.0000000000
11
30.4779172540
21
254.5126704230
31
0.0000000000
11
31.1571219460
21
254.8549016544
31
0.0000000000
11
31.8175188074
21
255.1143315441
31
0.0000000000
11
32.4483382883
21
255.2691043863
31
0.0000000000
0
SPLINE
5
405
100
AcDbEntity
8
0
100
AcDbSpline
62
7
6
CONTINUOUS
70
0
71
3
72
9
73
5
74
3
42
0.0000001000
43
0.0000001000
44
0.0000000001
12
0.5163656600
22
0.0828161474
32
0.0000000000
13
0.5229646346
23
0.0000000000
33
0.0000000000
40
0.0000000000
40
0.0000000000
40
0.0000000000
40
0.0000000000
40
0.4924041638
40
1.0000000000
40
1.0000000000
40
1.0000000000
40
1.0000000000
10
32.4483382883
20
255.2691043863
30
0.0000000000
10
32.5330918219
20
255.2826973915
30
0.0000000000
10
32.7064011293
20
255.3032867451
30
0.0000000000
10
32.8807924158
20
255.3101522843
30
0.0000000000
10
32.9692773062
20
255.3101522843
30
0.0000000000
11
32.4483382883
21
255.2691043863
31
0.0000000000
11
32.7040306097
21
255.2996464568
31
0.0000000000
11
32.9692773062
21
255.3101522843
31
0.0000000000
0
SPLINE
5
406
100
AcDbEntity
8
0
100
AcDbSpline
62
7
6
CONTINUOUS
70
0
71
3
72
11
73
7
74
5
42
0.0000001000
43
0.0000001000
44
0.0000000001
12
0.0000000000
22
1.3331094780
32
0.0000000000
13
1.2159225118
23
0.5465467279
33
0.0000000000
40
0.0000000000
40
0.0000000000
40
0.0000000000
40
0.0000000000
40
0.2906372160
40
0.5620444038
40
0.7997609739
40
1.0000000000
40
1.0000000000
40
1.0000000000
40
1.0000000000
10
31.9174119339
20
254.1101522843
30
0.0000000000
10
31.9174119339
20
254.2393026934
30
0.0000000000
10
31.9411679363
20
254.4898024706
30
0.0000000000
10
32.0465041678
20
254.8322092614
30
0.0000000000
10
32.2109455312
20
255.1054628641
30
0.0000000000
10
32.3671799084
20
255.2326243914
30
0.0000000000
10
32.4483382883
20
255.2691043863
30
0.0000000000
11
31.9174119339
21
254.1101522843
31
0.0000000000
11
31.9554231036
21
254.4957344474
31
0.0000000000
11
32.0654252389
21
254.8404226866
31
0.0000000000
11
32.2357517757
21
255.1076601902
31
0.0000000000
11
32.4483382883
21
255.2691043863
31
0.0000000000
0
SPLINE
5
407
100
AcDbEntity
8
0
100
AcDbSpline
62
7
6
CONTINUOUS
70
0
71
3
72
11
73
7
74
5
42
0.0000001000
43
0.0000001000
44
0.0000000001
12
-0.0000000019
22
1.5196582285
32
0.0000000000
13
1.5196582285
23
-0.0000000000
33
0.0000000000
40
0.0000000000
40
0.0000000000
40
0.0000000000
40
0.0000000000
40
0.3043123818
40
0.5801451738
40
0.8097486582
40
1.0000000000
40
1.0000000000
40
1.0000000000
40
1.0000000000
10
70.4997959325
20
254.1101522843
30
0.0000000000
10
70.4997959323
20
254.2643025559
30
0.0000000000
10
70.5329770767
20
254.5596662552
30
0.0000000000
10
70.6794954706
20
254.9476124375
30
0.0000000000
10
70.9065065342
20
255.2297073637
30
0.0000000000
10
71.1202258794
20
255.3101522843
30
0.0000000000
10
71.2165982184
20
255.3101522843
30
0.0000000000
11
70.4997959325
21
254.1101522843
31
0.0000000000
11
70.5543593833
21
254.5693729132
31
0.0000000000
11
70.7097428138
21
254.9586810129
31
0.0000000000
11
70.9422902371
21
255.2188079856
31
0.0000000000
11
71.2165982184
21
255.3101522843
31
0.0000000000
0
SPLINE
5
408
100
AcDbEntity
8
0
100
AcDbSpline
62
7
6
CONTINUOUS
70
0
71
3
72
11
73
7
74
5
42
0.0000001000
43
0.0000001000
44
0.0000000001
12
-2.8995100071
22
0.4650314045
32
0.0000000000
13
-2.5431396671
23
1.4682823714
33
0.0000000000
40
0.0000000000
40
0.0000000000
40
0.0000000000
40
0.0000000000
40
0.2212256345
40
0.4627332338
40
0.7217232912
40
1.0000000000
40
1.0000000000
40
1.0000000000
40
1.0000000000
10
84.4483382883
20
98.5512001823
30
0.0000000000
10
84.2345229745
20
98.5854924714
30
0.0000000000
10
83.7934862822
20
98.6978901285
30
0.0000000000
10
83.1369406746
20
98.9622118092
30
0.0000000000
10
82.4583569796
20
99.3109602706
30
0.0000000000
10
82.0029039216
20
99.5739560223
30
0.0000000000
10
81.7670050761
20
99.7101522843
30
0.0000000000
11
84.4483382883
21
98.5512001823
31
0.0000000000
11
83.8174096330
21
98.7060083773
31
0.0000000000
11
83.1573126912
21
98.9653161073
31
0.0000000000
11
82.4781119791
21
99.3075281963
31
0.0000000000
11
81.7670050761
21
99.7101522843
31
0.0000000000
0
SPLINE
5
409
100
AcDbEntity
8
0
100
AcDbSpline
62
7
6
CONTINUOUS
70
0
71
3
72
11
73
7
74
5
42
0.0000001000
43
0.0000001000
44
0.0000000001
12
0.0000000000
22
-1.3331094780
32
0.0000000000
13
1.2159225118
23
-0.5465467279
33
0.0000000000
40
0.0000000000
40
0.0000000000
40
0.0000000000
40
0.0000000000
40
0.2906372160
40
0.5620444038
40
0.7997609739
40
1.0000000000
40
1.0000000000
40
1.0000000000
40
1.0000000000
10
83.9174119339
20
99.7101522843
30
0.0000000000
10
83.9174119339
20
99.5810018752
30
0.0000000000
10
83.9411679363
20
99.3305020979
30
0.0000000000
10
84.0465041678
20
98.9880953072
30
0.0000000000
10
84.2109455312
20
98.7148417044
30
0.0000000000
10
84.3671799084
20
98.5876801771
30
0.0000000000
10
84.4483382883
20
98.5512001823
30
0.0000000000
11
83.9174119339
21
99.7101522843
31
0.0000000000
11
83.9554231036
21
99.3245701212
31
0.0000000000
11
84.0654252389
21
98.9798818819
31
0.0000000000
11
84.2357517757
21
98.7126443784
31
0.0000000000
11
84.4483382883
21
98.5512001823
31
0.0000000000
0
SPLINE
5
40A
100
AcDbEntity
8
0
100
AcDbSpline
62
7
6
CONTINUOUS
70
0
71
3
72
9
73
5
74
3
42
0.0000001000
43
0.0000001000
44
0.0000000001
12
-0.5229646355
22
0.0000000000
32
0.0000000000
13
-0.5163656609
23
0.0828161475
33
0.0000000000
40
0.0000000000
40
0.0000000000
40
0.0000000000
40
0.0000000000
40
0.5074530293
40
1.0000000000
40
1.0000000000
40
1.0000000000
40
1.0000000000
10
84.9692773062
20
98.5101522843
30
0.0000000000
10
84.8808173100
20
98.5101522843
30
0.0000000000
10
84.7064261060
20
98.5170158992
30
0.0000000000
10
84.5331164023
20
98.5376032347
30
0.0000000000
10
84.4483382883
20
98.5512001823
30
0.0000000000
11
84.9692773062
21
98.5101522843
31
0.0000000000
11
84.7041051161
21
98.5206521844
31
0.0000000000
11
84.4483382883
21
98.5512001823
31
0.0000000000
0
SPLINE
5
40B
100
AcDbEntity
8
0
100
AcDbSpline
62
7
6
CONTINUOUS
70
0
71
3
72
11
73
7
74
5
42
0.0000001000
43
0.0000001000
44
0.0000000001
12
0.0000000000
22
-1.5196582174
32
0.0000000000
13
1.5196582174
23
0.0000000000
33
0.0000000000
40
0.0000000000
40
0.0000000000
40
0.0000000000
40
0.0000000000
40
0.3043120409
40
0.5801447301
40
0.8097483664
40
1.0000000000
40
1.0000000000
40
1.0000000000
40
1.0000000000
10
122.4997959325
20
99.7101522843
30
0.0000000000
10
122.4997959325
20
99.5560021864
30
0.0000000000
10
122.5329770138
20
99.2606387185
30
0.0000000000
10
122.6794952095
20
98.8726926358
30
0.0000000000
10
122.9065061735
20
98.5905974259
30
0.0000000000
10
123.1202257323
20
98.5101522843
30
0.0000000000
10
123.2165982184
20
98.5101522843
30
0.0000000000
11
122.4997959325
21
99.7101522843
31
0.0000000000
11
122.5543592576
21
99.2509321654
31
0.0000000000
11
122.7097424612
21
98.8616241468
31
0.0000000000
11
122.9422898593
21
98.6014968453
31
0.0000000000
11
123.2165982184
21
98.5101522843
31
0.0000000000
0
SPLINE
5
40C
100
AcDbEntity
8
0
100
AcDbSpline
62
7
6
CONTINUOUS
70
0
71
3
72
11
73
7
74
5
42
0.0000001000
43
0.0000001000
44
0.0000000001
12
2.5431395646
22
1.4682823122
32
0.0000000000
13
2.8995098902
23
0.4650313857
33
0.0000000000
40
0.0000000000
40
0.0000000000
40
0.0000000000
40
0.0000000000
40
0.2782012403
40
0.5371954517
40
0.7788133319
40
1.0000000000
40
1.0000000000
40
1.0000000000
40
1.0000000000
10
81.7670050761
20
254.1101522843
30
0.0000000000
10
82.0028399366
20
254.2463116044
30
0.0000000000
10
82.4582325467
20
254.5092723927
30
0.0000000000
10
83.1368426380
20
254.8580515885
30
0.0000000000
10
83.7934549769
20
255.1224102279
30
0.0000000000
10
84.2345606444
20
255.2348181387
30
0.0000000000
10
84.4483382883
20
255.2691043863
30
0.0000000000
11
81.7670050761
21
254.1101522843
31
0.0000000000
11
82.4779172540
21
254.5126704230
31
0.0000000000
11
83.1571219460
21
254.8549016544
31
0.0000000000
11
83.8175188074
21
255.1143315441
31
0.0000000000
11
84.4483382883
21
255.2691043863
31
0.0000000000
0
SPLINE
5
40D
100
AcDbEntity
8
0
100
AcDbSpline
62
7
6
CONTINUOUS
70
0
71
3
72
9
73
5
74
3
42
0.0000001000
43
0.0000001000
44
0.0000000001
12
0.5163656600
22
0.0828161474
32
0.0000000000
13
0.5229646346
23
0.0000000000
33
0.0000000000
40
0.0000000000
40
0.0000000000
40
0.0000000000
40
0.0000000000
40
0.4924041638
40
1.0000000000
40
1.0000000000
40
1.0000000000
40
1.0000000000
10
84.4483382883
20
255.2691043863
30
0.0000000000
10
84.5330918219
20
255.2826973915
30
0.0000000000
10
84.7064011293
20
255.3032867451
30
0.0000000000
10
84.8807924158
20
255.3101522843
30
0.0000000000
10
84.9692773062
20
255.3101522843
30
0.0000000000
11
84.4483382883
21
255.2691043863
31
0.0000000000
11
84.7040306097
21
255.2996464568
31
0.0000000000
11
84.9692773062
21
255.3101522843
31
0.0000000000
0
SPLINE
5
40E
100
AcDbEntity
8
0
100
AcDbSpline
62
7
6
CONTINUOUS
70
0
71
3
72
11
73
7
74
5
42
0.0000001000
43
0.0000001000
44
0.0000000001
12
0.0000000000
22
1.3331094780
32
0.0000000000
13
1.2159225118
23
0.5465467279
33
0.0000000000
40
0.0000000000
40
0.0000000000
40
0.0000000000
40
0.0000000000
40
0.2906372160
40
0.5620444038
40
0.7997609739
40
1.0000000000
40
1.0000000000
40
1.0000000000
40
1.0000000000
10
83.9174119339
20
254.1101522843
30
0.0000000000
10
83.9174119339
20
254.2393026934
30
0.0000000000
10
83.9411679363
20
254.4898024706
30
0.0000000000
10
84.0465041678
20
254.8322092614
30
0.0000000000
10
84.2109455312
20
255.1054628641
30
0.0000000000
10
84.3671799084
20
255.2326243914
30
0.0000000000
10
84.4483382883
20
255.2691043863
30
0.0000000000
11
83.9174119339
21
254.1101522843
31
0.0000000000
11
83.9554231036
21
254.4957344474
31
0.0000000000
11
84.0654252389
21
254.8404226866
31
0.0000000000
11
84.2357517757
21
255.1076601902
31
0.0000000000
11
84.4483382883
21
255.2691043863
31
0.0000000000
0
SPLINE
5
40F
100
AcDbEntity
8
0
100
AcDbSpline
62
7
6
CONTINUOUS
70
0
71
3
72
11
73
7
74
5
42
0.0000001000
43
0.0000001000
44
0.0000000001
12
-0.0000000019
22
1.5196582285
32
0.0000000000
13
1.5196582285
23
-0.0000000000
33
0.0000000000
40
0.0000000000
40
0.0000000000
40
0.0000000000
40
0.0000000000
40
0.3043123818
40
0.5801451738
40
0.8097486582
40
1.0000000000
40
1.0000000000
40
1.0000000000
40
1.0000000000
10
122.4997959325
20
254.1101522843
30
0.0000000000
10
122.4997959323
20
254.2643025559
30
0.0000000000
10
122.5329770767
20
254.5596662552
30
0.0000000000
10
122.6794954706
20
254.9476124375
30
0.0000000000
10
122.9065065342
20
255.2297073637
30
0.0000000000
10
123.1202258794
20
255.3101522843
30
0.0000000000
10
123.2165982184
20
255.3101522843
30
0.0000000000
11
122.4997959325
21
254.1101522843
31
0.0000000000
11
122.5543593833
21
254.5693729132
31
0.0000000000
11
122.7097428138
21
254.9586810129
31
0.0000000000
11
122.9422902371
21
255.2188079856
31
0.0000000000
11
123.2165982184
21
255.3101522843
31
0.0000000000
0
SPLINE
5
410
100
AcDbEntity
8
0
100
AcDbSpline
62
7
6
CONTINUOUS
70
0
71
3
72
11
73
7
74
5
42
0.0000001000
43
0.0000001000
44
0.0000000001
12
-2.8995100071
22
0.4650314045
32
0.0000000000
13
-2.5431396671
23
1.4682823714
33
0.0000000000
40
0.0000000000
40
0.0000000000
40
0.0000000000
40
0.0000000000
40
0.2212256345
40
0.4627332338
40
0.7217232912
40
1.0000000000
40
1.0000000000
40
1.0000000000
40
1.0000000000
10
136.4483382883
20
98.5512001823
30
0.0000000000
10
136.2345229745
20
98.5854924714
30
0.0000000000
10
135.7934862822
20
98.6978901285
30
0.0000000000
10
135.1369406746
20
98.9622118092
30
0.0000000000
10
134.4583569796
20
99.3109602706
30
0.0000000000
10
134.0029039216
20
99.5739560223
30
0.0000000000
10
133.7670050761
20
99.7101522843
30
0.0000000000
11
136.4483382883
21
98.5512001823
31
0.0000000000
11
135.8174096330
21
98.7060083773
31
0.0000000000
11
135.1573126912
21
98.9653161073
31
0.0000000000
11
134.4781119791
21
99.3075281963
31
0.0000000000
11
133.7670050761
21
99.7101522843
31
0.0000000000
0
SPLINE
5
411
100
AcDbEntity
8
0
100
AcDbSpline
62
7
6
CONTINUOUS
70
0
71
3
72
11
73
7
74
5
42
0.0000001000
43
0.0000001000
44
0.0000000001
12
0.0000000000
22
-1.3331094780
32
0.0000000000
13
1.2159225118
23
-0.5465467279
33
0.0000000000
40
0.0000000000
40
0.0000000000
40
0.0000000000
40
0.0000000000
40
0.2906372160
40
0.5620444038
40
0.7997609739
40
1.0000000000
40
1.0000000000
40
1.0000000000
40
1.0000000000
10
135.9174119339
20
99.7101522843
30
0.0000000000
10
135.9174119339
20
99.5810018752
30
0.0000000000
10
135.9411679363
20
99.3305020979
30
0.0000000000
10
136.0465041678
20
98.9880953072
30
0.0000000000
10
136.2109455312
20
98.7148417044
30
0.0000000000
10
136.3671799084
20
98.5876801771
30
0.0000000000
10
136.4483382883
20
98.5512001823
30
0.0000000000
11
135.9174119339
21
99.7101522843
31
0.0000000000
11
135.9554231036
21
99.3245701212
31
0.0000000000
11
136.0654252389
21
98.9798818819
31
0.0000000000
11
136.2357517757
21
98.7126443784
31
0.0000000000
11
136.4483382883
21
98.5512001823
31
0.0000000000
0
SPLINE
5
412
100
AcDbEntity
8
0
100
AcDbSpline
62
7
6
CONTINUOUS
70
0
71
3
72
9
73
5
74
3
42
0.0000001000
43
0.0000001000
44
0.0000000001
12
-0.5229646355
22
0.0000000000
32
0.0000000000
13
-0.5163656609
23
0.0828161475
33
0.0000000000
40
0.0000000000
40
0.0000000000
40
0.0000000000
40
0.0000000000
40
0.5074530293
40
1.0000000000
40
1.0000000000
40
1.0000000000
40
1.0000000000
10
136.9692773062
20
98.5101522843
30
0.0000000000
10
136.8808173100
20
98.5101522843
30
0.0000000000
10
136.7064261060
20
98.5170158992
30
0.0000000000
10
136.5331164023
20
98.5376032347
30
0.0000000000
10
136.4483382883
20
98.5512001823
30
0.0000000000
11
136.9692773062
21
98.5101522843
31
0.0000000000
11
136.7041051161
21
98.5206521844
31
0.0000000000
11
136.4483382883
21
98.5512001823
31
0.0000000000
0
SPLINE
5
413
100
AcDbEntity
8
0
100
AcDbSpline
62
7
6
CONTINUOUS
70
0
71
3
72
11
73
7
74
5
42
0.0000001000
43
0.0000001000
44
0.0000000001
12
0.0000000000
22
-1.5196582174
32
0.0000000000
13
1.5196582174
23
0.0000000000
33
0.0000000000
40
0.0000000000
40
0.0000000000
40
0.0000000000
40
0.0000000000
40
0.3043120409
40
0.5801447301
40
0.8097483664
40
1.0000000000
40
1.0000000000
40
1.0000000000
40
1.0000000000
10
174.4997959325
20
99.7101522843
30
0.0000000000
10
174.4997959325
20
99.5560021864
30
0.0000000000
10
174.5329770138
20
99.2606387185
30
0.0000000000
10
174.6794952095
20
98.8726926358
30
0.0000000000
10
174.9065061735
20
98.5905974259
30
0.0000000000
10
175.1202257323
20
98.5101522843
30
0.0000000000
10
175.2165982184
20
98.5101522843
30
0.0000000000
11
174.4997959325
21
99.7101522843
31
0.0000000000
11
174.5543592576
21
99.2509321654
31
0.0000000000
11
174.7097424612
21
98.8616241468
31
0.0000000000
11
174.9422898593
21
98.6014968453
31
0.0000000000
11
175.2165982184
21
98.5101522843
31
0.0000000000
0
SPLINE
5
414
100
AcDbEntity
8
0
100
AcDbSpline
62
7
6
CONTINUOUS
70
0
71
3
72
11
73
7
74
5
42
0.0000001000
43
0.0000001000
44
0.0000000001
12
2.5431395646
22
1.4682823122
32
0.0000000000
13
2.8995098902
23
0.4650313857
33
0.0000000000
40
0.0000000000
40
0.0000000000
40
0.0000000000
40
0.0000000000
40
0.2782012403
40
0.5371954517
40
0.7788133319
40
1.0000000000
40
1.0000000000
40
1.0000000000
40
1.0000000000
10
133.7670050761
20
254.1101522843
30
0.0000000000
10
134.0028399366
20
254.2463116044
30
0.0000000000
10
134.4582325467
20
254.5092723927
30
0.0000000000
10
135.1368426380
20
254.8580515885
30
0.0000000000
10
135.7934549769
20
255.1224102279
30
0.0000000000
10
136.2345606444
20
255.2348181387
30
0.0000000000
10
136.4483382883
20
255.2691043863
30
0.0000000000
11
133.7670050761
21
254.1101522843
31
0.0000000000
11
134.4779172540
21
254.5126704230
31
0.0000000000
11
135.1571219460
21
254.8549016544
31
0.0000000000
11
135.8175188074
21
255.1143315441
31
0.0000000000
11
136.4483382883
21
255.2691043863
31
0.0000000000
0
SPLINE
5
415
100
AcDbEntity
8
0
100
AcDbSpline
62
7
6
CONTINUOUS
70
0
71
3
72
9
73
5
74
3
42
0.0000001000
43
0.0000001000
44
0.0000000001
12
0.5163656600
22
0.0828161474
32
0.0000000000
13
0.5229646346
23
0.0000000000
33
0.0000000000
40
0.0000000000
40
0.0000000000
40
0.0000000000
40
0.0000000000
40
0.4924041638
40
1.0000000000
40
1.0000000000
40
1.0000000000
40
1.0000000000
10
136.4483382883
20
255.2691043863
30
0.0000000000
10
136.5330918219
20
255.2826973915
30
0.0000000000
10
136.7064011293
20
255.3032867452
30
0.0000000000
10
136.8807924158
20
255.3101522843
30
0.0000000000
10
136.9692773062
20
255.3101522843
30
0.0000000000
11
136.4483382883
21
255.2691043863
31
0.0000000000
11
136.7040306097
21
255.2996464568
31
0.0000000000
11
136.9692773062
21
255.3101522843
31
0.0000000000
0
SPLINE
5
416
100
AcDbEntity
8
0
100
AcDbSpline
62
7
6
CONTINUOUS
70
0
71
3
72
11
73
7
74
5
42
0.0000001000
43
0.0000001000
44
0.0000000001
12
0.0000000000
22
1.3331094780
32
0.0000000000
13
1.2159225118
23
0.5465467279
33
0.0000000000
40
0.0000000000
40
0.0000000000
40
0.0000000000
40
0.0000000000
40
0.2906372160
40
0.5620444038
40
0.7997609739
40
1.0000000000
40
1.0000000000
40
1.0000000000
40
1.0000000000
10
135.9174119339
20
254.1101522843
30
0.0000000000
10
135.9174119339
20
254.2393026934
30
0.0000000000
10
135.9411679363
20
254.4898024706
30
0.0000000000
10
136.0465041678
20
254.8322092614
30
0.0000000000
10
136.2109455312
20
255.1054628641
30
0.0000000000
10
136.3671799084
20
255.2326243914
30
0.0000000000
10
136.4483382883
20
255.2691043863
30
0.0000000000
11
135.9174119339
21
254.1101522843
31
0.0000000000
11
135.9554231036
21
254.4957344474
31
0.0000000000
11
136.0654252389
21
254.8404226866
31
0.0000000000
11
136.2357517757
21
255.1076601902
31
0.0000000000
11
136.4483382883
21
255.2691043863
31
0.0000000000
0
SPLINE
5
417
100
AcDbEntity
8
0
100
AcDbSpline
62
7
6
CONTINUOUS
70
0
71
3
72
11
73
7
74
5
42
0.0000001000
43
0.0000001000
44
0.0000000001
12
-0.0000000019
22
1.5196582285
32
0.0000000000
13
1.5196582285
23
0.0000000000
33
0.0000000000
40
0.0000000000
40
0.0000000000
40
0.0000000000
40
0.0000000000
40
0.3043123818
40
0.5801451738
40
0.8097486582
40
1.0000000000
40
1.0000000000
40
1.0000000000
40
1.0000000000
10
174.4997959325
20
254.1101522843
30
0.0000000000
10
174.4997959323
20
254.2643025559
30
0.0000000000
10
174.5329770767
20
254.5596662552
30
0.0000000000
10
174.6794954706
20
254.9476124375
30
0.0000000000
10
174.9065065342
20
255.2297073637
30
0.0000000000
10
175.1202258794
20
255.3101522843
30
0.0000000000
10
175.2165982184
20
255.3101522843
30
0.0000000000
11
174.4997959325
21
254.1101522843
31
0.0000000000
11
174.5543593833
21
254.5693729132
31
0.0000000000
11
174.7097428138
21
254.9586810129
31
0.0000000000
11
174.9422902371
21
255.2188079856
31
0.0000000000
11
175.2165982184
21
255.3101522843
31
0.0000000000
0
SPLINE
5
418
100
AcDbEntity
8
0
100
AcDbSpline
62
7
6
CONTINUOUS
70
0
71
3
72
12
73
8
74
6
42
0.0000001000
43
0.0000001000
44
0.0000000001
12
0.4000144468
22
-0.0000601290
32
0.0000000000
13
-0.0000000081
23
-0.4000144513
33
0.0000000000
40
0.0000000000
40
0.0000000000
40
0.0000000000
40
0.0000000000
40
0.0489917834
40
0.1911192070
40
0.4124922276
40
0.6912948346
40
1.0000000000
40
1.0000000000
40
1.0000000000
40
1.0000000000
10
145.4070051719
20
35.9675266743
30
0.0000000000
10
145.4135376456
20
35.9675256923
30
0.0000000000
10
145.3996003097
20
35.9264729647
30
0.0000000000
10
145.4116090402
20
35.8858888270
30
0.0000000000
10
145.4050615929
20
35.7926976632
30
0.0000000000
10
145.4074106600
20
35.6877882031
30
0.0000000000
10
145.4070050770
20
35.6086888501
30
0.0000000000
10
145.4070050761
20
35.5675266743
30
0.0000000000
11
145.4070051719
21
35.9675266743
31
0.0000000000
11
145.4076736609
21
35.9479406577
31
0.0000000000
11
145.4071176881
21
35.8910903528
31
0.0000000000
11
145.4069303043
21
35.8025381437
31
0.0000000000
11
145.4068482535
21
35.6910131021
31
0.0000000000
11
145.4070050761
21
35.5675266743
31
0.0000000000
0
SPLINE
5
419
100
AcDbEntity
8
0
100
AcDbSpline
62
7
6
CONTINUOUS
70
0
71
3
72
11
73
7
74
5
42
0.0000001000
43
0.0000001000
44
0.0000000001
12
-0.4001790902
22
0.0569860586
32
0.0000000000
13
-0.4005320648
23
0.0544498490
33
0.0000000000
40
0.0000000000
40
0.0000000000
40
0.0000000000
40
0.0000000000
40
0.0769420469
40
0.2949602568
40
0.6193320721
40
1.0000000000
40
1.0000000000
40
1.0000000000
40
1.0000000000
10
193.1670050761
20
31.1675266743
30
0.0000000000
10
193.1567415434
20
31.1689882156
30
0.0000000000
10
193.1173946206
20
31.1745821071
30
0.0000000000
10
193.0347669787
20
31.1862546485
30
0.0000000000
10
192.9115890805
20
31.2034457347
30
0.0000000000
10
192.8174751641
20
31.2163633093
30
0.0000000000
10
192.7666519270
20
31.2232724131
30
0.0000000000
11
193.1670050761
21
31.1675266743
31
0.0000000000
11
193.1362134737
21
31.1719042453
31
0.0000000000
11
193.0489533040
21
31.1842306681
31
0.0000000000
11
192.9190952846
21
31.2023521599
31
0.0000000000
11
192.7666519270
21
31.2232724131
31
0.0000000000
0
SPLINE
5
41A
100
AcDbEntity
8
0
100
AcDbSpline
62
7
6
CONTINUOUS
70
0
71
3
72
15
73
11
74
9
42
0.0000001000
43
0.0000001000
44
0.0000000001
12
0.9673162609
22
0.0000840464
32
0.0000000000
13
0.0013069652
23
0.9673153817
33
0.0000000000
40
0.0000000000
40
0.0000000000
40
0.0000000000
40
0.0000000000
40
0.1756682604
40
0.3385626113
40
0.4826610088
40
0.6112123914
40
0.7263368521
40
0.8287924811
40
0.9183399670
40
1.0000000000
40
1.0000000000
40
1.0000000000
40
1.0000000000
10
144.6070057893
20
13.9675266743
30
0.0000000000
10
144.6636480443
20
13.9675315957
30
0.0000000000
10
144.7729099597
20
13.9732839496
30
0.0000000000
10
144.9268553007
20
13.9980463029
30
0.0000000000
10
145.0624573195
20
14.0357814822
30
0.0000000000
10
145.1781676567
20
14.0841372284
30
0.0000000000
10
145.2739975859
20
14.1423615328
30
0.0000000000
10
145.3476450503
20
14.2098205697
30
0.0000000000
10
145.3955504308
20
14.2855621205
30
0.0000000000
10
145.4069695005
20
14.3411963390
30
0.0000000000
10
145.4070050761
20
14.3675266743
30
0.0000000000
11
144.6070057893
21
13.9675266743
31
0.0000000000
11
144.7766886140
21
13.9766285772
31
0.0000000000
11
144.9321923648
21
14.0020647775
31
0.0000000000
11
145.0663119946
21
14.0400271424
31
0.0000000000
11
145.1807136677
21
14.0887625577
31
0.0000000000
11
145.2752472727
21
14.1476254479
31
0.0000000000
11
145.3472007882
21
14.2157788656
31
0.0000000000
11
145.3918561791
21
14.2900018310
31
0.0000000000
11
145.4070050761
21
14.3675266743
31
0.0000000000
0
SPLINE
5
41B
100
AcDbEntity
8
0
100
AcDbSpline
62
7
6
CONTINUOUS
70
0
71
3
72
12
73
8
74
6
42
0.0000001000
43
0.0000001000
44
0.0000000001
12
0.4000144468
22
-0.0000601290
32
0.0000000000
13
-0.0000000081
23
-0.4000144513
33
0.0000000000
40
0.0000000000
40
0.0000000000
40
0.0000000000
40
0.0000000000
40
0.0489917834
40
0.1911192070
40
0.4124922276
40
0.6912948346
40
1.0000000000
40
1.0000000000
40
1.0000000000
40
1.0000000000
10
41.4070051719
20
35.9675266743
30
0.0000000000
10
41.4135376456
20
35.9675256923
30
0.0000000000
10
41.3996003097
20
35.9264729647
30
0.0000000000
10
41.4116090402
20
35.8858888270
30
0.0000000000
10
41.4050615929
20
35.7926976632
30
0.0000000000
10
41.4074106600
20
35.6877882031
30
0.0000000000
10
41.4070050770
20
35.6086888501
30
0.0000000000
10
41.4070050761
20
35.5675266743
30
0.0000000000
11
41.4070051719
21
35.9675266743
31
0.0000000000
11
41.4076736609
21
35.9479406577
31
0.0000000000
11
41.4071176881
21
35.8910903528
31
0.0000000000
11
41.4069303043
21
35.8025381437
31
0.0000000000
11
41.4068482535
21
35.6910131021
31
0.0000000000
11
41.4070050761
21
35.5675266743
31
0.0000000000
0
SPLINE
5
41C
100
AcDbEntity
8
0
100
AcDbSpline
62
7
6
CONTINUOUS
70
0
71
3
72
15
73
11
74
9
42
0.0000001000
43
0.0000001000
44
0.0000000001
12
0.9673162609
22
0.0000840464
32
0.0000000000
13
0.0013069652
23
0.9673153817
33
0.0000000000
40
0.0000000000
40
0.0000000000
40
0.0000000000
40
0.0000000000
40
0.1756682604
40
0.3385626113
40
0.4826610088
40
0.6112123914
40
0.7263368521
40
0.8287924811
40
0.9183399670
40
1.0000000000
40
1.0000000000
40
1.0000000000
40
1.0000000000
10
40.6070057893
20
13.9675266743
30
0.0000000000
10
40.6636480443
20
13.9675315957
30
0.0000000000
10
40.7729099597
20
13.9732839496
30
0.0000000000
10
40.9268553007
20
13.9980463029
30
0.0000000000
10
41.0624573195
20
14.0357814822
30
0.0000000000
10
41.1781676567
20
14.0841372284
30
0.0000000000
10
41.2739975859
20
14.1423615328
30
0.0000000000
10
41.3476450503
20
14.2098205697
30
0.0000000000
10
41.3955504308
20
14.2855621205
30
0.0000000000
10
41.4069695005
20
14.3411963390
30
0.0000000000
10
41.4070050761
20
14.3675266743
30
0.0000000000
11
40.6070057893
21
13.9675266743
31
0.0000000000
11
40.7766886140
21
13.9766285772
31
0.0000000000
11
40.9321923648
21
14.0020647775
31
0.0000000000
11
41.0663119946
21
14.0400271424
31
0.0000000000
11
41.1807136677
21
14.0887625577
31
0.0000000000
11
41.2752472727
21
14.1476254479
31
0.0000000000
11
41.3472007882
21
14.2157788656
31
0.0000000000
11
41.3918561791
21
14.2900018310
31
0.0000000000
11
41.4070050761
21
14.3675266743
31
0.0000000000
0
SPLINE
5
41D
100
AcDbEntity
8
0
100
AcDbSpline
62
7
6
CONTINUOUS
70
0
71
3
72
12
73
8
74
6
42
0.0000001000
43
0.0000001000
44
0.0000000001
12
0.4000144468
22
-0.0000601290
32
0.0000000000
13
-0.0000000081
23
-0.4000144513
33
0.0000000000
40
0.0000000000
40
0.0000000000
40
0.0000000000
40
0.0000000000
40
0.0489917834
40
0.1911192070
40
0.4124922276
40
0.6912948346
40
1.0000000000
40
1.0000000000
40
1.0000000000
40
1.0000000000
10
93.4070051719
20
35.9675266743
30
0.0000000000
10
93.4135376456
20
35.9675256923
30
0.0000000000
10
93.3996003097
20
35.9264729647
30
0.0000000000
10
93.4116090402
20
35.8858888270
30
0.0000000000
10
93.4050615929
20
35.7926976632
30
0.0000000000
10
93.4074106600
20
35.6877882031
30
0.0000000000
10
93.4070050770
20
35.6086888501
30
0.0000000000
10
93.4070050761
20
35.5675266743
30
0.0000000000
11
93.4070051719
21
35.9675266743
31
0.0000000000
11
93.4076736609
21
35.9479406577
31
0.0000000000
11
93.4071176881
21
35.8910903528
31
0.0000000000
11
93.4069303043
21
35.8025381437
31
0.0000000000
11
93.4068482535
21
35.6910131021
31
0.0000000000
11
93.4070050761
21
35.5675266743
31
0.0000000000
0
SPLINE
5
41E
100
AcDbEntity
8
0
100
AcDbSpline
62
7
6
CONTINUOUS
70
0
71
3
72
15
73
11
74
9
42
0.0000001000
43
0.0000001000
44
0.0000000001
12
0.9673162609
22
0.0000840464
32
0.0000000000
13
0.0013069652
23
0.9673153817
33
0.0000000000
40
0.0000000000
40
0.0000000000
40
0.0000000000
40
0.0000000000
40
0.1756682604
40
0.3385626113
40
0.4826610088
40
0.6112123914
40
0.7263368521
40
0.8287924811
40
0.9183399670
40
1.0000000000
40
1.0000000000
40
1.0000000000
40
1.0000000000
10
92.6070057893
20
13.9675266743
30
0.0000000000
10
92.6636480443
20
13.9675315957
30
0.0000000000
10
92.7729099597
20
13.9732839496
30
0.0000000000
10
92.9268553007
20
13.9980463029
30
0.0000000000
10
93.0624573195
20
14.0357814822
30
0.0000000000
10
93.1781676567
20
14.0841372284
30
0.0000000000
10
93.2739975859
20
14.1423615328
30
0.0000000000
10
93.3476450503
20
14.2098205697
30
0.0000000000
10
93.3955504308
20
14.2855621205
30
0.0000000000
10
93.4069695005
20
14.3411963390
30
0.0000000000
10
93.4070050761
20
14.3675266743
30
0.0000000000
11
92.6070057893
21
13.9675266743
31
0.0000000000
11
92.7766886140
21
13.9766285772
31
0.0000000000
11
92.9321923648
21
14.0020647775
31
0.0000000000
11
93.0663119946
21
14.0400271424
31
0.0000000000
11
93.1807136677
21
14.0887625577
31
0.0000000000
11
93.2752472727
21
14.1476254479
31
0.0000000000
11
93.3472007882
21
14.2157788656
31
0.0000000000
11
93.3918561791
21
14.2900018310
31
0.0000000000
11
93.4070050761
21
14.3675266743
31
0.0000000000
0
ENDSEC
0
SECTION
2
OBJECTS
0
DICTIONARY
5
C
100
AcDbDictionary
280
0
281
1
3
ACAD_GROUP
350
D
3
ACAD_MLINESTYLE
350
17
3
ACAD_LAYOUT
350
1A
3
ACAD_PLOTSETTINGS
350
19
3
ACAD_PLOTSTYLENAME
350
E
0
DICTIONARY
5
D
102
{ACAD_REACTORS
330
C
102
}
100
AcDbDictionary
280
0
281
1
0
ACDBDICTIONARYWDFLT
5
E
102
{ACAD_REACTORS
330
C
102
}
100
AcDbDictionary
281
1
3
Normal
350
F
100
AcDbDictionaryWithDefault
340
F
0
DICTIONARY
5
17
102
{ACAD_REACTORS
330
C
102
}
100
AcDbDictionary
280
0
281
1
3
Standard
350
18
0
DICTIONARY
5
19
102
{ACAD_REACTORS
330
C
102
}
100
AcDbDictionary
281
1
0
DICTIONARY
5
1A
102
{ACAD_REACTORS
330
C
102
}
100
AcDbDictionary
281
1
3
Layout1
350
1E
3
Model
350
22
0
ACDBPLACEHOLDER
5
F
102
{ACAD_REACTORS
330
E
102
}
0
MLINESTYLE
5
18
102
{ACAD_REACTORS
330
17
102
}
100
AcDbMlineStyle
2
STANDARD
70
0
3

62
256
51
90.0
52
90.0
71
2
49
0.5
62
256
6
BYLAYER
49
-0.5
62
256
6
BYLAYER
0
LAYOUT
5
1E
102
{ACAD_REACTORS
330
1A
102
}
100
AcDbPlotSettings
1

2

4

6

40
0.0
41
0.0
42
0.0
43
0.0
44
0.0
45
0.0
46
0.0
47
0.0
48
0.0
49
0.0
140
0.0
141
0.0
142
1.0
143
1.0
70
0
72
0
73
0
74
0
7

75
0
147
1.0
148
0.0
149
0.0
100
AcDbLayout
1
Layout1
70
0
71
0
10
0.0
20
0.0
11
0.0
21
0.0
12
0.0
22
0.0
32
0.0
14
0.0
24
0.0
34
0.0
15
0.0
25
0.0
35
0.0
146
0.0
13
0.0
23
0.0
33
0.0
16
0.0
26
0.0
36
0.0
17
0.0
27
0.0
37
0.0
76
0
330
1B
331
0
345
0
346
0
0
LAYOUT
5
22
102
{ACAD_REACTORS
330
1A
102
}
100
AcDbPlotSettings
1

2

4

6

40
0.0
41
0.0
42
0.0
43
0.0
44
0.0
45
0.0
46
0.0
47
0.0
48
0.0
49
0.0
140
0.0
141
0.0
142
1.0
143
1.0
70
0
72
0
73
0
74
0
7

75
0
147
1.0
148
0.0
149
0.0
100
AcDbLayout
1
Model
70
0
71
0
10
0.0
20
0.0
11
0.0
21
0.0
12
0.0
22
0.0
32
0.0
14
0.0
24
0.0
34
0.0
15
0.0
25
0.0
35
0.0
146
0.0
13
0.0
23
0.0
33
0.0
16
0.0
26
0.0
36
0.0
17
0.0
27
0.0
37
0.0
76
0
330
1F
331
0
345
0
346
0
0
ENDSEC
0
EOF
